  0
SECTION
  2
HEADER
  9
$ACADVER
  1
AC1027
  9
$DWGCODEPAGE
  3
ANSI_932
  9
$LTSCALE
 40
20.0
  9
$FILLMODE
 70
     1
  9
$CLAYER
  8
0
  9
$PDMODE
 70
     0
  9
$SPLFRAME
 70
     0
  9
$SPLINETYPE
 70
     6
  9
$SPLINESEGS
 70
     8
  9
$DIMASZ
 40
2.000000
  9
$DIMEXE
 40
1.500000
  9
$DIMEXO
 40
0.800000
  9
$DIMTAD
 70
     1
  9
$DIMTIH
 70
     0
  9
$DIMTOH
 70
     0
  9
$DIMTVP
 40
0.500000
  9
$DIMTXT
 40
3.100000
  9
$EXTMIN
 10
0.000000
 20
0.000000
 30
0.000000
  9
$EXTMAX
 10
297.000000
 20
420.000000
 30
0.000000
  9
$MEASUREMENT
 70
  1
  9
$LIMMIN
 10
0.000000
 20
0.000000
  9
$LIMMAX
 10
297.000000
 20
420.000000
  9
$HANDSEED
  5
1AF
  9
$LWDISPLAY
290
     0
  9
$DIMBLK
  1
_OPEN
  9
$DIMDEC
 70
     2
  9
$DIMADEC
 70
     2
  9
$DIMAUNIT
 70
     0
  9
$DIMZIN
 70
     8
  9
$DIMAZIN
 70
     2
  9
$DIMTOFL
 70
     1
  0
ENDSEC
  0
SECTION
  2
CLASSES
  0
ENDSEC
  0
SECTION
  2
TABLES
  0
TABLE
  2
VPORT
  5
176
100
AcDbSymbolTable
 70
     1
  0
VPORT
  5
177
100
AcDbSymbolTableRecord
100
AcDbViewportTableRecord
  2
*ACTIVE
 70
     0
 12
333.239626
 22
92.647923
 40
149.295844
 41
4.330189
  0
ENDTAB
  0
TABLE
  2
LTYPE
  5
178
100
AcDbSymbolTable
 70
     3
  0
LTYPE
  5
179
100
AcDbSymbolTableRecord
100
AcDbLinetypeTableRecord
  2
BYBLOCK
 70
     0
  3

 72
    65
 73
     0
 40
0.0
  0
LTYPE
  5
17A
100
AcDbSymbolTableRecord
100
AcDbLinetypeTableRecord
  2
BYLAYER
 70
     0
  3

 72
    65
 73
     0
 40
0.0
  0
LTYPE
  5
17B
100
AcDbSymbolTableRecord
100
AcDbLinetypeTableRecord
  2
CONTINUOUS
 70
     0
  3
Solid line (NEC CAE2D for Win R18.0 : 2026.03.12)
 72
    65
 73
     0
 40
0.0
  0
LTYPE
  5
17C
100
AcDbSymbolTableRecord
100
AcDbLinetypeTableRecord
  2
DASHED
 70
     0
  3
__ __ __ __ __ __ __ __ __ __ __ __ __ _
 72
    65
 73
     2
 40
0.75
 49
0.5
 74
     0
 49
-0.25
 74
     0
  0
LTYPE
  5
17D
100
AcDbSymbolTableRecord
100
AcDbLinetypeTableRecord
  2
CENTER
 70
     0
  3
____ _ ____ _ ____ _ ____ _ ____ _ ____
 72
    65
 73
     4
 40
2.0
 49
1.25
 74
     0
 49
-0.25
 74
     0
 49
0.25
 74
     0
 49
-0.25
 74
     0
  0
ENDTAB
  0
TABLE
  2
LAYER
  5
17E
100
AcDbSymbolTable
 70
    18
  0
LAYER
  5
17F
100
AcDbSymbolTableRecord
100
AcDbLayerTableRecord
  2
0
 70
     0
 62
     7
  6
CONTINUOUS
370
    -3
390

  0
LAYER
  5
180
100
AcDbSymbolTableRecord
100
AcDbLayerTableRecord
  2
DXF0
 70
     0
 62
     7
  6
CONTINUOUS
370
    -3
390

  0
LAYER
  5
181
100
AcDbSymbolTableRecord
100
AcDbLayerTableRecord
  2
A0
 70
     0
 62
     9
  6
CONTINUOUS
370
    -3
390

  0
LAYER
  5
182
100
AcDbSymbolTableRecord
100
AcDbLayerTableRecord
  2
A1
 70
     0
 62
    12
  6
CONTINUOUS
370
    -3
390

  0
LAYER
  5
183
100
AcDbSymbolTableRecord
100
AcDbLayerTableRecord
  2
A2
 70
     0
 62
     9
  6
CONTINUOUS
370
    -3
390

  0
LAYER
  5
184
100
AcDbSymbolTableRecord
100
AcDbLayerTableRecord
  2
A3
 70
     0
 62
    12
  6
CONTINUOUS
370
    -3
390

  0
LAYER
  5
185
100
AcDbSymbolTableRecord
100
AcDbLayerTableRecord
  2
A4
 70
     0
 62
     9
  6
CONTINUOUS
370
    -3
390

  0
LAYER
  5
186
100
AcDbSymbolTableRecord
100
AcDbLayerTableRecord
  2
A5
 70
     0
 62
     8
  6
CONTINUOUS
370
    -3
390

  0
LAYER
  5
187
100
AcDbSymbolTableRecord
100
AcDbLayerTableRecord
  2
A6
 70
     0
 62
    12
  6
CONTINUOUS
370
    -3
390

  0
LAYER
  5
188
100
AcDbSymbolTableRecord
100
AcDbLayerTableRecord
  2
A8
 70
     0
 62
    10
  6
CONTINUOUS
370
    -3
390

  0
LAYER
  5
189
100
AcDbSymbolTableRecord
100
AcDbLayerTableRecord
  2
A9
 70
     0
 62
     9
  6
CONTINUOUS
370
    -3
390

  0
LAYER
  5
18A
100
AcDbSymbolTableRecord
100
AcDbLayerTableRecord
  2
A10
 70
     0
 62
     6
  6
CONTINUOUS
370
    -3
390

  0
LAYER
  5
18B
100
AcDbSymbolTableRecord
100
AcDbLayerTableRecord
  2
A20
 70
     0
 62
     1
  6
CONTINUOUS
370
    -3
390

  0
LAYER
  5
18C
100
AcDbSymbolTableRecord
100
AcDbLayerTableRecord
  2
A30
 70
     0
 62
     1
  6
CONTINUOUS
370
    -3
390

  0
LAYER
  5
18D
100
AcDbSymbolTableRecord
100
AcDbLayerTableRecord
  2
A40
 70
     0
 62
     9
  6
CONTINUOUS
370
    -3
390

  0
LAYER
  5
18E
100
AcDbSymbolTableRecord
100
AcDbLayerTableRecord
  2
A50
 70
     0
 62
    12
  6
CONTINUOUS
370
    -3
390

  0
LAYER
  5
18F
100
AcDbSymbolTableRecord
100
AcDbLayerTableRecord
  2
A1023
 70
     0
 62
     8
  6
CONTINUOUS
370
    -3
390

  0
LAYER
  5
190
100
AcDbSymbolTableRecord
100
AcDbLayerTableRecord
  2
DXF1023
 70
     0
 62
    16
  6
CONTINUOUS
370
    -3
390

  0
ENDTAB
  0
TABLE
  2
STYLE
  5
191
100
AcDbSymbolTable
 70
     4
  0
STYLE
  5
192
100
AcDbSymbolTableRecord
100
AcDbTextStyleTableRecord
  2
STANDARD
 70
    64
 40
0.0
 41
1.0
 50
0.0
 71
     0
 42
3.000000000000000
  3
TXT
  4

  0
STYLE
  5
193
100
AcDbSymbolTableRecord
100
AcDbTextStyleTableRecord
  2
ANKTATE
 70
    68
 40
0.0
 41
1.0
 50
0.0
 71
     0
 42
3.000000000000000
  3
TXT
  4

  0
STYLE
  5
194
100
AcDbSymbolTableRecord
100
AcDbTextStyleTableRecord
  2
KNJYOKO
 70
    64
 40
0.0
 41
1.0
 50
0.0
 71
     0
 42
3.000000000000000
  3
TXT
  4
BIGFONT
  0
STYLE
  5
195
100
AcDbSymbolTableRecord
100
AcDbTextStyleTableRecord
  2
KNJTATE
 70
    68
 40
0.0
 41
1.0
 50
0.0
 71
     0
 42
3.000000000000000
  3
TXT
  4
BIGFONT
  0
ENDTAB
  0
TABLE
  2
VIEW
  5
196
100
AcDbSymbolTable
 70
     0
  0
ENDTAB
  0
TABLE
  2
UCS
  5
197
100
AcDbSymbolTable
 70
     0
  0
ENDTAB
  0
TABLE
  2
APPID
  5
198
100
AcDbSymbolTable
 70
     1
  0
APPID
  5
199
100
AcDbSymbolTableRecord
100
AcDbRegAppTableRecord
  2
ACAD
 70
     0
  0
ENDTAB
  0
TABLE
  2
DIMSTYLE
  5
19A
100
AcDbSymbolTable
 70
     2
100
AcDbDimStyleTable
  0
DIMSTYLE
105
19B
100
AcDbSymbolTableRecord
100
AcDbDimStyleTableRecord
  2
STANDARD
 70
     0
 41
2.000000
 44
1.500000
 42
0.800000
145
0.661290
140
3.100000
144
1.000000
146
0.645161
340
192
  0
DIMSTYLE
105
19C
100
AcDbSymbolTableRecord
100
AcDbDimStyleTableRecord
  2
DXF001
 70
     0
 41
2.000000
 44
1.500000
 42
0.800000
145
0.661290
140
3.100000
144
1.000000
146
0.645161
 77
     1
 73
     0
 74
     0
271
     2
179
     2
275
     0
 78
     8
 79
     2
172
     1
340
192
  0
ENDTAB
  0
TABLE
  2
BLOCK_RECORD
  5
19D
100
AcDbSymbolTable
 70
    12
  0
BLOCK_RECORD
  5
19E
100
AcDbSymbolTableRecord
100
AcDbBlockTableRecord
  2
*MODEL_SPACE
  0
BLOCK_RECORD
  5
19F
100
AcDbSymbolTableRecord
100
AcDbBlockTableRecord
  2
*PAPER_SPACE
  0
BLOCK_RECORD
  5
1A0
100
AcDbSymbolTableRecord
100
AcDbBlockTableRecord
  2
*PAPER_SPACE0
  0
BLOCK_RECORD
  5
1
100
AcDbSymbolTableRecord
100
AcDbBlockTableRecord
  2
_NONE
  0
BLOCK_RECORD
  5
4
100
AcDbSymbolTableRecord
100
AcDbBlockTableRecord
  2
_CLOSED
  0
BLOCK_RECORD
  5
B
100
AcDbSymbolTableRecord
100
AcDbBlockTableRecord
  2
_DOT
  0
BLOCK_RECORD
  5
13
100
AcDbSymbolTableRecord
100
AcDbBlockTableRecord
  2
_OPEN
  0
BLOCK_RECORD
  5
19
100
AcDbSymbolTableRecord
100
AcDbBlockTableRecord
  2
_ORIGIN
  0
BLOCK_RECORD
  5
1E
100
AcDbSymbolTableRecord
100
AcDbBlockTableRecord
  2
_OPEN30
  0
BLOCK_RECORD
  5
24
100
AcDbSymbolTableRecord
100
AcDbBlockTableRecord
  2
_BOXFILLED
  0
BLOCK_RECORD
  5
29
100
AcDbSymbolTableRecord
100
AcDbBlockTableRecord
  2
_BOXBLANK
  0
BLOCK_RECORD
  5
31
100
AcDbSymbolTableRecord
100
AcDbBlockTableRecord
  2
_OBLIQUE
  0
BLOCK_RECORD
  5
35
100
AcDbSymbolTableRecord
100
AcDbBlockTableRecord
  2
_OPEN90
  0
BLOCK_RECORD
  5
3B
100
AcDbSymbolTableRecord
100
AcDbBlockTableRecord
  2
_CLOSEDBLANK
  0
BLOCK_RECORD
  5
41
100
AcDbSymbolTableRecord
100
AcDbBlockTableRecord
  2
_DOTBLANK
  0
ENDTAB
  0
ENDSEC
  0
SECTION
  2
BLOCKS
  0
BLOCK
  5
1A1
100
AcDbEntity
  8
0
100
AcDbBlockBegin
  2
*MODEL_SPACE
 70
     0
 10
0.0
 20
0.0
 30
0.0
  3
*MODEL_SPACE
  1

  0
ENDBLK
  5
1A2
100
AcDbEntity
  8
0
100
AcDbBlockEnd
  0
BLOCK
  5
1A3
100
AcDbEntity
  8
0
100
AcDbBlockBegin
  2
*PAPER_SPACE
 70
     0
 10
0.0
 20
0.0
 30
0.0
  3
*PAPER_SPACE
  1

  0
ENDBLK
  5
1A4
100
AcDbEntity
  8
0
100
AcDbBlockEnd
  0
BLOCK
  5
1A5
100
AcDbEntity
  8
0
100
AcDbBlockBegin
  2
*PAPER_SPACE0
 70
     0
 10
0.0
 20
0.0
 30
0.0
  3
*PAPER_SPACE0
  1

  0
ENDBLK
  5
1A6
100
AcDbEntity
  8
0
100
AcDbBlockEnd
  0
BLOCK
  5
2
330
1
100
AcDbEntity
  8
0
100
AcDbBlockBegin
  2
_NONE
 70
     0
 10
0.0
 20
0.0
 30
0.0
  3
_NONE
  1

  0
ENDBLK
  5
3
330
1
100
AcDbEntity
  8
0
100
AcDbBlockEnd
  0
BLOCK
  5
5
330
4
100
AcDbEntity
  8
0
100
AcDbBlockBegin
  2
_CLOSED
 70
     0
 10
0.0
 20
0.0
 30
0.0
  3
_CLOSED
  1

  0
LINE
  5
6
330
4
100
AcDbEntity
  8
0
  6
BYBLOCK
 62
     0
370
    -2
100
AcDbLine
 10
-1.0
 20
0.166667
 30
0.0
 11
0.0
 21
0.0
 31
0.0
  0
LINE
  5
7
330
4
100
AcDbEntity
  8
0
  6
BYBLOCK
 62
     0
370
    -2
100
AcDbLine
 10
0.0
 20
0.0
 30
0.0
 11
-1.0
 21
-0.166667
 31
0.0
  0
LINE
  5
8
330
4
100
AcDbEntity
  8
0
  6
BYBLOCK
 62
     0
370
    -2
100
AcDbLine
 10
-1.0
 20
0.166667
 30
0.0
 11
-1.0
 21
-0.166667
 31
0.0
  0
LINE
  5
9
330
4
100
AcDbEntity
  8
0
  6
BYBLOCK
 62
     0
370
    -2
100
AcDbLine
 10
0.0
 20
0.0
 30
0.0
 11
-1.0
 21
0.0
 31
0.0
  0
ENDBLK
  5
A
330
4
100
AcDbEntity
  8
0
100
AcDbBlockEnd
  0
BLOCK
  5
C
330
B
100
AcDbEntity
  8
0
100
AcDbBlockBegin
  2
_DOT
 70
     0
 10
0.0
 20
0.0
 30
0.0
  3
_DOT
  1

  0
POLYLINE
  5
D
330
B
100
AcDbEntity
  8
0
  6
BYBLOCK
 62
     0
370
    -2
100
AcDb2dPolyline
 66
     1
 10
0.0
 20
0.0
 30
0.0
 70
     1
 40
0.5
 41
0.5
  0
VERTEX
  5
E
330
B
100
AcDbEntity
  8
0
  6
BYBLOCK
 62
     0
370
    -2
100
AcDbVertex
100
AcDb2dVertex
 10
-0.25
 20
0.0
 30
0.0
 42
1.0
  0
VERTEX
  5
F
330
B
100
AcDbEntity
  8
0
  6
BYBLOCK
 62
     0
370
    -2
100
AcDbVertex
100
AcDb2dVertex
 10
0.25
 20
0.0
 30
0.0
 42
1.0
  0
SEQEND
  5
10
330
B
100
AcDbEntity
  8
0
  6
BYBLOCK
 62
     0
370
    -2
  0
LINE
  5
11
330
B
100
AcDbEntity
  8
0
  6
BYBLOCK
 62
     0
370
    -2
100
AcDbLine
 10
-0.5
 20
0.0
 30
0.0
 11
-1.0
 21
0.0
 31
0.0
  0
ENDBLK
  5
12
330
B
100
AcDbEntity
  8
0
100
AcDbBlockEnd
  0
BLOCK
  5
14
330
13
100
AcDbEntity
  8
0
100
AcDbBlockBegin
  2
_OPEN
 70
     0
 10
0.0
 20
0.0
 30
0.0
  3
_OPEN
  1

  0
LINE
  5
15
330
13
100
AcDbEntity
  8
0
  6
BYBLOCK
 62
     0
370
    -2
100
AcDbLine
 10
-1.0
 20
0.166667
 30
0.0
 11
0.0
 21
0.0
 31
0.0
  0
LINE
  5
16
330
13
100
AcDbEntity
  8
0
  6
BYBLOCK
 62
     0
370
    -2
100
AcDbLine
 10
0.0
 20
0.0
 30
0.0
 11
-1.0
 21
-0.166667
 31
0.0
  0
LINE
  5
17
330
13
100
AcDbEntity
  8
0
  6
BYBLOCK
 62
     0
370
    -2
100
AcDbLine
 10
0.0
 20
0.0
 30
0.0
 11
-1.0
 21
0.0
 31
0.0
  0
ENDBLK
  5
18
330
13
100
AcDbEntity
  8
0
100
AcDbBlockEnd
  0
BLOCK
  5
1A
330
19
100
AcDbEntity
  8
0
100
AcDbBlockBegin
  2
_ORIGIN
 70
     0
 10
0.0
 20
0.0
 30
0.0
  3
_ORIGIN
  1

  0
CIRCLE
  5
1B
330
19
100
AcDbEntity
  8
0
  6
BYBLOCK
 62
     0
370
    -2
100
AcDbCircle
 10
0.0
 20
0.0
 30
0.0
 40
0.5
  0
LINE
  5
1C
330
19
100
AcDbEntity
  8
0
  6
BYBLOCK
 62
     0
370
    -2
100
AcDbLine
 10
0.0
 20
0.0
 30
0.0
 11
-1.0
 21
0.0
 31
0.0
  0
ENDBLK
  5
1D
330
19
100
AcDbEntity
  8
0
100
AcDbBlockEnd
  0
BLOCK
  5
1F
330
1E
100
AcDbEntity
  8
0
100
AcDbBlockBegin
  2
_OPEN30
 70
     0
 10
0.0
 20
0.0
 30
0.0
  3
_OPEN30
  1

  0
LINE
  5
20
330
1E
100
AcDbEntity
  8
0
  6
BYBLOCK
 62
     0
370
    -2
100
AcDbLine
 10
-1.0
 20
0.267949
 30
0.0
 11
0.0
 21
0.0
 31
0.0
  0
LINE
  5
21
330
1E
100
AcDbEntity
  8
0
  6
BYBLOCK
 62
     0
370
    -2
100
AcDbLine
 10
0.0
 20
0.0
 30
0.0
 11
-1.0
 21
-0.267949
 31
0.0
  0
LINE
  5
22
330
1E
100
AcDbEntity
  8
0
  6
BYBLOCK
 62
     0
370
    -2
100
AcDbLine
 10
0.0
 20
0.0
 30
0.0
 11
-1.0
 21
0.0
 31
0.0
  0
ENDBLK
  5
23
330
1E
100
AcDbEntity
  8
0
100
AcDbBlockEnd
  0
BLOCK
  5
25
330
24
100
AcDbEntity
  8
0
100
AcDbBlockBegin
  2
_BOXFILLED
 70
     0
 10
0.0
 20
0.0
 30
0.0
  3
_BOXFILLED
  1

  0
SOLID
  5
26
330
24
100
AcDbEntity
  8
0
  6
BYBLOCK
 62
     0
370
    -2
100
AcDbTrace
 10
-0.5
 20
0.5
 30
0.0
 11
0.5
 21
0.5
 31
0.0
 12
-0.5
 22
-0.5
 32
0.0
 13
0.5
 23
-0.5
 33
0.0
  0
LINE
  5
27
330
24
100
AcDbEntity
  8
0
  6
BYBLOCK
 62
     0
370
    -2
100
AcDbLine
 10
-0.5
 20
0.0
 30
0.0
 11
-1.0
 21
0.0
 31
0.0
  0
ENDBLK
  5
28
330
24
100
AcDbEntity
  8
0
100
AcDbBlockEnd
  0
BLOCK
  5
2A
330
29
100
AcDbEntity
  8
0
100
AcDbBlockBegin
  2
_BOXBLANK
 70
     0
 10
0.0
 20
0.0
 30
0.0
  3
_BOXBLANK
  1

  0
LINE
  5
2B
330
29
100
AcDbEntity
  8
0
  6
BYBLOCK
 62
     0
370
    -2
100
AcDbLine
 10
-0.5
 20
-0.5
 30
0.0
 11
0.5
 21
-0.5
 31
0.0
  0
LINE
  5
2C
330
29
100
AcDbEntity
  8
0
  6
BYBLOCK
 62
     0
370
    -2
100
AcDbLine
 10
0.5
 20
-0.5
 30
0.0
 11
0.5
 21
0.5
 31
0.0
  0
LINE
  5
2D
330
29
100
AcDbEntity
  8
0
  6
BYBLOCK
 62
     0
370
    -2
100
AcDbLine
 10
0.5
 20
0.5
 30
0.0
 11
-0.5
 21
0.5
 31
0.0
  0
LINE
  5
2E
330
29
100
AcDbEntity
  8
0
  6
BYBLOCK
 62
     0
370
    -2
100
AcDbLine
 10
-0.5
 20
0.5
 30
0.0
 11
-0.5
 21
-0.5
 31
0.0
  0
LINE
  5
2F
330
29
100
AcDbEntity
  8
0
  6
BYBLOCK
 62
     0
370
    -2
100
AcDbLine
 10
-0.5
 20
0.0
 30
0.0
 11
-1.0
 21
0.0
 31
0.0
  0
ENDBLK
  5
30
330
29
100
AcDbEntity
  8
0
100
AcDbBlockEnd
  0
BLOCK
  5
32
330
31
100
AcDbEntity
  8
0
100
AcDbBlockBegin
  2
_OBLIQUE
 70
     0
 10
0.0
 20
0.0
 30
0.0
  3
_OBLIQUE
  1

  0
LINE
  5
33
330
31
100
AcDbEntity
  8
0
  6
BYBLOCK
 62
     0
370
    -2
100
AcDbLine
 10
-0.5
 20
-0.5
 30
0.0
 11
0.5
 21
0.5
 31
0.0
  0
ENDBLK
  5
34
330
31
100
AcDbEntity
  8
0
100
AcDbBlockEnd
  0
BLOCK
  5
36
330
35
100
AcDbEntity
  8
0
100
AcDbBlockBegin
  2
_OPEN90
 70
     0
 10
0.0
 20
0.0
 30
0.0
  3
_OPEN90
  1

  0
LINE
  5
37
330
35
100
AcDbEntity
  8
0
  6
BYBLOCK
 62
     0
370
    -2
100
AcDbLine
 10
-0.5
 20
0.5
 30
0.0
 11
0.0
 21
0.0
 31
0.0
  0
LINE
  5
38
330
35
100
AcDbEntity
  8
0
  6
BYBLOCK
 62
     0
370
    -2
100
AcDbLine
 10
0.0
 20
0.0
 30
0.0
 11
-0.5
 21
-0.5
 31
0.0
  0
LINE
  5
39
330
35
100
AcDbEntity
  8
0
  6
BYBLOCK
 62
     0
370
    -2
100
AcDbLine
 10
0.0
 20
0.0
 30
0.0
 11
-1.0
 21
0.0
 31
0.0
  0
ENDBLK
  5
3A
330
35
100
AcDbEntity
  8
0
100
AcDbBlockEnd
  0
BLOCK
  5
3C
330
3B
100
AcDbEntity
  8
0
100
AcDbBlockBegin
  2
_CLOSEDBLANK
 70
     0
 10
0.0
 20
0.0
 30
0.0
  3
_CLOSEDBLANK
  1

  0
LINE
  5
3D
330
3B
100
AcDbEntity
  8
0
  6
BYBLOCK
 62
     0
370
    -2
100
AcDbLine
 10
-1.0
 20
0.1666666666666666
 30
0.0
 11
0.0
 21
0.0
 31
0.0
  0
LINE
  5
3E
330
3B
100
AcDbEntity
  8
0
  6
BYBLOCK
 62
     0
370
    -2
100
AcDbLine
 10
0.0
 20
0.0
 30
0.0
 11
-1.0
 21
-0.1666666666666666
 31
0.0
  0
LINE
  5
3F
330
3B
100
AcDbEntity
  8
0
  6
BYBLOCK
 62
     0
370
    -2
100
AcDbLine
 10
-1.0
 20
0.1666666666666666
 30
0.0
 11
-1.0
 21
-0.1666666666666666
 31
0.0
  0
ENDBLK
  5
40
330
3B
100
AcDbEntity
  8
0
100
AcDbBlockEnd
  0
BLOCK
  5
42
330
41
100
AcDbEntity
  8
0
100
AcDbBlockBegin
  2
_DOTBLANK
 70
     0
 10
0.0
 20
0.0
 30
0.0
  3
_DOTBLANK
  1

  0
CIRCLE
  5
43
330
41
100
AcDbEntity
  8
0
  6
BYBLOCK
 62
     0
370
    -2
100
AcDbCircle
 10
0.0
 20
0.0
 30
0.0
 40
0.5
  0
LINE
  5
44
330
41
100
AcDbEntity
  8
0
  6
BYBLOCK
 62
     0
370
    -2
100
AcDbLine
 10
-0.5
 20
0.0
 30
0.0
 11
-1.0
 21
0.0
 31
0.0
  0
ENDBLK
  5
45
330
41
100
AcDbEntity
  8
0
100
AcDbBlockEnd
  0
ENDSEC
  0
SECTION
  2
ENTITIES
  0
MTEXT
  5
46
100
AcDbEntity
  8
A8
  6
CONTINUOUS
 62
3
100
AcDbMText
 10
9.999997526638502
 20
18.00000076076889
 30
0.000000000000000
 40
3.000000000000000
 41
0.000000000000000
 44
0.6739999771118164
 71
     7
 72
     1
  1
{\H0.94x;{TYPE No.TM-378E-12}}
 11
1.000000000000000
 21
0.000000000000000
 31
0.000000000000000
  7
STANDARD
  0
POINT
  5
47
100
AcDbEntity
  8
A0
  6
CONTINUOUS
 62
3
100
AcDbPoint
 10
9.999997526638502
 20
18.00000076076889
 30
0.000000000000000
  0
POINT
  5
48
100
AcDbEntity
  8
A10
  6
CONTINUOUS
 62
3
100
AcDbPoint
 10
50.00000000000000
 20
50.00000000000000
 30
0.000000000000000
  0
SPLINE
  5
49
100
AcDbEntity
  8
A1
  6
CONTINUOUS
 62
7
100
AcDbSpline
210
0.000000000000000
220
0.000000000000000
230
1.000000000000000
 70
     8
 71
     3
 72
    11
 73
     7
 74
     0
 42
1.000000000000000e-07
 43
1.000000000000000e-07
 12
-0.8243239903895301
 22
-0.5661183258453093
 32
0.000000000000000
 13
0.01039795577071345
 23
-0.9999459397959072
 33
0.000000000000000
 40
0.000000000000000
 40
0.000000000000000
 40
0.000000000000000
 40
0.000000000000000
 40
0.03379741434397330
 40
0.1082274051016215
 40
0.2407267954020921
 40
0.4307723479020245
 40
0.4307723479020245
 40
0.4307723479020245
 40
0.4307723479020245
 10
350.2162922043449
 20
103.9499903387248
 30
0.000000000000000
 10
350.2070055311925
 20
103.9436125601827
 30
0.000000000000000
 10
350.1784350517701
 20
103.9179730568146
 30
0.000000000000000
 10
350.1850172447472
 20
103.8301870666411
 30
0.000000000000000
 10
350.1768459131671
 20
103.7023913684735
 30
0.000000000000000
 10
350.1785960934998
 20
103.5933354316475
 30
0.000000000000000
 10
350.1792547885829
 20
103.5299903387813
 30
0.000000000000000
  0
SPLINE
  5
4A
100
AcDbEntity
  8
A1
  6
CONTINUOUS
 62
7
100
AcDbSpline
210
0.000000000000000
220
0.000000000000000
230
1.000000000000000
 70
     8
 71
     3
 72
    19
 73
    15
 74
     0
 42
1.000000000000000e-07
 43
1.000000000000000e-07
 12
0.9771582111716270
 22
0.2125131297289045
 32
0.000000000000000
 13
0.9999990834703567
 23
0.001353904114353099
 33
0.000000000000000
 40
0.000000000000000
 40
0.000000000000000
 40
0.000000000000000
 40
0.000000000000000
 40
0.01987916097021960
 40
0.1081873548124372
 40
0.1803980812257883
 40
0.2720195744910355
 40
0.4629848704361574
 40
0.7050456709827377
 40
0.9581915100137788
 40
1.239982642070564
 40
1.559739519563008
 40
1.898168540833222
 40
2.267010472578574
 40
2.648452596355700
 40
2.648452596355700
 40
2.648452596355700
 40
2.648452596355700
 10
350.2163431006151
 20
71.84999039574549
 30
0.000000000000000
 10
350.2228181290729
 20
71.85139858998355
 30
0.000000000000000
 10
350.2580355957643
 20
71.86085688020511
 30
0.000000000000000
 10
350.3012771268081
 20
71.90694093317769
 30
0.000000000000000
 10
350.3638266760529
 20
71.96173369923049
 30
0.000000000000000
 10
350.4505634498587
 20
72.04266616080334
 30
0.000000000000000
 10
350.5828155841543
 20
72.15689685250626
 30
0.000000000000000
 10
350.7643040805358
 20
72.29651812920426
 30
0.000000000000000
 10
350.9807286611231
 20
72.43918506800995
 30
0.000000000000000
 10
351.2304906544331
 20
72.57694696786996
 30
0.000000000000000
 10
351.5179585577010
 20
72.70286714546353
 30
0.000000000000000
 10
351.8446992973443
 20
72.80726884948963
 30
0.000000000000000
 10
352.2017043068864
 20
72.87726469585508
 30
0.000000000000000
 10
352.4521075305247
 20
72.89349964677282
 30
0.000000000000000
 10
352.5792547885828
 20
72.89367179212643
 30
0.000000000000000
  0
SPLINE
  5
4B
100
AcDbEntity
  8
A1
  6
CONTINUOUS
 62
7
100
AcDbSpline
210
0.000000000000000
220
0.000000000000000
230
1.000000000000000
 70
     8
 71
     3
 72
    11
 73
     7
 74
     0
 42
1.000000000000000e-07
 43
1.000000000000000e-07
 12
-0.01266092020614451
 22
-0.9999198473376509
 32
0.000000000000000
 13
0.9150419199213502
 23
-0.4033587544308830
 33
0.000000000000000
 40
0.000000000000000
 40
0.000000000000000
 40
0.000000000000000
 40
0.000000000000000
 40
0.1956995530114310
 40
0.3354706351461960
 40
0.4090748976002355
 40
0.4318826814911054
 40
0.4318826814911054
 40
0.4318826814911054
 40
0.4318826814911054
 10
350.1792547885829
 20
72.26999033878161
 30
0.000000000000000
 10
350.1784288764412
 20
72.20476238305787
 30
0.000000000000000
 10
350.1765381811010
 20
72.09000999421664
 30
0.000000000000000
 10
350.1858832923234
 20
71.96230639914290
 30
0.000000000000000
 10
350.1797764669000
 20
71.87029117634992
 30
0.000000000000000
 10
350.2093864078282
 20
71.85305696884600
 30
0.000000000000000
 10
350.2163431006151
 20
71.84999039574549
 30
0.000000000000000
  0
SPLINE
  5
4C
100
AcDbEntity
  8
A1
  6
CONTINUOUS
 62
7
100
AcDbSpline
210
0.000000000000000
220
0.000000000000000
230
1.000000000000000
 70
     8
 71
     3
 72
    17
 73
    13
 74
     0
 42
1.000000000000000e-07
 43
1.000000000000000e-07
 12
-0.9999996484079929
 22
-0.0008385594563833365
 32
0.000000000000000
 13
-0.05245907459629962
 23
-0.9986230747847458
 33
0.000000000000000
 40
0.000000000000000
 40
0.000000000000000
 40
0.000000000000000
 40
0.000000000000000
 40
0.3968913951221309
 40
0.8013746514980755
 40
1.186311545886074
 40
1.568137433568878
 40
1.911511082641206
 40
2.235185675936009
 40
2.495783162693473
 40
2.723096174272588
 40
2.907629626462589
 40
3.053171907128279
 40
3.053171907128279
 40
3.053171907128279
 40
3.053171907128279
 10
352.5792547885828
 20
71.98945942768970
 30
0.000000000000000
 10
352.4469577033900
 20
71.98934848867884
 30
0.000000000000000
 10
352.1794821677307
 20
71.97122350213141
 30
0.000000000000000
 10
351.7911946610649
 20
71.89011487760780
 30
0.000000000000000
 10
351.4220953464745
 20
71.75950786700487
 30
0.000000000000000
 10
351.0913990060440
 20
71.59104101089410
 30
0.000000000000000
 10
350.8019431284825
 20
71.39332401521251
 30
0.000000000000000
 10
350.5703845289909
 20
71.18704847548938
 30
0.000000000000000
 10
350.3931423875994
 20
70.98148010696411
 30
0.000000000000000
 10
350.2724810179878
 20
70.79188343104303
 30
0.000000000000000
 10
350.1976842325557
 20
70.62001888817704
 30
0.000000000000000
 10
350.1817997930357
 20
70.51001290318467
 30
0.000000000000000
 10
350.1792547885829
 20
70.46156560990816
 30
0.000000000000000
  0
SPLINE
  5
4D
100
AcDbEntity
  8
A1
  6
CONTINUOUS
 62
7
100
AcDbSpline
210
0.000000000000000
220
0.000000000000000
230
1.000000000000000
 70
     8
 71
     3
 72
    17
 73
    13
 74
     0
 42
1.000000000000000e-07
 43
1.000000000000000e-07
 12
0.05376351621998765
 22
-0.9985536962635706
 32
0.000000000000000
 13
0.9999994920954123
 23
-0.001007872110221797
 33
0.000000000000000
 40
0.000000000000000
 40
0.000000000000000
 40
0.000000000000000
 40
0.000000000000000
 40
0.1461149349531203
 40
0.3425019032556382
 40
0.5820785746847250
 40
0.8765888642840075
 40
1.172789017142225
 40
1.503017253887933
 40
1.847884966162843
 40
2.214448730510612
 40
2.625025399339350
 40
3.053137083773633
 40
3.053137083773633
 40
3.053137083773633
 40
3.053137083773633
 10
350.1792547885829
 20
105.3384150676547
 30
0.000000000000000
 10
350.1818733394747
 20
105.2897805315291
 30
0.000000000000000
 10
350.1983786875714
 20
105.1756441580177
 30
0.000000000000000
 10
350.2780940735038
 20
104.9966555013628
 30
0.000000000000000
 10
350.4117908133423
 20
104.7924105234046
 30
0.000000000000000
 10
350.5977574364300
 20
104.5858969070979
 30
0.000000000000000
 10
350.8310504042356
 20
104.3853890292921
 30
0.000000000000000
 10
351.1006866790317
 20
104.2046984771039
 30
0.000000000000000
 10
351.4107514312174
 20
104.0466362069733
 30
0.000000000000000
 10
351.7630337388747
 20
103.9181672074526
 30
0.000000000000000
 10
352.1565481946686
 20
103.8311188963082
 30
0.000000000000000
 10
352.4365509662512
 20
103.8106650771488
 30
0.000000000000000
 10
352.5792547885828
 20
103.8105212498732
 30
0.000000000000000
  0
SPLINE
  5
4E
100
AcDbEntity
  8
A1
  6
CONTINUOUS
 62
7
100
AcDbSpline
210
0.000000000000000
220
0.000000000000000
230
1.000000000000000
 70
     8
 71
     3
 72
    18
 73
    14
 74
     0
 42
1.000000000000000e-07
 43
1.000000000000000e-07
 12
-0.9915217982465947
 22
0.001532014073745813
 32
0.000000000000000
 13
-0.7272336659716530
 23
0.0008896246281437925
 33
0.000000000000000
 40
0.000000000000000
 40
0.000000000000000
 40
0.000000000000000
 40
0.000000000000000
 40
0.3980446407468119
 40
0.7920084926895192
 40
1.179414932487133
 40
1.539495736889044
 40
1.822168447289712
 40
2.025472827437360
 40
2.187270479653927
 40
2.348460770600464
 40
2.495450680066652
 40
2.588489713397854
 40
2.654816757933540
 40
2.654816757933540
 40
2.654816757933540
 40
2.654816757933540
 10
352.5792547885828
 20
102.9063088854365
 30
0.000000000000000
 10
352.4476981425908
 20
102.9065121554337
 30
0.000000000000000
 10
352.1818064152761
 20
102.9243266718958
 30
0.000000000000000
 10
351.7959905221339
 20
103.0040362273863
 30
0.000000000000000
 10
351.4296413485358
 20
103.1300204827541
 30
0.000000000000000
 10
351.1052652555479
 20
103.2863481386459
 30
0.000000000000000
 10
350.8647418989581
 20
103.4348485633593
 30
0.000000000000000
 10
350.6994771830419
 20
103.5532556774208
 30
0.000000000000000
 10
350.5720178073234
 20
103.6529180464686
 30
0.000000000000000
 10
350.4496038378826
 20
103.7577852481152
 30
0.000000000000000
 10
350.3423097554438
 20
103.8582542152567
 30
0.000000000000000
 10
350.2726494932642
 20
103.9199284367458
 30
0.000000000000000
 10
350.2323706242618
 20
103.9499706700007
 30
0.000000000000000
 10
350.2162922043449
 20
103.9499903387248
 30
0.000000000000000
  0
ARC
  5
4F
100
AcDbEntity
  8
A1
  6
CONTINUOUS
 62
7
100
AcDbCircle
 10
654.4792547885829
 20
75.09999033878179
 30
0.000000000000000
 40
1.300000000000034
100
AcDbArc
 50
90.00000000000000
 51
205.0289994876309
  0
ARC
  5
50
100
AcDbEntity
  8
A1
  6
CONTINUOUS
 62
7
100
AcDbCircle
 10
654.4792547885829
 20
100.6999903387812
 30
0.000000000000000
 40
1.300000000000034
100
AcDbArc
 50
154.9710005123691
 51
270.0000000000000
  0
ARC
  5
51
100
AcDbEntity
  8
A1
  6
CONTINUOUS
 62
7
100
AcDbCircle
 10
514.8792547885828
 20
87.89999033878146
 30
0.000000000000000
 40
2.250000000000000
100
AcDbArc
 50
90.00000000000000
 51
270.0000000000000
  0
ARC
  5
52
100
AcDbEntity
  8
A1
  6
CONTINUOUS
 62
7
100
AcDbCircle
 10
515.6792547885829
 20
87.89999033878149
 30
0.000000000000000
 40
2.250000000000000
100
AcDbArc
 50
270.0000000000000
 51
450.0000000000000
  0
ARC
  5
53
100
AcDbEntity
  8
A1
  6
CONTINUOUS
 62
7
100
AcDbCircle
 10
639.0792547885828
 20
88.29999033878156
 30
0.000000000000000
 40
2.250000000000000
100
AcDbArc
 50
0.000000000000000
 51
180.0000000000015
  0
ARC
  5
54
100
AcDbEntity
  8
A1
  6
CONTINUOUS
 62
7
100
AcDbCircle
 10
639.0792547885828
 20
87.49999033878150
 30
0.000000000000000
 40
2.250000000000000
100
AcDbArc
 50
180.0000000000006
 51
360.0000000000000
  0
ARC
  5
55
100
AcDbEntity
  8
A1
  6
CONTINUOUS
 62
7
100
AcDbCircle
 10
626.3792547885828
 20
88.29999033878150
 30
0.000000000000000
 40
2.250000000000000
100
AcDbArc
 50
0.000000000000000
 51
179.9999999999986
  0
ARC
  5
56
100
AcDbEntity
  8
A1
  6
CONTINUOUS
 62
7
100
AcDbCircle
 10
626.3792547885828
 20
87.49999033878156
 30
0.000000000000000
 40
2.250000000000000
100
AcDbArc
 50
180.0000000000034
 51
360.0000000000001
  0
ARC
  5
57
100
AcDbEntity
  8
A1
  6
CONTINUOUS
 62
7
100
AcDbCircle
 10
654.4792547885829
 20
75.09999033878179
 30
0.000000000000000
 40
1.300000000000033
100
AcDbArc
 50
205.0289994876309
 51
234.6052701337174
  0
ARC
  5
58
100
AcDbEntity
  8
A1
  6
CONTINUOUS
 62
7
100
AcDbCircle
 10
654.4792547885829
 20
100.6999903387812
 30
0.000000000000000
 40
1.300000000000033
100
AcDbArc
 50
125.3947298662826
 51
154.9710005123691
  0
LINE
  5
59
100
AcDbEntity
  8
A1
  6
CONTINUOUS
 62
7
100
AcDbLine
 10
350.1792547885829
 20
75.77489774491980
 30
0.000000000000000
 11
350.1792547885829
 21
74.54999033878141
 31
0.000000000000000
  0
LINE
  5
5A
100
AcDbEntity
  8
A1
  6
CONTINUOUS
 62
7
100
AcDbLine
 10
350.1792547885829
 20
101.2499903387811
 30
0.000000000000000
 11
350.1792547885829
 21
100.0250829326431
 31
0.000000000000000
  0
LINE
  5
5B
100
AcDbEntity
  8
A1
  6
CONTINUOUS
 62
7
100
AcDbLine
 10
514.8792547885829
 20
85.64999033878146
 30
0.000000000000000
 11
515.6792547885830
 21
85.64999033878151
 31
0.000000000000000
  0
LINE
  5
5C
100
AcDbEntity
  8
A1
  6
CONTINUOUS
 62
7
100
AcDbLine
 10
515.6792547885829
 20
90.14999033878145
 30
0.000000000000000
 11
514.8792547885828
 21
90.14999033878145
 31
0.000000000000000
  0
LINE
  5
5D
100
AcDbEntity
  8
A1
  6
CONTINUOUS
 62
7
100
AcDbLine
 10
636.8292547885828
 20
88.29999033878150
 30
0.000000000000000
 11
636.8292547885828
 21
87.49999033878147
 31
0.000000000000000
  0
LINE
  5
5E
100
AcDbEntity
  8
A1
  6
CONTINUOUS
 62
7
100
AcDbLine
 10
641.3292547885828
 20
87.49999033878150
 30
0.000000000000000
 11
641.3292547885828
 21
88.29999033878156
 31
0.000000000000000
  0
LINE
  5
5F
100
AcDbEntity
  8
A1
  6
CONTINUOUS
 62
7
100
AcDbLine
 10
624.1292547885828
 20
88.29999033878154
 30
0.000000000000000
 11
624.1292547885828
 21
87.49999033878142
 31
0.000000000000000
  0
LINE
  5
60
100
AcDbEntity
  8
A1
  6
CONTINUOUS
 62
7
100
AcDbLine
 10
628.6292547885828
 20
87.49999033878156
 30
0.000000000000000
 11
628.6292547885828
 21
88.29999033878150
 31
0.000000000000000
  0
LINE
  5
61
100
AcDbEntity
  8
A1
  6
CONTINUOUS
 62
7
100
AcDbLine
 10
654.9792547885829
 20
72.89367179212648
 30
0.000000000000000
 11
654.9792547885829
 21
73.14999033878149
 31
0.000000000000000
  0
LINE
  5
62
100
AcDbEntity
  8
A1
  6
CONTINUOUS
 62
7
100
AcDbLine
 10
350.1792547885829
 20
74.54999033878141
 30
0.000000000000000
 11
350.1792547885829
 21
72.55043962680011
 31
0.000000000000000
  0
LINE
  5
63
100
AcDbEntity
  8
A1
  6
CONTINUOUS
 62
7
100
AcDbLine
 10
653.3013328896449
 20
74.54999033878185
 30
0.000000000000000
 11
350.1792547885829
 21
74.54999033878143
 31
0.000000000000000
  0
LINE
  5
64
100
AcDbEntity
  8
A1
  6
CONTINUOUS
 62
7
100
AcDbLine
 10
654.9792547885830
 20
73.14999033878149
 30
0.000000000000000
 11
653.7262867370705
 21
74.04025494095828
 31
0.000000000000000
  0
LINE
  5
65
100
AcDbEntity
  8
A1
  6
CONTINUOUS
 62
7
100
AcDbLine
 10
654.9792547885829
 20
102.9063088854365
 30
0.000000000000000
 11
654.9792547885829
 21
102.6499903387815
 31
0.000000000000000
  0
LINE
  5
66
100
AcDbEntity
  8
A1
  6
CONTINUOUS
 62
7
100
AcDbLine
 10
350.1792547885829
 20
103.2495410507629
 30
0.000000000000000
 11
350.1792547885829
 21
101.2499903387811
 31
0.000000000000000
  0
LINE
  5
67
100
AcDbEntity
  8
A1
  6
CONTINUOUS
 62
7
100
AcDbLine
 10
653.3013328896449
 20
101.2499903387811
 30
0.000000000000000
 11
350.1792547885829
 21
101.2499903387811
 31
0.000000000000000
  0
LINE
  5
68
100
AcDbEntity
  8
A1
  6
CONTINUOUS
 62
7
100
AcDbLine
 10
653.7262867370704
 20
101.7597257366047
 30
0.000000000000000
 11
654.9792547885829
 21
102.6499903387815
 31
0.000000000000000
  0
LINE
  5
69
100
AcDbEntity
  8
A1
  6
CONTINUOUS
 62
7
100
AcDbLine
 10
350.1792547885829
 20
103.5299903387813
 30
0.000000000000000
 11
350.1792547885829
 21
103.2495410507629
 31
0.000000000000000
  0
LINE
  5
6A
100
AcDbEntity
  8
A1
  6
CONTINUOUS
 62
7
100
AcDbLine
 10
351.1980349183472
 20
103.2495410507629
 30
0.000000000000000
 11
350.1792547885829
 21
103.2495410507629
 31
0.000000000000000
  0
LINE
  5
6B
100
AcDbEntity
  8
A1
  6
CONTINUOUS
 62
7
100
AcDbLine
 10
350.1792547885829
 20
72.55043962680008
 30
0.000000000000000
 11
350.1792547885829
 21
72.26999033878155
 31
0.000000000000000
  0
LINE
  5
6C
100
AcDbEntity
  8
A1
  6
CONTINUOUS
 62
7
100
AcDbLine
 10
351.1907109920497
 20
72.55043962680001
 30
0.000000000000000
 11
350.1792547885829
 21
72.55043962680011
 31
0.000000000000000
  0
LINE
  5
6D
100
AcDbEntity
  8
A1
  6
CONTINUOUS
 62
7
100
AcDbLine
 10
653.3792547885828
 20
76.39999033878216
 30
0.000000000000000
 11
653.3792547885828
 21
78.39999033878216
 31
0.000000000000000
  0
LINE
  5
6E
100
AcDbEntity
  8
A1
  6
CONTINUOUS
 62
7
100
AcDbLine
 10
654.9792547885829
 20
78.39999033878163
 30
0.000000000000000
 11
654.9792547885829
 21
76.39999033878163
 31
0.000000000000000
  0
LINE
  5
6F
100
AcDbEntity
  8
A1
  6
CONTINUOUS
 62
7
100
AcDbLine
 10
654.9792547885829
 20
76.39999033878165
 30
0.000000000000000
 11
653.3792547885828
 21
76.39999033878166
 31
0.000000000000000
  0
LINE
  5
70
100
AcDbEntity
  8
A1
  6
CONTINUOUS
 62
7
100
AcDbLine
 10
653.3792547885828
 20
97.39999033878082
 30
0.000000000000000
 11
653.3792547885828
 21
99.39999033878082
 31
0.000000000000000
  0
LINE
  5
71
100
AcDbEntity
  8
A1
  6
CONTINUOUS
 62
7
100
AcDbLine
 10
654.9792547885829
 20
99.39999033878134
 30
0.000000000000000
 11
654.9792547885829
 21
97.39999033878134
 31
0.000000000000000
  0
LINE
  5
72
100
AcDbEntity
  8
A1
  6
CONTINUOUS
 62
7
100
AcDbLine
 10
653.3792547885828
 20
99.39999033878132
 30
0.000000000000000
 11
654.9792547885829
 21
99.39999033878132
 31
0.000000000000000
  0
LINE
  5
73
100
AcDbEntity
  8
A1
  6
CONTINUOUS
 62
7
100
AcDbLine
 10
653.3792547885828
 20
97.39999033878082
 30
0.000000000000000
 11
653.3792547885828
 21
78.39999033878216
 31
0.000000000000000
  0
LINE
  5
74
100
AcDbEntity
  8
A1
  6
CONTINUOUS
 62
7
100
AcDbLine
 10
653.3792547885829
 20
78.39999033878216
 30
0.000000000000000
 11
654.9792547885829
 21
78.39999033878163
 31
0.000000000000000
  0
LINE
  5
75
100
AcDbEntity
  8
A1
  6
CONTINUOUS
 62
7
100
AcDbLine
 10
654.9792547885829
 20
78.39999033878163
 30
0.000000000000000
 11
654.9792547885829
 21
97.39999033878134
 31
0.000000000000000
  0
LINE
  5
76
100
AcDbEntity
  8
A1
  6
CONTINUOUS
 62
7
100
AcDbLine
 10
654.9792547885829
 20
97.39999033878134
 30
0.000000000000000
 11
653.3792547885828
 21
97.39999033878082
 31
0.000000000000000
  0
LINE
  5
77
100
AcDbEntity
  8
A1
  6
CONTINUOUS
 62
7
100
AcDbLine
 10
654.9792547885829
 20
72.89367179212647
 30
0.000000000000000
 11
352.5792547885828
 21
72.89367179212643
 31
0.000000000000000
  0
LINE
  5
78
100
AcDbEntity
  8
A1
  6
CONTINUOUS
 62
7
100
AcDbLine
 10
654.9792547885829
 20
71.98945942768972
 30
0.000000000000000
 11
654.9792547885829
 21
72.89367179212648
 31
0.000000000000000
  0
LINE
  5
79
100
AcDbEntity
  8
A1
  6
CONTINUOUS
 62
7
100
AcDbLine
 10
654.9792547885829
 20
103.8105212498732
 30
0.000000000000000
 11
654.9792547885829
 21
102.9063088854365
 31
0.000000000000000
  0
LINE
  5
7A
100
AcDbEntity
  8
A1
  6
CONTINUOUS
 62
7
100
AcDbLine
 10
654.9792547885829
 20
102.9063088854365
 30
0.000000000000000
 11
352.5792547885828
 21
102.9063088854364
 31
0.000000000000000
  0
LINE
  5
7B
100
AcDbEntity
  8
A1
  6
CONTINUOUS
 62
7
100
AcDbLine
 10
654.9792547885829
 20
71.98945942768972
 30
0.000000000000000
 11
352.5792547885828
 21
71.98945942768970
 31
0.000000000000000
  0
LINE
  5
7C
100
AcDbEntity
  8
A1
  6
CONTINUOUS
 62
7
100
AcDbLine
 10
350.1792547885829
 20
70.46156560990816
 30
0.000000000000000
 11
350.1792547885829
 21
70.24999033878137
 31
0.000000000000000
  0
LINE
  5
7D
100
AcDbEntity
  8
A1
  6
CONTINUOUS
 62
7
100
AcDbLine
 10
350.1792547885829
 20
70.24999033878137
 30
0.000000000000000
 11
654.9792547885829
 21
70.24999033878140
 31
0.000000000000000
  0
LINE
  5
7E
100
AcDbEntity
  8
A1
  6
CONTINUOUS
 62
7
100
AcDbLine
 10
654.9792547885829
 20
70.24999033878137
 30
0.000000000000000
 11
654.9792547885829
 21
71.98945942768972
 31
0.000000000000000
  0
LINE
  5
7F
100
AcDbEntity
  8
A1
  6
CONTINUOUS
 62
7
100
AcDbLine
 10
350.1792547885829
 20
70.46156560990816
 30
0.000000000000000
 11
350.1792547885829
 21
72.26999033878155
 31
0.000000000000000
  0
LINE
  5
80
100
AcDbEntity
  8
A1
  6
CONTINUOUS
 62
7
100
AcDbLine
 10
352.5792547885828
 20
72.89367179212644
 30
0.000000000000000
 11
352.5792547885828
 21
71.98945942768970
 31
0.000000000000000
  0
LINE
  5
81
100
AcDbEntity
  8
A1
  6
CONTINUOUS
 62
7
100
AcDbLine
 10
654.9792547885829
 20
103.8105212498732
 30
0.000000000000000
 11
352.5792547885828
 21
103.8105212498732
 31
0.000000000000000
  0
LINE
  5
82
100
AcDbEntity
  8
A1
  6
CONTINUOUS
 62
7
100
AcDbLine
 10
654.9792547885829
 20
105.5499903387816
 30
0.000000000000000
 11
350.1792547885829
 21
105.5499903387815
 31
0.000000000000000
  0
LINE
  5
83
100
AcDbEntity
  8
A1
  6
CONTINUOUS
 62
7
100
AcDbLine
 10
350.1792547885829
 20
105.5499903387815
 30
0.000000000000000
 11
350.1792547885829
 21
105.3384150676547
 31
0.000000000000000
  0
LINE
  5
84
100
AcDbEntity
  8
A1
  6
CONTINUOUS
 62
7
100
AcDbLine
 10
654.9792547885829
 20
105.5499903387816
 30
0.000000000000000
 11
654.9792547885829
 21
103.8105212498732
 31
0.000000000000000
  0
LINE
  5
85
100
AcDbEntity
  8
A1
  6
CONTINUOUS
 62
7
100
AcDbLine
 10
350.1792547885829
 20
103.5299903387813
 30
0.000000000000000
 11
350.1792547885829
 21
105.3384150676547
 31
0.000000000000000
  0
LINE
  5
86
100
AcDbEntity
  8
A1
  6
CONTINUOUS
 62
7
100
AcDbLine
 10
352.5792547885828
 20
103.8105212498732
 30
0.000000000000000
 11
352.5792547885828
 21
102.9063088854364
 31
0.000000000000000
  0
CIRCLE
  5
87
100
AcDbEntity
  8
A1
  6
CONTINUOUS
 62
7
100
AcDbCircle
 10
273.9292547885829
 20
87.89999033878114
 30
0.000000000000000
 40
1.200000000000000
  0
ARC
  5
88
100
AcDbEntity
  8
A1
  6
CONTINUOUS
 62
7
100
AcDbCircle
 10
269.9292547885829
 20
89.59998940001442
 30
0.000000000000000
 40
0.7000000000000000
100
AcDbArc
 50
238.7541664501545
 51
270.1326981011908
  0
ARC
  5
89
100
AcDbEntity
  8
A1
  6
CONTINUOUS
 62
7
100
AcDbCircle
 10
277.9292547885829
 20
89.59998940001454
 30
0.000000000000000
 40
0.7000000000000000
100
AcDbArc
 50
269.8673018988091
 51
301.2458335498439
  0
ARC
  5
8A
100
AcDbEntity
  8
A1
  6
CONTINUOUS
 62
7
100
AcDbCircle
 10
277.9292547885829
 20
86.19999127754782
 30
0.000000000000000
 40
0.7000000000000000
100
AcDbArc
 50
58.75416645015464
 51
90.00000000000000
  0
ARC
  5
8B
100
AcDbEntity
  8
A1
  6
CONTINUOUS
 62
7
100
AcDbCircle
 10
269.9292547885829
 20
86.19999127754794
 30
0.000000000000000
 40
0.7000000000000000
100
AcDbArc
 50
90.00000000000000
 51
121.2458335498480
  0
ARC
  5
8C
100
AcDbEntity
  8
A1
  6
CONTINUOUS
 62
7
100
AcDbCircle
 10
276.1541143349499
 20
89.59999127739523
 30
0.000000000000000
 40
0.7000000000014542
100
AcDbArc
 50
217.3831984098576
 51
270.0000000000000
  0
ARC
  5
8D
100
AcDbEntity
  8
A1
  6
CONTINUOUS
 62
7
100
AcDbCircle
 10
273.9292547885829
 20
87.89999127770373
 30
0.000000000000000
 40
2.099999999999949
100
AcDbArc
 50
37.38319840989766
 51
142.6168015901009
  0
ARC
  5
8E
100
AcDbEntity
  8
A1
  6
CONTINUOUS
 62
7
100
AcDbCircle
 10
271.7043952422169
 20
89.59999127739523
 30
0.000000000000000
 40
0.7000000000014096
100
AcDbArc
 50
270.0000000000745
 51
322.6168015900901
  0
ARC
  5
8F
100
AcDbEntity
  8
A1
  6
CONTINUOUS
 62
7
100
AcDbCircle
 10
271.7043952422169
 20
86.19999127754654
 30
0.000000000000000
 40
0.7000000000013981
100
AcDbArc
 50
37.38319841748397
 51
90.00000000000000
  0
ARC
  5
90
100
AcDbEntity
  8
A1
  6
CONTINUOUS
 62
7
100
AcDbCircle
 10
273.9292547885829
 20
87.89999127770373
 30
0.000000000000000
 40
2.100000000282682
100
AcDbArc
 50
217.3831984174703
 51
322.6168015825436
  0
ARC
  5
91
100
AcDbEntity
  8
A1
  6
CONTINUOUS
 62
7
100
AcDbCircle
 10
276.1541143349499
 20
86.19999127754654
 30
0.000000000000000
 40
0.7000000000014097
100
AcDbArc
 50
90.00000000000000
 51
142.6168015825309
  0
ARC
  5
92
100
AcDbEntity
  8
A1
  6
CONTINUOUS
 62
7
100
AcDbCircle
 10
24.67925478859397
 20
75.09999033877121
 30
0.000000000000000
 40
1.299999999984647
100
AcDbArc
 50
305.3947298661446
 51
334.9710005125716
  0
ARC
  5
93
100
AcDbEntity
  8
A1
  6
CONTINUOUS
 62
7
100
AcDbCircle
 10
24.67925478858285
 20
100.6999903387794
 30
0.000000000000000
 40
1.299999999998505
100
AcDbArc
 50
269.9999999999975
 51
327.7957724961258
  0
ARC
  5
94
100
AcDbEntity
  8
A1
  6
CONTINUOUS
 62
7
100
AcDbCircle
 10
24.67925478858325
 20
75.09999033878373
 30
0.000000000000000
 40
1.299999999997780
100
AcDbArc
 50
32.20422750385709
 51
90.00000000002004
  0
ARC
  5
95
100
AcDbEntity
  8
A1
  6
CONTINUOUS
 62
7
100
AcDbCircle
 10
24.67925478859047
 20
100.6999903387882
 30
0.000000000000000
 40
1.299999999989140
100
AcDbArc
 50
25.02899948747955
 51
54.60527013380221
  0
ARC
  5
96
100
AcDbEntity
  8
A1
  6
CONTINUOUS
 62
7
100
AcDbCircle
 10
24.67925478858285
 20
100.6999903387809
 30
0.000000000000000
 40
1.300000000000034
100
AcDbArc
 50
327.7957724960701
 51
385.0289994876309
  0
ARC
  5
97
100
AcDbEntity
  8
A1
  6
CONTINUOUS
 62
7
100
AcDbCircle
 10
24.67925478858285
 20
75.09999033878148
 30
0.000000000000000
 40
1.300000000000034
100
AcDbArc
 50
334.9710005123691
 51
392.2042275039299
  0
ARC
  5
98
100
AcDbEntity
  8
A1
  6
CONTINUOUS
 62
7
100
AcDbCircle
 10
313.0792547885828
 20
88.29999033878121
 30
0.000000000000000
 40
2.250000000000000
100
AcDbArc
 50
0.000000000000000
 51
180.0000000000000
  0
ARC
  5
99
100
AcDbEntity
  8
A1
  6
CONTINUOUS
 62
7
100
AcDbCircle
 10
313.0792547885828
 20
87.49999033878122
 30
0.000000000000000
 40
2.250000000000000
100
AcDbArc
 50
180.0000000000000
 51
360.0000000000000
  0
ARC
  5
9A
100
AcDbEntity
  8
A1
  6
CONTINUOUS
 62
7
100
AcDbCircle
 10
300.3792547885828
 20
88.29999033878121
 30
0.000000000000000
 40
2.250000000000000
100
AcDbArc
 50
0.000000000000000
 51
180.0000000000000
  0
ARC
  5
9B
100
AcDbEntity
  8
A1
  6
CONTINUOUS
 62
7
100
AcDbCircle
 10
300.3792547885828
 20
87.49999033878122
 30
0.000000000000000
 40
2.250000000000000
100
AcDbArc
 50
180.0000000000000
 51
360.0000000000000
  0
ARC
  5
9C
100
AcDbEntity
  8
A1
  6
CONTINUOUS
 62
7
100
AcDbCircle
 10
52.77925478858286
 20
88.29999033878119
 30
0.000000000000000
 40
2.250000000000000
100
AcDbArc
 50
1.374000000000000e-12
 51
180.0000000000000
  0
ARC
  5
9D
100
AcDbEntity
  8
A1
  6
CONTINUOUS
 62
7
100
AcDbCircle
 10
52.77925478858286
 20
87.49999033878125
 30
0.000000000000000
 40
2.250000000000000
100
AcDbArc
 50
180.0000000000000
 51
359.9999999999967
  0
ARC
  5
9E
100
AcDbEntity
  8
A1
  6
CONTINUOUS
 62
7
100
AcDbCircle
 10
40.07925478858286
 20
88.29999033878124
 30
0.000000000000000
 40
2.250000000000000
100
AcDbArc
 50
359.9999999999985
 51
540.0000000000000
  0
ARC
  5
9F
100
AcDbEntity
  8
A1
  6
CONTINUOUS
 62
7
100
AcDbCircle
 10
40.07925478858286
 20
87.49999033878120
 30
0.000000000000000
 40
2.250000000000000
100
AcDbArc
 50
180.0000000000000
 51
359.9999999999993
  0
ARC
  5
A0
100
AcDbEntity
  8
A1
  6
CONTINUOUS
 62
7
100
AcDbCircle
 10
288.0792547885828
 20
87.89999033878121
 30
0.000000000000000
 40
2.250000000000000
100
AcDbArc
 50
270.0000000000000
 51
450.0000000000000
  0
ARC
  5
A1
100
AcDbEntity
  8
A1
  6
CONTINUOUS
 62
7
100
AcDbCircle
 10
287.2792547885829
 20
87.89999033878121
 30
0.000000000000000
 40
2.250000000000000
100
AcDbArc
 50
90.00000000000000
 51
270.0000000000000
  0
ARC
  5
A2
100
AcDbEntity
  8
A1
  6
CONTINUOUS
 62
7
100
AcDbCircle
 10
202.3792547885829
 20
87.89999033878121
 30
0.000000000000000
 40
2.250000000000000
100
AcDbArc
 50
270.0000000000000
 51
450.0000000000000
  0
ARC
  5
A3
100
AcDbEntity
  8
A1
  6
CONTINUOUS
 62
7
100
AcDbCircle
 10
201.5792547885828
 20
87.89999033878121
 30
0.000000000000000
 40
2.250000000000000
100
AcDbArc
 50
90.00000000000000
 51
270.0000000000000
  0
ARC
  5
A4
100
AcDbEntity
  8
A1
  6
CONTINUOUS
 62
7
100
AcDbCircle
 10
164.2792547885828
 20
87.89999033878119
 30
0.000000000000000
 40
2.250000000000000
100
AcDbArc
 50
270.0000000000000
 51
450.0000000000000
  0
ARC
  5
A5
100
AcDbEntity
  8
A1
  6
CONTINUOUS
 62
7
100
AcDbCircle
 10
163.4792547885828
 20
87.89999033878122
 30
0.000000000000000
 40
2.250000000000000
100
AcDbArc
 50
90.00000000000000
 51
270.0000000000000
  0
ARC
  5
A6
100
AcDbEntity
  8
A1
  6
CONTINUOUS
 62
7
100
AcDbCircle
 10
269.9292547885829
 20
86.19999127754792
 30
0.000000000000000
 40
0.7000000000000000
100
AcDbArc
 50
121.2458335498480
 51
180.0000000000000
  0
ARC
  5
A7
100
AcDbEntity
  8
A1
  6
CONTINUOUS
 62
7
100
AcDbCircle
 10
273.9292547885829
 20
87.89999033878112
 30
0.000000000000000
 40
4.500000000000000
100
AcDbArc
 50
165.8308474967136
 51
194.1691525032854
  0
ARC
  5
A8
100
AcDbEntity
  8
A1
  6
CONTINUOUS
 62
7
100
AcDbCircle
 10
269.9292547885829
 20
89.59998940001441
 30
0.000000000000000
 40
0.7000000000000000
100
AcDbArc
 50
180.0000000000000
 51
238.7541664501543
  0
ARC
  5
A9
100
AcDbEntity
  8
A1
  6
CONTINUOUS
 62
7
100
AcDbCircle
 10
277.9292547885829
 20
89.59998940001452
 30
0.000000000000000
 40
0.7000000000000000
100
AcDbArc
 50
301.2458335498438
 51
360.0000000000000
  0
ARC
  5
AA
100
AcDbEntity
  8
A1
  6
CONTINUOUS
 62
7
100
AcDbCircle
 10
273.9292547885829
 20
87.89999033878112
 30
0.000000000000000
 40
4.500000000000000
100
AcDbArc
 50
345.8308474967133
 51
374.1691525032875
  0
ARC
  5
AB
100
AcDbEntity
  8
A1
  6
CONTINUOUS
 62
7
100
AcDbCircle
 10
277.9292547885829
 20
86.19999127754781
 30
0.000000000000000
 40
0.7000000000000000
100
AcDbArc
 50
0.000000000000000
 51
58.75416645015464
  0
LINE
  5
AC
100
AcDbEntity
  8
A1
  6
CONTINUOUS
 62
7
100
AcDbLine
 10
24.17925478858285
 20
71.41740581881206
 30
0.000000000000000
 11
24.17925478858285
 21
70.24999033878115
 31
0.000000000000000
  0
LINE
  5
AD
100
AcDbEntity
  8
A1
  6
CONTINUOUS
 62
7
100
AcDbLine
 10
24.17925478858285
 20
70.24999033878115
 30
0.000000000000000
 11
328.9792547885829
 21
70.24999033878120
 31
0.000000000000000
  0
LINE
  5
AE
100
AcDbEntity
  8
A1
  6
CONTINUOUS
 62
7
100
AcDbLine
 10
328.9792547885829
 20
70.24999033878120
 30
0.000000000000000
 11
328.9792547885829
 21
71.41740581881211
 31
0.000000000000000
  0
LINE
  5
AF
100
AcDbEntity
  8
A1
  6
CONTINUOUS
 62
7
100
AcDbLine
 10
328.9792547885829
 20
104.3825748587504
 30
0.000000000000000
 11
328.9792547885829
 21
105.5499903387814
 31
0.000000000000000
  0
LINE
  5
B0
100
AcDbEntity
  8
A1
  6
CONTINUOUS
 62
7
100
AcDbLine
 10
24.17925478858285
 20
104.3825748587504
 30
0.000000000000000
 11
24.17925478858285
 21
105.5499903387813
 31
0.000000000000000
  0
LINE
  5
B1
100
AcDbEntity
  8
A1
  6
CONTINUOUS
 62
7
100
AcDbLine
 10
328.9792547885829
 20
105.5499903387814
 30
0.000000000000000
 11
24.17925478858285
 21
105.5499903387813
 31
0.000000000000000
  0
LINE
  5
B2
100
AcDbEntity
  8
A1
  6
CONTINUOUS
 62
7
100
AcDbLine
 10
328.9792547885829
 20
79.99999033878103
 30
0.000000000000000
 11
328.9792547885829
 21
95.79999033878110
 31
0.000000000000000
  0
LINE
  5
B3
100
AcDbEntity
  8
A1
  6
CONTINUOUS
 62
7
100
AcDbLine
 10
276.1541143349498
 20
88.89999127739378
 30
0.000000000000000
 11
277.9276335768884
 21
88.89999127739374
 31
0.000000000000000
  0
LINE
  5
B4
100
AcDbEntity
  8
A1
  6
CONTINUOUS
 62
7
100
AcDbLine
 10
269.9308760002774
 20
88.89999127739362
 30
0.000000000000000
 11
271.7043952422179
 21
88.89999127739362
 31
0.000000000000000
  0
LINE
  5
B5
100
AcDbEntity
  8
A1
  6
CONTINUOUS
 62
7
100
AcDbLine
 10
271.7043952422169
 20
86.89999127754793
 30
0.000000000000000
 11
269.9292547885829
 21
86.89999127754794
 31
0.000000000000000
  0
LINE
  5
B6
100
AcDbEntity
  8
A1
  6
CONTINUOUS
 62
7
100
AcDbLine
 10
277.9292547885829
 20
86.89999127754784
 30
0.000000000000000
 11
276.1541143349499
 21
86.89999127754795
 31
0.000000000000000
  0
LINE
  5
B7
100
AcDbEntity
  8
A1
  6
CONTINUOUS
 62
7
100
AcDbLine
 10
328.9792547885829
 20
71.41740581881211
 30
0.000000000000000
 11
328.9792547885829
 21
73.41695653079411
 31
0.000000000000000
  0
LINE
  5
B8
100
AcDbEntity
  8
A1
  6
CONTINUOUS
 62
7
100
AcDbLine
 10
24.17925478858285
 20
73.14999033878117
 30
0.000000000000000
 11
24.55498590111733
 21
73.41695653079383
 31
0.000000000000000
  0
LINE
  5
B9
100
AcDbEntity
  8
A1
  6
CONTINUOUS
 62
7
100
AcDbLine
 10
24.17925478858285
 20
71.41740581881206
 30
0.000000000000000
 11
328.9792547885829
 21
71.41740581881211
 31
0.000000000000000
  0
LINE
  5
BA
100
AcDbEntity
  8
A1
  6
CONTINUOUS
 62
7
100
AcDbLine
 10
24.17925478858285
 20
71.41740581881206
 30
0.000000000000000
 11
24.17925478858285
 21
73.14999033878118
 31
0.000000000000000
  0
LINE
  5
BB
100
AcDbEntity
  8
A1
  6
CONTINUOUS
 62
7
100
AcDbLine
 10
328.9792547885829
 20
102.3830241467686
 30
0.000000000000000
 11
328.9792547885829
 21
104.3825748587505
 31
0.000000000000000
  0
LINE
  5
BC
100
AcDbEntity
  8
A1
  6
CONTINUOUS
 62
7
100
AcDbLine
 10
24.55498590111738
 20
102.3830241467685
 30
0.000000000000000
 11
24.17925478858284
 21
102.6499903387812
 31
0.000000000000000
  0
LINE
  5
BD
100
AcDbEntity
  8
A1
  6
CONTINUOUS
 62
7
100
AcDbLine
 10
24.17925478858285
 20
104.3825748587504
 30
0.000000000000000
 11
328.9792547885829
 21
104.3825748587505
 31
0.000000000000000
  0
LINE
  5
BE
100
AcDbEntity
  8
A1
  6
CONTINUOUS
 62
7
100
AcDbLine
 10
24.17925478858285
 20
104.3825748587504
 30
0.000000000000000
 11
24.17925478858285
 21
102.6499903387812
 31
0.000000000000000
  0
LINE
  5
BF
100
AcDbEntity
  8
A1
  6
CONTINUOUS
 62
7
100
AcDbLine
 10
328.9792547885829
 20
78.53933016700120
 30
0.000000000000000
 11
328.9792547885829
 21
79.99999033878103
 31
0.000000000000000
  0
LINE
  5
C0
100
AcDbEntity
  8
A1
  6
CONTINUOUS
 62
7
100
AcDbLine
 10
328.9792547885829
 20
79.99999033878103
 30
0.000000000000000
 11
325.1792547885829
 21
79.99999033878103
 31
0.000000000000000
  0
LINE
  5
C1
100
AcDbEntity
  8
A1
  6
CONTINUOUS
 62
7
100
AcDbLine
 10
328.9792547885829
 20
95.79999033878110
 30
0.000000000000000
 11
328.9792547885829
 21
97.26065051056118
 31
0.000000000000000
  0
LINE
  5
C2
100
AcDbEntity
  8
A1
  6
CONTINUOUS
 62
7
100
AcDbLine
 10
328.9792547885829
 20
95.79999033878110
 30
0.000000000000000
 11
325.1792547885829
 21
95.79999033878110
 31
0.000000000000000
  0
LINE
  5
C3
100
AcDbEntity
  8
A1
  6
CONTINUOUS
 62
7
100
AcDbLine
 10
328.9792547885829
 20
77.47866999522137
 30
0.000000000000000
 11
328.9792547885829
 21
78.53933016700120
 31
0.000000000000000
  0
LINE
  5
C4
100
AcDbEntity
  8
A1
  6
CONTINUOUS
 62
7
100
AcDbLine
 10
328.9792547885829
 20
78.53933016700120
 30
0.000000000000000
 11
325.1792547885829
 21
78.53933016700120
 31
0.000000000000000
  0
LINE
  5
C5
100
AcDbEntity
  8
A1
  6
CONTINUOUS
 62
7
100
AcDbLine
 10
328.9792547885829
 20
73.41695653079404
 30
0.000000000000000
 11
328.9792547885829
 21
74.54999033878156
 31
0.000000000000000
  0
LINE
  5
C6
100
AcDbEntity
  8
A1
  6
CONTINUOUS
 62
7
100
AcDbLine
 10
24.55498590111737
 20
73.41695653079384
 30
0.000000000000000
 11
328.9792547885829
 21
73.41695653079411
 31
0.000000000000000
  0
LINE
  5
C7
100
AcDbEntity
  8
A1
  6
CONTINUOUS
 62
7
100
AcDbLine
 10
25.43222284009535
 20
74.04025494095801
 30
0.000000000000000
 11
24.55498590111736
 21
73.41695653079387
 31
0.000000000000000
  0
LINE
  5
C8
100
AcDbEntity
  8
A1
  6
CONTINUOUS
 62
7
100
AcDbLine
 10
328.9792547885829
 20
97.26065051056125
 30
0.000000000000000
 11
328.9792547885829
 21
98.32131068234095
 31
0.000000000000000
  0
LINE
  5
C9
100
AcDbEntity
  8
A1
  6
CONTINUOUS
 62
7
100
AcDbLine
 10
328.9792547885829
 20
97.26065051056118
 30
0.000000000000000
 11
325.1792547885829
 21
97.26065051056118
 31
0.000000000000000
  0
LINE
  5
CA
100
AcDbEntity
  8
A1
  6
CONTINUOUS
 62
7
100
AcDbLine
 10
24.17925478858275
 20
99.39999033878125
 30
0.000000000000000
 11
24.67925478858224
 21
99.39999033878109
 31
0.000000000000000
  0
LINE
  5
CB
100
AcDbEntity
  8
A1
  6
CONTINUOUS
 62
7
100
AcDbLine
 10
24.17925478858285
 20
76.39999033878135
 30
0.000000000000000
 11
24.17925478858285
 21
99.39999033878104
 31
0.000000000000000
  0
LINE
  5
CC
100
AcDbEntity
  8
A1
  6
CONTINUOUS
 62
7
100
AcDbLine
 10
24.67925478858225
 20
76.39999033878172
 30
0.000000000000000
 11
24.17925478858276
 21
76.39999033878155
 31
0.000000000000000
  0
LINE
  5
CD
100
AcDbEntity
  8
A1
  6
CONTINUOUS
 62
7
100
AcDbLine
 10
328.9792547885829
 20
101.2499903387809
 30
0.000000000000000
 11
328.9792547885829
 21
102.3830241467686
 31
0.000000000000000
  0
LINE
  5
CE
100
AcDbEntity
  8
A1
  6
CONTINUOUS
 62
7
100
AcDbLine
 10
24.55498590111737
 20
102.3830241467685
 30
0.000000000000000
 11
328.9792547885829
 21
102.3830241467686
 31
0.000000000000000
  0
LINE
  5
CF
100
AcDbEntity
  8
A1
  6
CONTINUOUS
 62
7
100
AcDbLine
 10
24.55498590111736
 20
102.3830241467685
 30
0.000000000000000
 11
25.43222284009536
 21
101.7597257366044
 31
0.000000000000000
  0
LINE
  5
D0
100
AcDbEntity
  8
A1
  6
CONTINUOUS
 62
7
100
AcDbLine
 10
328.9792547885829
 20
98.32131068234095
 30
0.000000000000000
 11
328.9792547885829
 21
101.2499903387809
 31
0.000000000000000
  0
LINE
  5
D1
100
AcDbEntity
  8
A1
  6
CONTINUOUS
 62
7
100
AcDbLine
 10
328.9792547885829
 20
74.54999033878156
 30
0.000000000000000
 11
328.9792547885829
 21
77.47866999522137
 31
0.000000000000000
  0
LINE
  5
D2
100
AcDbEntity
  8
A1
  6
CONTINUOUS
 62
7
100
AcDbLine
 10
25.85717668752084
 20
74.54999033878154
 30
0.000000000000000
 11
328.9792547885829
 21
74.54999033878156
 31
0.000000000000000
  0
LINE
  5
D3
100
AcDbEntity
  8
A1
  6
CONTINUOUS
 62
7
100
AcDbLine
 10
328.9792547885829
 20
77.47866999522137
 30
0.000000000000000
 11
325.1792547885829
 21
77.47866999522137
 31
0.000000000000000
  0
LINE
  5
D4
100
AcDbEntity
  8
A1
  6
CONTINUOUS
 62
7
100
AcDbLine
 10
325.1792547885829
 20
77.47866999522137
 30
0.000000000000000
 11
325.1792547885829
 21
98.32131068234095
 31
0.000000000000000
  0
LINE
  5
D5
100
AcDbEntity
  8
A1
  6
CONTINUOUS
 62
7
100
AcDbLine
 10
328.9792547885829
 20
98.32131068234095
 30
0.000000000000000
 11
325.1792547885829
 21
98.32131068234095
 31
0.000000000000000
  0
LINE
  5
D6
100
AcDbEntity
  8
A1
  6
CONTINUOUS
 62
7
100
AcDbLine
 10
25.85717668752086
 20
101.2499903387808
 30
0.000000000000000
 11
328.9792547885829
 21
101.2499903387809
 31
0.000000000000000
  0
LINE
  5
D7
100
AcDbEntity
  8
A1
  6
CONTINUOUS
 62
7
100
AcDbLine
 10
25.77925478858285
 20
100.0071700157545
 30
0.000000000000000
 11
25.77925478858285
 21
75.79281066180786
 31
0.000000000000000
  0
LINE
  5
D8
100
AcDbEntity
  8
A1
  6
CONTINUOUS
 62
7
100
AcDbLine
 10
310.8292547885828
 20
87.49999033878122
 30
0.000000000000000
 11
310.8292547885828
 21
88.29999033878121
 31
0.000000000000000
  0
LINE
  5
D9
100
AcDbEntity
  8
A1
  6
CONTINUOUS
 62
7
100
AcDbLine
 10
315.3292547885828
 20
88.29999033878121
 30
0.000000000000000
 11
315.3292547885828
 21
87.49999033878122
 31
0.000000000000000
  0
LINE
  5
DA
100
AcDbEntity
  8
A1
  6
CONTINUOUS
 62
7
100
AcDbLine
 10
298.1292547885828
 20
87.49999033878122
 30
0.000000000000000
 11
298.1292547885828
 21
88.29999033878121
 31
0.000000000000000
  0
LINE
  5
DB
100
AcDbEntity
  8
A1
  6
CONTINUOUS
 62
7
100
AcDbLine
 10
302.6292547885828
 20
88.29999033878121
 30
0.000000000000000
 11
302.6292547885828
 21
87.49999033878122
 31
0.000000000000000
  0
LINE
  5
DC
100
AcDbEntity
  8
A1
  6
CONTINUOUS
 62
7
100
AcDbLine
 10
50.52925478858286
 20
87.49999033878126
 30
0.000000000000000
 11
50.52925478858286
 21
88.29999033878120
 31
0.000000000000000
  0
LINE
  5
DD
100
AcDbEntity
  8
A1
  6
CONTINUOUS
 62
7
100
AcDbLine
 10
55.02925478858286
 20
88.29999033878124
 30
0.000000000000000
 11
55.02925478858286
 21
87.49999033878112
 31
0.000000000000000
  0
LINE
  5
DE
100
AcDbEntity
  8
A1
  6
CONTINUOUS
 62
7
100
AcDbLine
 10
37.82925478858286
 20
87.49999033878120
 30
0.000000000000000
 11
37.82925478858286
 21
88.29999033878124
 31
0.000000000000000
  0
LINE
  5
DF
100
AcDbEntity
  8
A1
  6
CONTINUOUS
 62
7
100
AcDbLine
 10
42.32925478858286
 20
88.29999033878119
 30
0.000000000000000
 11
42.32925478858286
 21
87.49999033878117
 31
0.000000000000000
  0
LINE
  5
E0
100
AcDbEntity
  8
A1
  6
CONTINUOUS
 62
7
100
AcDbLine
 10
287.2792547885829
 20
90.14999033878121
 30
0.000000000000000
 11
288.0792547885828
 21
90.14999033878121
 31
0.000000000000000
  0
LINE
  5
E1
100
AcDbEntity
  8
A1
  6
CONTINUOUS
 62
7
100
AcDbLine
 10
288.0792547885828
 20
85.64999033878121
 30
0.000000000000000
 11
287.2792547885829
 21
85.64999033878121
 31
0.000000000000000
  0
LINE
  5
E2
100
AcDbEntity
  8
A1
  6
CONTINUOUS
 62
7
100
AcDbLine
 10
201.5792547885828
 20
90.14999033878119
 30
0.000000000000000
 11
202.3792547885829
 21
90.14999033878119
 31
0.000000000000000
  0
LINE
  5
E3
100
AcDbEntity
  8
A1
  6
CONTINUOUS
 62
7
100
AcDbLine
 10
202.3792547885829
 20
85.64999033878121
 30
0.000000000000000
 11
201.5792547885828
 21
85.64999033878121
 31
0.000000000000000
  0
LINE
  5
E4
100
AcDbEntity
  8
A1
  6
CONTINUOUS
 62
7
100
AcDbLine
 10
163.4792547885828
 20
90.14999033878117
 30
0.000000000000000
 11
164.2792547885828
 21
90.14999033878117
 31
0.000000000000000
  0
LINE
  5
E5
100
AcDbEntity
  8
A1
  6
CONTINUOUS
 62
7
100
AcDbLine
 10
164.2792547885828
 20
85.64999033878117
 30
0.000000000000000
 11
163.4792547885828
 21
85.64999033878117
 31
0.000000000000000
  0
LINE
  5
E6
100
AcDbEntity
  8
A1
  6
CONTINUOUS
 62
7
100
AcDbLine
 10
276.8160066766177
 20
82.89999033878112
 30
0.000000000000000
 11
271.0425029005449
 21
82.89999033878141
 31
0.000000000000000
  0
LINE
  5
E7
100
AcDbEntity
  8
A1
  6
CONTINUOUS
 62
7
100
AcDbLine
 10
271.0425029005449
 20
82.89999033878138
 30
0.000000000000000
 11
269.2292547885799
 21
86.04062819543260
 31
0.000000000000000
  0
LINE
  5
E8
100
AcDbEntity
  8
A1
  6
CONTINUOUS
 62
7
100
AcDbLine
 10
269.2292547885799
 20
86.04062819543262
 30
0.000000000000000
 11
269.2292547885828
 21
86.19999127754792
 31
0.000000000000000
  0
LINE
  5
E9
100
AcDbEntity
  8
A1
  6
CONTINUOUS
 62
7
100
AcDbLine
 10
269.2292547885829
 20
89.59998940001441
 30
0.000000000000000
 11
269.2292547885829
 21
89.75935248213563
 31
0.000000000000000
  0
LINE
  5
EA
100
AcDbEntity
  8
A1
  6
CONTINUOUS
 62
7
100
AcDbLine
 10
269.2292547885828
 20
89.75935248213567
 30
0.000000000000000
 11
271.0425029005449
 21
92.89999033878091
 31
0.000000000000000
  0
LINE
  5
EB
100
AcDbEntity
  8
A1
  6
CONTINUOUS
 62
7
100
AcDbLine
 10
271.0425029005449
 20
92.89999033878092
 30
0.000000000000000
 11
276.8160066766177
 21
92.89999033878112
 31
0.000000000000000
  0
LINE
  5
EC
100
AcDbEntity
  8
A1
  6
CONTINUOUS
 62
7
100
AcDbLine
 10
276.8160066766176
 20
92.89999033878109
 30
0.000000000000000
 11
278.6292547885838
 21
89.75935248212960
 31
0.000000000000000
  0
LINE
  5
ED
100
AcDbEntity
  8
A1
  6
CONTINUOUS
 62
7
100
AcDbLine
 10
278.6292547885838
 20
89.75935248212963
 30
0.000000000000000
 11
278.6292547885838
 21
89.59998940001452
 31
0.000000000000000
  0
LINE
  5
EE
100
AcDbEntity
  8
A1
  6
CONTINUOUS
 62
7
100
AcDbLine
 10
278.6292547885829
 20
86.19999127754781
 30
0.000000000000000
 11
278.6292547885838
 21
86.04062819543273
 31
0.000000000000000
  0
LINE
  5
EF
100
AcDbEntity
  8
A1
  6
CONTINUOUS
 62
7
100
AcDbLine
 10
278.6292547885837
 20
86.04062819543270
 30
0.000000000000000
 11
276.8160066766177
 21
82.89999033878109
 31
0.000000000000000
  0
ARC
  5
F0
100
AcDbEntity
  8
A1
  6
CONTINUOUS
 62
7
100
AcDbCircle
 10
366.5292547885855
 20
87.89999033878129
 30
0.000000000000000
 40
4.750000000000000
100
AcDbArc
 50
270.0000000000000
 51
450.0000000000000
  0
ARC
  5
F1
100
AcDbEntity
  8
A1
  6
CONTINUOUS
 62
7
100
AcDbCircle
 10
363.3292547885857
 20
87.89999033878131
 30
0.000000000000000
 40
4.750000000000000
100
AcDbArc
 50
90.00000000000000
 51
270.0000000000000
  0
LINE
  5
F2
100
AcDbEntity
  8
A1
  6
CONTINUOUS
 62
7
100
AcDbLine
 10
491.9792547885828
 20
78.19999033878148
 30
0.000000000000000
 11
491.9792547885830
 21
97.59999033877926
 31
0.000000000000000
  0
LINE
  5
F3
100
AcDbEntity
  8
A1
  6
CONTINUOUS
 62
7
100
AcDbLine
 10
363.3292547885857
 20
92.64999033878134
 30
0.000000000000000
 11
366.5292547885857
 21
92.64999033878128
 31
0.000000000000000
  0
LINE
  5
F4
100
AcDbEntity
  8
A1
  6
CONTINUOUS
 62
7
100
AcDbLine
 10
366.5292547885857
 20
83.14999033878128
 30
0.000000000000000
 11
363.3292547885856
 21
83.14999033878134
 31
0.000000000000000
  0
LINE
  5
F5
100
AcDbEntity
  8
A1
  6
CONTINUOUS
 62
7
100
AcDbLine
 10
491.9792547885829
 20
76.12850885657406
 30
0.000000000000000
 11
491.9792547885829
 21
75.77489774491875
 31
0.000000000000000
  0
LINE
  5
F6
100
AcDbEntity
  8
A1
  6
CONTINUOUS
 62
7
100
AcDbLine
 10
328.9792547885829
 20
75.77489774491987
 30
0.000000000000000
 11
491.9792547885830
 21
75.77489774491875
 31
0.000000000000000
  0
LINE
  5
F7
100
AcDbEntity
  8
A1
  6
CONTINUOUS
 62
7
100
AcDbLine
 10
491.9792547885829
 20
99.67147182098672
 30
0.000000000000000
 11
491.9792547885829
 21
100.0250829326421
 31
0.000000000000000
  0
LINE
  5
F8
100
AcDbEntity
  8
A1
  6
CONTINUOUS
 62
7
100
AcDbLine
 10
491.9792547885830
 20
100.0250829326421
 30
0.000000000000000
 11
328.9792547885829
 21
100.0250829326432
 31
0.000000000000000
  0
LINE
  5
F9
100
AcDbEntity
  8
A1
  6
CONTINUOUS
 62
7
100
AcDbLine
 10
491.9792547885829
 20
76.16355851941549
 30
0.000000000000000
 11
491.9792547885829
 21
76.12850885657406
 31
0.000000000000000
  0
LINE
  5
FA
100
AcDbEntity
  8
A1
  6
CONTINUOUS
 62
7
100
AcDbLine
 10
328.9792547885829
 20
76.12850885657517
 30
0.000000000000000
 11
491.9792547885829
 21
76.12850885657404
 31
0.000000000000000
  0
LINE
  5
FB
100
AcDbEntity
  8
A1
  6
CONTINUOUS
 62
7
100
AcDbLine
 10
491.9792547885829
 20
99.63642215814524
 30
0.000000000000000
 11
491.9792547885829
 21
99.67147182098672
 31
0.000000000000000
  0
LINE
  5
FC
100
AcDbEntity
  8
A1
  6
CONTINUOUS
 62
7
100
AcDbLine
 10
328.9792547885829
 20
99.67147182098788
 30
0.000000000000000
 11
491.9792547885829
 21
99.67147182098675
 31
0.000000000000000
  0
LINE
  5
FD
100
AcDbEntity
  8
A1
  6
CONTINUOUS
 62
7
100
AcDbLine
 10
491.9792547885830
 20
78.19999033878148
 30
0.000000000000000
 11
328.9792547885829
 21
78.19999033878260
 31
0.000000000000000
  0
LINE
  5
FE
100
AcDbEntity
  8
A1
  6
CONTINUOUS
 62
7
100
AcDbLine
 10
491.9792547885830
 20
78.19999033878148
 30
0.000000000000000
 11
491.9792547885829
 21
77.47260397317193
 31
0.000000000000000
  0
LINE
  5
FF
100
AcDbEntity
  8
A1
  6
CONTINUOUS
 62
7
100
AcDbLine
 10
491.9792547885829
 20
76.16355851941549
 30
0.000000000000000
 11
491.9792547885829
 21
77.47260397317194
 31
0.000000000000000
  0
LINE
  5
100
100
AcDbEntity
  8
A1
  6
CONTINUOUS
 62
7
100
AcDbLine
 10
328.9792547885829
 20
77.47260397317305
 30
0.000000000000000
 11
491.9792547885829
 21
77.47260397317193
 31
0.000000000000000
  0
LINE
  5
101
100
AcDbEntity
  8
A1
  6
CONTINUOUS
 62
7
100
AcDbLine
 10
328.9792547885829
 20
76.16355851941663
 30
0.000000000000000
 11
491.9792547885829
 21
76.16355851941550
 31
0.000000000000000
  0
LINE
  5
102
100
AcDbEntity
  8
A1
  6
CONTINUOUS
 62
7
100
AcDbLine
 10
328.9792547885829
 20
97.59999033878040
 30
0.000000000000000
 11
491.9792547885829
 21
97.59999033877928
 31
0.000000000000000
  0
LINE
  5
103
100
AcDbEntity
  8
A1
  6
CONTINUOUS
 62
7
100
AcDbLine
 10
491.9792547885828
 20
97.59999033877926
 30
0.000000000000000
 11
491.9792547885829
 21
98.32737670438878
 31
0.000000000000000
  0
LINE
  5
104
100
AcDbEntity
  8
A1
  6
CONTINUOUS
 62
7
100
AcDbLine
 10
491.9792547885829
 20
99.63642215814525
 30
0.000000000000000
 11
491.9792547885829
 21
98.32737670438880
 31
0.000000000000000
  0
LINE
  5
105
100
AcDbEntity
  8
A1
  6
CONTINUOUS
 62
7
100
AcDbLine
 10
328.9792547885829
 20
99.63642215814637
 30
0.000000000000000
 11
491.9792547885829
 21
99.63642215814527
 31
0.000000000000000
  0
LINE
  5
106
100
AcDbEntity
  8
A1
  6
CONTINUOUS
 62
7
100
AcDbLine
 10
328.9792547885829
 20
98.32737670438993
 30
0.000000000000000
 11
491.9792547885829
 21
98.32737670438881
 31
0.000000000000000
  0
SPLINE
  5
107
100
AcDbEntity
  8
A1
  6
CONTINUOUS
 62
7
100
AcDbSpline
210
0.000000000000000
220
0.000000000000000
230
1.000000000000000
 70
     8
 71
     3
 72
    10
 73
     6
 74
     0
 42
1.000000000000000e-07
 43
1.000000000000000e-07
 12
0.9693677461790458
 22
-0.2456138690472471
 32
0.000000000000000
 13
0.9976299186278084
 23
-0.06880803340754937
 33
0.000000000000000
 40
0.000000000000000
 40
0.000000000000000
 40
0.000000000000000
 40
0.000000000000000
 40
0.1593552073512100
 40
0.2995991515673971
 40
0.4336349660033989
 40
0.4336349660033989
 40
0.4336349660033989
 40
0.4336349660033989
 10
25.43222284009539
 20
144.1495083767240
 30
0.000000000000000
 10
25.48371410615937
 20
144.1364617603805
 30
0.000000000000000
 10
25.58095430482012
 20
144.1138519815645
 30
0.000000000000000
 10
25.72145538053815
 20
144.0792183622509
 30
0.000000000000000
 10
25.81260397463791
 20
144.0692137008159
 30
0.000000000000000
 10
25.85717668752091
 20
144.0661394538834
 30
0.000000000000000
  0
SPLINE
  5
108
100
AcDbEntity
  8
A1
  6
CONTINUOUS
 62
7
100
AcDbSpline
210
0.000000000000000
220
0.000000000000000
230
1.000000000000000
 70
     8
 71
     3
 72
    17
 73
    13
 74
     0
 42
1.000000000000000e-07
 43
1.000000000000000e-07
 12
0.01297619500155633
 22
0.9999158056368742
 32
0.000000000000000
 13
-0.9999943034117678
 23
-0.003375373450808183
 33
0.000000000000000
 40
0.000000000000000
 40
0.000000000000000
 40
0.000000000000000
 40
0.000000000000000
 40
0.3665938535936327
 40
0.7277380964931692
 40
1.066963995356221
 40
1.410431768882804
 40
1.718141130059611
 40
2.043415589479990
 40
2.378062680964248
 40
2.735812780474413
 40
3.141763377117903
 40
3.569270663111415
 40
3.569270663111415
 40
3.569270663111415
 40
3.569270663111415
 10
328.9792547885829
 20
150.6498209072283
 30
0.000000000000000
 10
328.9808404530265
 20
150.7720085700475
 30
0.000000000000000
 10
328.9653924025110
 20
151.0149742138131
 30
0.000000000000000
 10
328.8950338015364
 20
151.3651063876407
 30
0.000000000000000
 10
328.7626577834752
 20
151.6894929955688
 30
0.000000000000000
 10
328.5734528405267
 20
151.9635579231414
 30
0.000000000000000
 10
328.3340875274528
 20
152.1871354758530
 30
0.000000000000000
 10
328.0599046112761
 20
152.3602248563249
 30
0.000000000000000
 10
327.7466913743420
 20
152.4934916974011
 30
0.000000000000000
 10
327.3929371759789
 20
152.5913226010094
 30
0.000000000000000
 10
326.9997966628945
 20
152.6520936365559
 30
0.000000000000000
 10
326.7217564054697
 20
152.6666204527977
 30
0.000000000000000
 10
326.5792547885829
 20
152.6661394538833
 30
0.000000000000000
  0
ELLIPSE
  5
109
100
AcDbEntity
  8
A1
  6
CONTINUOUS
 62
7
100
AcDbEllipse
 10
26.14962996449037
 20
145.6661394538835
 30
0.000000000000000
 11
2.251857343893474
 21
0.000000000000000
 31
0.000000000000000
210
0.000000000000000
220
0.000000000000000
230
1.000000000000000
 40
0.7105245828910633
 41
3.925519873442455
 42
4.388153047842788
  0
ARC
  5
10A
100
AcDbEntity
  8
A1
  6
CONTINUOUS
 62
7
100
AcDbCircle
 10
25.77925478858276
 20
145.6661394538831
 30
0.000000000000000
 40
1.599999999999749
100
AcDbArc
 50
235.5158900442051
 51
270.0000000000041
  0
LINE
  5
10B
100
AcDbEntity
  8
A1
  6
CONTINUOUS
 62
7
100
AcDbLine
 10
25.77925478858344
 20
144.0661394538834
 30
0.000000000000000
 11
25.85717668752091
 21
144.0661394538834
 31
0.000000000000000
  0
LINE
  5
10C
100
AcDbEntity
  8
A1
  6
CONTINUOUS
 62
7
100
AcDbLine
 10
328.9792547885829
 20
144.0661394538833
 30
0.000000000000000
 11
328.9792547885829
 21
144.5364340099923
 31
0.000000000000000
  0
LINE
  5
10D
100
AcDbEntity
  8
A1
  6
CONTINUOUS
 62
7
100
AcDbLine
 10
25.85717668752091
 20
144.0661394538834
 30
0.000000000000000
 11
328.9792547885830
 21
144.0661394538833
 31
0.000000000000000
  0
LINE
  5
10E
100
AcDbEntity
  8
A1
  6
CONTINUOUS
 62
7
100
AcDbLine
 10
24.17925478858297
 20
146.5418758441558
 30
0.000000000000000
 11
24.17925478858297
 21
144.8041867439248
 31
0.000000000000000
  0
LINE
  5
10F
100
AcDbEntity
  8
A1
  6
CONTINUOUS
 62
7
100
AcDbLine
 10
328.9792547885829
 20
144.5364340099922
 30
0.000000000000000
 11
328.9792547885829
 21
146.5418758441555
 31
0.000000000000000
  0
LINE
  5
110
100
AcDbEntity
  8
A1
  6
CONTINUOUS
 62
7
100
AcDbLine
 10
24.55498590111746
 20
144.5364340099924
 30
0.000000000000000
 11
328.9792547885829
 21
144.5364340099922
 31
0.000000000000000
  0
LINE
  5
111
100
AcDbEntity
  8
A1
  6
CONTINUOUS
 62
7
100
AcDbLine
 10
24.55498590111736
 20
144.5364340099923
 30
0.000000000000000
 11
24.17925478858290
 21
144.8041867439247
 31
0.000000000000000
  0
LINE
  5
112
100
AcDbEntity
  8
A1
  6
CONTINUOUS
 62
7
100
AcDbLine
 10
24.17925478858297
 20
146.5418758441557
 30
0.000000000000000
 11
24.17925478858297
 21
152.6661394538833
 31
0.000000000000000
  0
LINE
  5
113
100
AcDbEntity
  8
A1
  6
CONTINUOUS
 62
7
100
AcDbLine
 10
328.9792547885829
 20
146.5418758441556
 30
0.000000000000000
 11
328.9792547885829
 21
150.6498209072283
 31
0.000000000000000
  0
LINE
  5
114
100
AcDbEntity
  8
A1
  6
CONTINUOUS
 62
7
100
AcDbLine
 10
24.17925478858296
 20
152.6661394538833
 30
0.000000000000000
 11
326.5792547885829
 21
152.6661394538833
 31
0.000000000000000
  0
LINE
  5
115
100
AcDbEntity
  8
A1
  6
CONTINUOUS
 62
7
100
AcDbLine
 10
24.17925478858298
 20
146.5418758441557
 30
0.000000000000000
 11
328.9792547885830
 21
146.5418758441555
 31
0.000000000000000
  0
SPLINE
  5
116
100
AcDbEntity
  8
A1
  6
CONTINUOUS
 62
7
100
AcDbSpline
210
0.000000000000000
220
0.000000000000000
230
1.000000000000000
 70
     8
 71
     3
 72
    10
 73
     6
 74
     0
 42
1.000000000000000e-07
 43
1.000000000000000e-07
 12
-0.9693677461782499
 22
0.2456138690481566
 32
0.000000000000000
 13
-0.9976299186328106
 23
0.06880803340754937
 33
0.000000000000000
 40
0.000000000000000
 40
0.000000000000000
 40
0.000000000000000
 40
0.000000000000000
 40
0.1593552073513189
 40
0.2995991515676177
 40
0.4336349660033937
 40
0.4336349660033937
 40
0.4336349660033937
 40
0.4336349660033937
 10
653.7262867370707
 20
163.1827705310428
 30
0.000000000000000
 10
653.6747954710067
 20
163.1958171473863
 30
0.000000000000000
 10
653.5775552723449
 20
163.2184269262023
 30
0.000000000000000
 10
653.4370541966277
 20
163.2530605455158
 30
0.000000000000000
 10
653.3459056025279
 20
163.2630652069509
 30
0.000000000000000
 10
653.3013328896448
 20
163.2661394538834
 30
0.000000000000000
  0
SPLINE
  5
117
100
AcDbEntity
  8
A1
  6
CONTINUOUS
 62
7
100
AcDbSpline
210
0.000000000000000
220
0.000000000000000
230
1.000000000000000
 70
     8
 71
     3
 72
    17
 73
    13
 74
     0
 42
1.000000000000000e-07
 43
1.000000000000000e-07
 12
-0.01297619500201108
 22
-0.9999158056377837
 32
0.000000000000000
 13
0.9999943034104035
 23
0.003375373450808183
 33
0.000000000000000
 40
0.000000000000000
 40
0.000000000000000
 40
0.000000000000000
 40
0.000000000000000
 40
0.3665938535936328
 40
0.7277380964931728
 40
1.066963995356228
 40
1.410431768882876
 40
1.718141130059682
 40
2.043415589480061
 40
2.378062680964321
 40
2.735812780474377
 40
3.141763377117868
 40
3.569270663111493
 40
3.569270663111493
 40
3.569270663111493
 40
3.569270663111493
 10
350.1792547885830
 20
156.6824580005386
 30
0.000000000000000
 10
350.1776691241394
 20
156.5602703377193
 30
0.000000000000000
 10
350.1931171746546
 20
156.3173046939537
 30
0.000000000000000
 10
350.2634757756297
 20
155.9671725201262
 30
0.000000000000000
 10
350.3958517936903
 20
155.6427859121980
 30
0.000000000000000
 10
350.5850567366393
 20
155.3687209846255
 30
0.000000000000000
 10
350.8244220497129
 20
155.1451434319138
 30
0.000000000000000
 10
351.0986049658901
 20
154.9720540514419
 30
0.000000000000000
 10
351.4118182028236
 20
154.8387872103658
 30
0.000000000000000
 10
351.7655724011872
 20
154.7409563067574
 30
0.000000000000000
 10
352.1587129142715
 20
154.6801852712109
 30
0.000000000000000
 10
352.4367531716962
 20
154.6656584549691
 30
0.000000000000000
 10
352.5792547885829
 20
154.6661394538835
 30
0.000000000000000
  0
ELLIPSE
  5
118
100
AcDbEntity
  8
A1
  6
CONTINUOUS
 62
7
100
AcDbEllipse
 10
653.0088796126759
 20
161.6661394538833
 30
0.000000000000000
 11
2.251857343893474
 21
0.000000000000000
 31
0.000000000000000
210
0.000000000000000
220
0.000000000000000
230
1.000000000000000
 40
0.7105245828910633
 41
0.7839272198526015
 42
1.246560394252946
  0
ARC
  5
119
100
AcDbEntity
  8
A1
  6
CONTINUOUS
 62
7
100
AcDbCircle
 10
653.3792547885828
 20
161.6661394538837
 30
0.000000000000000
 40
1.599999999999721
100
AcDbArc
 50
55.51589004420939
 51
90.00000000000405
  0
LINE
  5
11A
100
AcDbEntity
  8
A1
  6
CONTINUOUS
 62
7
100
AcDbLine
 10
653.3792547885828
 20
163.2661394538833
 30
0.000000000000000
 11
653.3013328896448
 21
163.2661394538833
 31
0.000000000000000
  0
LINE
  5
11B
100
AcDbEntity
  8
A1
  6
CONTINUOUS
 62
7
100
AcDbLine
 10
350.1792547885830
 20
163.2661394538835
 30
0.000000000000000
 11
350.1792547885830
 21
162.7958448977745
 31
0.000000000000000
  0
LINE
  5
11C
100
AcDbEntity
  8
A1
  6
CONTINUOUS
 62
7
100
AcDbLine
 10
653.3013328896448
 20
163.2661394538834
 30
0.000000000000000
 11
350.1792547885830
 21
163.2661394538835
 31
0.000000000000000
  0
LINE
  5
11D
100
AcDbEntity
  8
A1
  6
CONTINUOUS
 62
7
100
AcDbLine
 10
654.9792547885829
 20
160.7904030636111
 30
0.000000000000000
 11
654.9792547885829
 21
162.5280921638420
 31
0.000000000000000
  0
LINE
  5
11E
100
AcDbEntity
  8
A1
  6
CONTINUOUS
 62
7
100
AcDbLine
 10
350.1792547885830
 20
162.7958448977745
 30
0.000000000000000
 11
350.1792547885830
 21
160.7904030636113
 31
0.000000000000000
  0
LINE
  5
11F
100
AcDbEntity
  8
A1
  6
CONTINUOUS
 62
7
100
AcDbLine
 10
654.6035236760489
 20
162.7958448977744
 30
0.000000000000000
 11
350.1792547885830
 21
162.7958448977746
 31
0.000000000000000
  0
LINE
  5
120
100
AcDbEntity
  8
A1
  6
CONTINUOUS
 62
7
100
AcDbLine
 10
654.6035236760489
 20
162.7958448977743
 30
0.000000000000000
 11
654.9792547885830
 21
162.5280921638419
 31
0.000000000000000
  0
LINE
  5
121
100
AcDbEntity
  8
A1
  6
CONTINUOUS
 62
7
100
AcDbLine
 10
350.1792547885830
 20
160.7904030636112
 30
0.000000000000000
 11
350.1792547885830
 21
156.6824580005386
 31
0.000000000000000
  0
LINE
  5
122
100
AcDbEntity
  8
A1
  6
CONTINUOUS
 62
7
100
AcDbLine
 10
654.9792547885829
 20
154.6661394538835
 30
0.000000000000000
 11
352.5792547885829
 21
154.6661394538835
 31
0.000000000000000
  0
LINE
  5
123
100
AcDbEntity
  8
A1
  6
CONTINUOUS
 62
7
100
AcDbLine
 10
654.9792547885829
 20
160.7904030636111
 30
0.000000000000000
 11
654.9792547885829
 21
154.6661394538835
 31
0.000000000000000
  0
LINE
  5
124
100
AcDbEntity
  8
A1
  6
CONTINUOUS
 62
7
100
AcDbLine
 10
654.9792547885829
 20
160.7904030636111
 30
0.000000000000000
 11
350.1792547885830
 21
160.7904030636113
 31
0.000000000000000
  0
LINE
  5
125
100
AcDbEntity
  8
A1
  6
CONTINUOUS
 62
7
100
AcDbLine
 10
190.3792547885829
 20
153.6661394538833
 30
0.000000000000000
 11
188.7792547885829
 21
153.6661394538833
 31
0.000000000000000
  0
LINE
  5
126
100
AcDbEntity
  8
A1
  6
CONTINUOUS
 62
7
100
AcDbLine
 10
490.3792547885828
 20
153.6661394538833
 30
0.000000000000000
 11
488.7792547885828
 21
153.6661394538833
 31
0.000000000000000
  0
LINE
  5
127
100
AcDbEntity
  8
A1
  6
CONTINUOUS
 62
7
100
AcDbLine
 10
315.7792547885829
 20
153.6661394538833
 30
0.000000000000000
 11
312.5792547885829
 21
153.6661394538833
 31
0.000000000000000
  0
LINE
  5
128
100
AcDbEntity
  8
A1
  6
CONTINUOUS
 62
7
100
AcDbLine
 10
366.5792547885829
 20
153.6661394538833
 30
0.000000000000000
 11
363.3792547885829
 21
153.6661394538833
 31
0.000000000000000
  0
LINE
  5
129
100
AcDbEntity
  8
A1
  6
CONTINUOUS
 62
7
100
AcDbLine
 10
491.9792547885828
 20
147.9861394538839
 30
0.000000000000000
 11
491.9792547885828
 21
147.0661394538836
 31
0.000000000000000
  0
LINE
  5
12A
100
AcDbEntity
  8
A1
  6
CONTINUOUS
 62
7
100
AcDbLine
 10
328.9792547885829
 20
147.0661394538836
 30
0.000000000000000
 11
491.9792547885828
 21
147.0661394538836
 31
0.000000000000000
  0
LINE
  5
12B
100
AcDbEntity
  8
A1
  6
CONTINUOUS
 62
7
100
AcDbLine
 10
187.1792547885830
 20
159.3461394538828
 30
0.000000000000000
 11
187.1792547885830
 21
160.2661394538831
 31
0.000000000000000
  0
LINE
  5
12C
100
AcDbEntity
  8
A1
  6
CONTINUOUS
 62
7
100
AcDbLine
 10
350.1792547885830
 20
160.2661394538831
 30
0.000000000000000
 11
187.1792547885830
 21
160.2661394538831
 31
0.000000000000000
  0
LINE
  5
12D
100
AcDbEntity
  8
A1
  6
CONTINUOUS
 62
7
100
AcDbLine
 10
491.9792547885828
 20
147.9861394538839
 30
0.000000000000000
 11
491.9792547885828
 21
150.7947108824553
 31
0.000000000000000
  0
LINE
  5
12E
100
AcDbEntity
  8
A1
  6
CONTINUOUS
 62
7
100
AcDbLine
 10
328.9792547885829
 20
147.9861394538839
 30
0.000000000000000
 11
491.9792547885828
 21
147.9861394538839
 31
0.000000000000000
  0
LINE
  5
12F
100
AcDbEntity
  8
A1
  6
CONTINUOUS
 62
7
100
AcDbLine
 10
187.1792547885830
 20
159.3461394538828
 30
0.000000000000000
 11
187.1792547885830
 21
156.5375680253114
 31
0.000000000000000
  0
LINE
  5
130
100
AcDbEntity
  8
A1
  6
CONTINUOUS
 62
7
100
AcDbLine
 10
350.1792547885830
 20
159.3461394538828
 30
0.000000000000000
 11
187.1792547885830
 21
159.3461394538828
 31
0.000000000000000
  0
LINE
  5
131
100
AcDbEntity
  8
A1
  6
CONTINUOUS
 62
7
100
AcDbLine
 10
491.9792547885828
 20
150.7947108824553
 30
0.000000000000000
 11
491.9792547885828
 21
153.6661394538833
 31
0.000000000000000
  0
LINE
  5
132
100
AcDbEntity
  8
A1
  6
CONTINUOUS
 62
7
100
AcDbLine
 10
188.7792547885829
 20
152.6661394538833
 30
0.000000000000000
 11
188.7792547885829
 21
153.6661394538833
 31
0.000000000000000
  0
LINE
  5
133
100
AcDbEntity
  8
A1
  6
CONTINUOUS
 62
7
100
AcDbLine
 10
490.3792547885828
 20
153.6661394538833
 30
0.000000000000000
 11
491.9792547885828
 21
153.6661394538833
 31
0.000000000000000
  0
LINE
  5
134
100
AcDbEntity
  8
A1
  6
CONTINUOUS
 62
7
100
AcDbLine
 10
328.9704506190058
 20
150.7947108824553
 30
0.000000000000000
 11
491.9792547885828
 21
150.7947108824553
 31
0.000000000000000
  0
LINE
  5
135
100
AcDbEntity
  8
A1
  6
CONTINUOUS
 62
7
100
AcDbLine
 10
187.1792547885830
 20
156.5375680253114
 30
0.000000000000000
 11
187.1792547885830
 21
153.6661394538834
 31
0.000000000000000
  0
LINE
  5
136
100
AcDbEntity
  8
A1
  6
CONTINUOUS
 62
7
100
AcDbLine
 10
188.7792547885829
 20
153.6661394538833
 30
0.000000000000000
 11
187.1792547885830
 21
153.6661394538833
 31
0.000000000000000
  0
LINE
  5
137
100
AcDbEntity
  8
A1
  6
CONTINUOUS
 62
7
100
AcDbLine
 10
188.7792547885829
 20
153.6661394538833
 30
0.000000000000000
 11
490.3792547885828
 21
153.6661394538833
 31
0.000000000000000
  0
LINE
  5
138
100
AcDbEntity
  8
A1
  6
CONTINUOUS
 62
7
100
AcDbLine
 10
490.3792547885828
 20
154.6661394538831
 30
0.000000000000000
 11
490.3792547885828
 21
153.6661394538834
 31
0.000000000000000
  0
LINE
  5
139
100
AcDbEntity
  8
A1
  6
CONTINUOUS
 62
7
100
AcDbLine
 10
350.1880589581600
 20
156.5375680253114
 30
0.000000000000000
 11
187.1792547885830
 21
156.5375680253114
 31
0.000000000000000
  0
LINE
  5
13A
100
AcDbEntity
  8
A4
  6
CENTER
 62
1
100
AcDbLine
 10
519.4292547885829
 20
87.89999033878149
 30
0.000000000000000
 11
514.1792547885829
 21
87.89999033878149
 31
0.000000000000000
  0
LINE
  5
13B
100
AcDbEntity
  8
A4
  6
CENTER
 62
1
100
AcDbLine
 10
626.3792547885828
 20
83.74999033878156
 30
0.000000000000000
 11
626.3792547885828
 21
92.04999033878150
 31
0.000000000000000
  0
LINE
  5
13C
100
AcDbEntity
  8
A4
  6
CENTER
 62
1
100
AcDbLine
 10
639.0792547885828
 20
83.74999033878150
 30
0.000000000000000
 11
639.0792547885828
 21
92.04999033878156
 31
0.000000000000000
  0
LINE
  5
13D
100
AcDbEntity
  8
A4
  6
CENTER
 62
1
100
AcDbLine
 10
515.2792547885829
 20
84.14999033878146
 30
0.000000000000000
 11
515.2792547885829
 21
91.64999033878149
 31
0.000000000000000
  0
LINE
  5
13E
100
AcDbEntity
  8
A4
  6
CENTER
 62
1
100
AcDbLine
 10
313.0792547885828
 20
83.74999033878122
 30
0.000000000000000
 11
313.0792547885828
 21
92.04999033878121
 31
0.000000000000000
  0
LINE
  5
13F
100
AcDbEntity
  8
A4
  6
CENTER
 62
1
100
AcDbLine
 10
300.3792547885828
 20
83.74999033878122
 30
0.000000000000000
 11
300.3792547885828
 21
92.04999033878121
 31
0.000000000000000
  0
LINE
  5
140
100
AcDbEntity
  8
A4
  6
CENTER
 62
1
100
AcDbLine
 10
287.6792547885829
 20
84.14999033878121
 30
0.000000000000000
 11
287.6792547885829
 21
91.64999033878121
 31
0.000000000000000
  0
LINE
  5
141
100
AcDbEntity
  8
A4
  6
CENTER
 62
1
100
AcDbLine
 10
52.77925478858286
 20
83.74999033878125
 30
0.000000000000000
 11
52.77925478858286
 21
92.04999033878119
 31
0.000000000000000
  0
LINE
  5
142
100
AcDbEntity
  8
A4
  6
CENTER
 62
1
100
AcDbLine
 10
40.07925478858286
 20
83.74999033878120
 30
0.000000000000000
 11
40.07925478858286
 21
92.04999033878124
 31
0.000000000000000
  0
LINE
  5
143
100
AcDbEntity
  8
A4
  6
CENTER
 62
1
100
AcDbLine
 10
201.9792547885829
 20
85.64999033878121
 30
0.000000000000000
 11
201.9792547885829
 21
84.14999033878121
 31
0.000000000000000
  0
LINE
  5
144
100
AcDbEntity
  8
A4
  6
CENTER
 62
1
100
AcDbLine
 10
201.9792547885829
 20
90.14999033878119
 30
0.000000000000000
 11
201.9792547885829
 21
91.64999033878121
 31
0.000000000000000
  0
LINE
  5
145
100
AcDbEntity
  8
A4
  6
CENTER
 62
1
100
AcDbLine
 10
163.8792547885828
 20
84.14999033878119
 30
0.000000000000000
 11
163.8792547885828
 21
91.64999033878119
 31
0.000000000000000
  0
LINE
  5
146
100
AcDbEntity
  8
A3
  6
DASHED
 62
2
100
AcDbLine
 10
350.1792547885829
 20
100.0250829326431
 30
0.000000000000000
 11
350.1792547885829
 21
75.77489774491980
 31
0.000000000000000
  0
ARC
  5
147
100
AcDbEntity
  8
A3
  6
DASHED
 62
2
100
AcDbCircle
 10
378.7792547885829
 20
87.49999033878147
 30
0.000000000000000
 40
2.250000000000000
100
AcDbArc
 50
180.0000000000000
 51
360.0000000000000
  0
ARC
  5
148
100
AcDbEntity
  8
A3
  6
DASHED
 62
2
100
AcDbCircle
 10
378.7792547885829
 20
88.29999033878147
 30
0.000000000000000
 40
2.250000000000000
100
AcDbArc
 50
0.000000000000000
 51
180.0000000000000
  0
ARC
  5
149
100
AcDbEntity
  8
A3
  6
DASHED
 62
2
100
AcDbCircle
 10
391.0792547885829
 20
87.89999033878146
 30
0.000000000000000
 40
2.250000000000000
100
AcDbArc
 50
90.00000000000000
 51
270.0000000000000
  0
ARC
  5
14A
100
AcDbEntity
  8
A3
  6
DASHED
 62
2
100
AcDbCircle
 10
391.8792547885829
 20
87.89999033878146
 30
0.000000000000000
 40
2.250000000000000
100
AcDbArc
 50
270.0000000000000
 51
450.0000000000000
  0
ARC
  5
14B
100
AcDbEntity
  8
A3
  6
DASHED
 62
2
100
AcDbCircle
 10
476.7792547885829
 20
87.89999033878146
 30
0.000000000000000
 40
2.250000000000000
100
AcDbArc
 50
90.00000000000000
 51
270.0000000000000
  0
ARC
  5
14C
100
AcDbEntity
  8
A3
  6
DASHED
 62
2
100
AcDbCircle
 10
477.5792547885829
 20
87.89999033878146
 30
0.000000000000000
 40
2.250000000000000
100
AcDbArc
 50
270.0000000000000
 51
450.0000000000000
  0
LINE
  5
14D
100
AcDbEntity
  8
A3
  6
DASHED
 62
2
100
AcDbLine
 10
381.0292547885829
 20
88.29999033878147
 30
0.000000000000000
 11
381.0292547885829
 21
87.49999033878147
 31
0.000000000000000
  0
LINE
  5
14E
100
AcDbEntity
  8
A3
  6
DASHED
 62
2
100
AcDbLine
 10
376.5292547885829
 20
87.49999033878147
 30
0.000000000000000
 11
376.5292547885829
 21
88.29999033878147
 31
0.000000000000000
  0
LINE
  5
14F
100
AcDbEntity
  8
A3
  6
DASHED
 62
2
100
AcDbLine
 10
391.8792547885829
 20
85.64999033878146
 30
0.000000000000000
 11
391.0792547885829
 21
85.64999033878146
 31
0.000000000000000
  0
LINE
  5
150
100
AcDbEntity
  8
A3
  6
DASHED
 62
2
100
AcDbLine
 10
391.0792547885829
 20
90.14999033878146
 30
0.000000000000000
 11
391.8792547885829
 21
90.14999033878146
 31
0.000000000000000
  0
LINE
  5
151
100
AcDbEntity
  8
A3
  6
DASHED
 62
2
100
AcDbLine
 10
477.5792547885829
 20
85.64999033878146
 30
0.000000000000000
 11
476.7792547885829
 21
85.64999033878146
 31
0.000000000000000
  0
LINE
  5
152
100
AcDbEntity
  8
A3
  6
DASHED
 62
2
100
AcDbLine
 10
476.7792547885829
 20
90.14999033878146
 30
0.000000000000000
 11
477.5792547885829
 21
90.14999033878146
 31
0.000000000000000
  0
LINE
  5
153
100
AcDbEntity
  8
A4
  6
CENTER
 62
1
100
AcDbLine
 10
366.0792547885829
 20
83.74999033878147
 30
0.000000000000000
 11
366.0792547885829
 21
92.04999033878147
 31
0.000000000000000
  0
LINE
  5
154
100
AcDbEntity
  8
A4
  6
CENTER
 62
1
100
AcDbLine
 10
378.7792547885829
 20
83.74999033878147
 30
0.000000000000000
 11
378.7792547885829
 21
92.04999033878147
 31
0.000000000000000
  0
LINE
  5
155
100
AcDbEntity
  8
A4
  6
CENTER
 62
1
100
AcDbLine
 10
22.67925478858285
 20
87.89999033878127
 30
0.000000000000000
 11
656.4792547885829
 21
87.89999033878146
 31
0.000000000000000
  0
LINE
  5
156
100
AcDbEntity
  8
A4
  6
CENTER
 62
1
100
AcDbLine
 10
477.1792547885830
 20
84.14999033878146
 30
0.000000000000000
 11
477.1792547885830
 21
91.64999033878146
 31
0.000000000000000
  0
LINE
  5
157
100
AcDbEntity
  8
A4
  6
CENTER
 62
1
100
AcDbLine
 10
395.6292547885829
 20
87.89999033878146
 30
0.000000000000000
 11
390.3792547885829
 21
87.89999033878146
 31
0.000000000000000
  0
LINE
  5
158
100
AcDbEntity
  8
A4
  6
CENTER
 62
1
100
AcDbLine
 10
391.4792547885829
 20
84.14999033878146
 30
0.000000000000000
 11
391.4792547885829
 21
91.64999033878146
 31
0.000000000000000
  0
ARC
  5
159
100
AcDbEntity
  8
A3
  6
DASHED
 62
2
100
AcDbCircle
 10
315.8292547885811
 20
87.89999033878111
 30
0.000000000000000
 40
4.750000000000000
100
AcDbArc
 50
270.0000000000000
 51
450.0000000000000
  0
ARC
  5
15A
100
AcDbEntity
  8
A3
  6
DASHED
 62
2
100
AcDbCircle
 10
312.6292547885810
 20
87.89999033878111
 30
0.000000000000000
 40
4.750000000000000
100
AcDbArc
 50
90.00000000000000
 51
270.0000000000000
  0
LINE
  5
15B
100
AcDbEntity
  8
A3
  6
DASHED
 62
2
100
AcDbLine
 10
315.8292547885811
 20
83.14999033878112
 30
0.000000000000000
 11
312.6292547885810
 21
83.14999033878112
 31
0.000000000000000
  0
LINE
  5
15C
100
AcDbEntity
  8
A3
  6
DASHED
 62
2
100
AcDbLine
 10
312.6292547885810
 20
92.64999033878112
 30
0.000000000000000
 11
315.8292547885811
 21
92.64999033878112
 31
0.000000000000000
  0
LINE
  5
15D
100
AcDbEntity
  8
A4
  6
CENTER
 62
1
100
AcDbLine
 10
322.0292547885829
 20
87.89999033878111
 30
0.000000000000000
 11
314.2792547885829
 21
87.89999033878111
 31
0.000000000000000
  0
LINE
  5
15E
100
AcDbEntity
  8
A3
  6
DASHED
 62
2
100
AcDbLine
 10
490.3792547885828
 20
154.6661394538831
 30
0.000000000000000
 11
490.3792547886001
 21
160.2661394538736
 31
0.000000000000000
  0
LINE
  5
15F
100
AcDbEntity
  8
A3
  6
DASHED
 62
2
100
AcDbLine
 10
490.3792547886001
 20
160.2661394538736
 30
0.000000000000000
 11
350.1792547885830
 21
160.2661394538736
 31
0.000000000000000
  0
LINE
  5
160
100
AcDbEntity
  8
A3
  6
DASHED
 62
2
100
AcDbLine
 10
188.7792547885829
 20
152.6661394538833
 30
0.000000000000000
 11
188.7792547885797
 21
147.0661394538765
 31
0.000000000000000
  0
LINE
  5
161
100
AcDbEntity
  8
A3
  6
DASHED
 62
2
100
AcDbLine
 10
328.9792547885829
 20
147.0661394538836
 30
0.000000000000000
 11
188.7792547885797
 21
147.0661394538836
 31
0.000000000000000
  0
LINE
  5
162
100
AcDbEntity
  8
A4
  6
CENTER
 62
1
100
AcDbLine
 10
626.3792547890217
 20
159.4786912381765
 30
0.000000000000000
 11
626.3792547890796
 21
167.2958448978684
 31
0.000000000000000
  0
LINE
  5
163
100
AcDbEntity
  8
A4
  6
CENTER
 62
1
100
AcDbLine
 10
515.2792547885829
 20
159.4786912381765
 30
0.000000000000000
 11
515.2792547885829
 21
167.2958448978684
 31
0.000000000000000
  0
LINE
  5
164
100
AcDbEntity
  8
A4
  6
CENTER
 62
1
100
AcDbLine
 10
391.4792547885829
 20
158.7661394538736
 30
0.000000000000000
 11
391.4792547885829
 21
166.5236914189010
 31
0.000000000000000
  0
LINE
  5
165
100
AcDbEntity
  8
A4
  6
CENTER
 62
1
100
AcDbLine
 10
378.7792547885829
 20
158.7661394538736
 30
0.000000000000000
 11
378.7792547885829
 21
166.5236914189010
 31
0.000000000000000
  0
LINE
  5
166
100
AcDbEntity
  8
A4
  6
CENTER
 62
1
100
AcDbLine
 10
366.0792547885829
 20
158.7661394538736
 30
0.000000000000000
 11
366.0792547885829
 21
166.5236914189010
 31
0.000000000000000
  0
LINE
  5
167
100
AcDbEntity
  8
A4
  6
CENTER
 62
1
100
AcDbLine
 10
300.3792547885828
 20
141.4777620857845
 30
0.000000000000000
 11
300.3792547885828
 21
148.5661394538836
 31
0.000000000000000
  0
LINE
  5
168
100
AcDbEntity
  8
A4
  6
CENTER
 62
1
100
AcDbLine
 10
287.6792547885829
 20
141.4777620857845
 30
0.000000000000000
 11
287.6792547885829
 21
148.5661394538836
 31
0.000000000000000
  0
LINE
  5
169
100
AcDbEntity
  8
A4
  6
CENTER
 62
1
100
AcDbLine
 10
201.9792547884960
 20
141.4777620856352
 30
0.000000000000000
 11
201.9792547884837
 21
148.5661394537341
 31
0.000000000000000
  0
LINE
  5
16A
100
AcDbEntity
  8
A4
  6
CENTER
 62
1
100
AcDbLine
 10
163.8792547886220
 20
141.4777620856651
 30
0.000000000000000
 11
163.8792547886276
 21
148.5661394537640
 31
0.000000000000000
  0
LINE
  5
16B
100
AcDbEntity
  8
A4
  6
CENTER
 62
1
100
AcDbLine
 10
52.77925478859030
 20
141.4777620856819
 30
0.000000000000000
 11
52.77925478859137
 21
148.5661394537807
 31
0.000000000000000
  0
LINE
  5
16C
100
AcDbEntity
  8
A4
  6
CENTER
 62
1
100
AcDbLine
 10
40.07925478857974
 20
141.4777620856811
 30
0.000000000000000
 11
40.07925478857929
 21
148.5661394537799
 31
0.000000000000000
  0
LINE
  5
16D
100
AcDbEntity
  8
A4
  6
CENTER
 62
1
100
AcDbLine
 10
639.0792547885828
 20
159.4786912380825
 30
0.000000000000000
 11
639.0792547885828
 21
167.2958448977744
 31
0.000000000000000
  0
LINE
  5
16E
100
AcDbEntity
  8
A4
  6
CENTER
 62
1
100
AcDbLine
 10
477.1792547886708
 20
158.7661394538736
 30
0.000000000000000
 11
477.1792547886708
 21
166.5236914189010
 31
0.000000000000000
  0
LINE
  5
16F
100
AcDbEntity
  8
A4
  6
CENTER
 62
1
100
AcDbLine
 10
364.9792547884891
 20
143.2692168544520
 30
0.000000000000000
 11
364.9792547884891
 21
152.2947108824737
 31
0.000000000000000
  0
LINE
  5
170
100
AcDbEntity
  8
A4
  6
CENTER
 62
1
100
AcDbLine
 10
314.1792547885829
 20
155.7661394538831
 30
0.000000000000000
 11
314.1792547885829
 21
163.7960540102777
 31
0.000000000000000
  0
LINE
  5
171
100
AcDbEntity
  8
A4
  6
CENTER
 62
1
100
AcDbLine
 10
313.0792547885794
 20
141.4777620857845
 30
0.000000000000000
 11
313.0792547885794
 21
148.5661394538836
 31
0.000000000000000
  0
ARC
  5
172
100
AcDbEntity
  8
A1
  6
CONTINUOUS
 62
7
100
AcDbCircle
 10
366.0792547885829
 20
88.29999033878124
 30
0.000000000000000
 40
2.250000000000000
100
AcDbArc
 50
0.000000000000000
 51
180.0000000000000
  0
ARC
  5
173
100
AcDbEntity
  8
A1
  6
CONTINUOUS
 62
7
100
AcDbCircle
 10
366.0792547885829
 20
87.49999033878125
 30
0.000000000000000
 40
2.250000000000000
100
AcDbArc
 50
180.0000000000000
 51
360.0000000000000
  0
LINE
  5
174
100
AcDbEntity
  8
A1
  6
CONTINUOUS
 62
7
100
AcDbLine
 10
363.8292547885829
 20
87.49999033878125
 30
0.000000000000000
 11
363.8292547885829
 21
88.29999033878124
 31
0.000000000000000
  0
LINE
  5
175
100
AcDbEntity
  8
A1
  6
CONTINUOUS
 62
7
100
AcDbLine
 10
368.3292547885829
 20
88.29999033878124
 30
0.000000000000000
 11
368.3292547885829
 21
87.49999033878125
 31
0.000000000000000
  0
ENDSEC
  0
SECTION
  2
OBJECTS
  0
DICTIONARY
  5
1A7
100
AcDbDictionary
  3
ACAD_GROUP
350
1A8
  3
ACAD_LAYOUT
350
1A9
  3
ACAD_MLINESTYLE
350
1AA
  0
DICTIONARY
  5
1A8
102
{ACAD_REACTORS
330
1A7
102
}
330
1A7
100
AcDbDictionary
  0
DICTIONARY
  5
1A9
102
{ACAD_REACTORS
330
1A7
102
}
330
1A7
100
AcDbDictionary
  3
Model
350
1AB
  3
ﾚｲｱｳﾄ1
350
1AC
  3
ﾚｲｱｳﾄ2
350
1AD
  0
DICTIONARY
  5
1AA
102
{ACAD_REACTORS
330
1A7
102
}
330
1A7
100
AcDbDictionary
  3
STANDARD
350
1AE
  0
LAYOUT
  5
1AB
102
{ACAD_REACTORS
330
1A9
102
}
330
1A9
100
AcDbPlotSettings
 70
11952
  4
A3
 44
297.000000
 45
420.000000
 73
  1
 72
  1
100
AcDbLayout
  1
Model
 71
0
330
19E
  0
LAYOUT
  5
1AC
102
{ACAD_REACTORS
330
1A9
102
}
330
1A9
100
AcDbPlotSettings
100
AcDbLayout
  1
ﾚｲｱｳﾄ1
 71
1
330
19F
  0
LAYOUT
  5
1AD
102
{ACAD_REACTORS
330
1A9
102
}
330
1A9
100
AcDbPlotSettings
100
AcDbLayout
  1
ﾚｲｱｳﾄ2
 71
2
330
1A0
  0
MLINESTYLE
  5
1AE
102
{ACAD_REACTORS
330
1AA
102
}
330
1AA
100
AcDbMlineStyle
  2
STANDARD
 70
     0
  3

 62
   256
 51
90.00
 52
90.00
 71
     2
 49
0.50
 62
   256
  6
BYLAYER
 49
-0.50
 62
   256
  6
BYLAYER
  0
ENDSEC
  0
EOF
