  0
SECTION
  2
HEADER
  9
$ACADVER
  1
AC1027
  9
$DWGCODEPAGE
  3
ANSI_932
  9
$LTSCALE
 40
20.0
  9
$FILLMODE
 70
     1
  9
$CLAYER
  8
0
  9
$PDMODE
 70
     0
  9
$SPLFRAME
 70
     0
  9
$SPLINETYPE
 70
     6
  9
$SPLINESEGS
 70
     8
  9
$DIMASZ
 40
2.000000
  9
$DIMEXE
 40
1.500000
  9
$DIMEXO
 40
0.800000
  9
$DIMTAD
 70
     1
  9
$DIMTIH
 70
     0
  9
$DIMTOH
 70
     0
  9
$DIMTVP
 40
0.500000
  9
$DIMTXT
 40
3.100000
  9
$EXTMIN
 10
0.000000
 20
0.000000
 30
0.000000
  9
$EXTMAX
 10
297.000000
 20
420.000000
 30
0.000000
  9
$MEASUREMENT
 70
  1
  9
$LIMMIN
 10
0.000000
 20
0.000000
  9
$LIMMAX
 10
297.000000
 20
420.000000
  9
$HANDSEED
  5
1AF
  9
$LWDISPLAY
290
     0
  9
$DIMBLK
  1
_OPEN
  9
$DIMDEC
 70
     2
  9
$DIMADEC
 70
     2
  9
$DIMAUNIT
 70
     0
  9
$DIMZIN
 70
     8
  9
$DIMAZIN
 70
     2
  9
$DIMTOFL
 70
     1
  0
ENDSEC
  0
SECTION
  2
CLASSES
  0
ENDSEC
  0
SECTION
  2
TABLES
  0
TABLE
  2
VPORT
  5
174
100
AcDbSymbolTable
 70
     1
  0
VPORT
  5
175
100
AcDbSymbolTableRecord
100
AcDbViewportTableRecord
  2
*ACTIVE
 70
     0
 12
398.769790
 22
119.850838
 40
203.701675
 41
3.817051
  0
ENDTAB
  0
TABLE
  2
LTYPE
  5
176
100
AcDbSymbolTable
 70
     3
  0
LTYPE
  5
177
100
AcDbSymbolTableRecord
100
AcDbLinetypeTableRecord
  2
BYBLOCK
 70
     0
  3

 72
    65
 73
     0
 40
0.0
  0
LTYPE
  5
178
100
AcDbSymbolTableRecord
100
AcDbLinetypeTableRecord
  2
BYLAYER
 70
     0
  3

 72
    65
 73
     0
 40
0.0
  0
LTYPE
  5
179
100
AcDbSymbolTableRecord
100
AcDbLinetypeTableRecord
  2
CONTINUOUS
 70
     0
  3
Solid line (NEC CAE2D for Win R18.0 : 2026.03.12)
 72
    65
 73
     0
 40
0.0
  0
LTYPE
  5
17A
100
AcDbSymbolTableRecord
100
AcDbLinetypeTableRecord
  2
DASHED
 70
     0
  3
__ __ __ __ __ __ __ __ __ __ __ __ __ _
 72
    65
 73
     2
 40
0.75
 49
0.5
 74
     0
 49
-0.25
 74
     0
  0
LTYPE
  5
17B
100
AcDbSymbolTableRecord
100
AcDbLinetypeTableRecord
  2
CENTER
 70
     0
  3
____ _ ____ _ ____ _ ____ _ ____ _ ____
 72
    65
 73
     4
 40
2.0
 49
1.25
 74
     0
 49
-0.25
 74
     0
 49
0.25
 74
     0
 49
-0.25
 74
     0
  0
ENDTAB
  0
TABLE
  2
LAYER
  5
17C
100
AcDbSymbolTable
 70
    20
  0
LAYER
  5
17D
100
AcDbSymbolTableRecord
100
AcDbLayerTableRecord
  2
0
 70
     0
 62
     7
  6
CONTINUOUS
370
    -3
390

  0
LAYER
  5
17E
100
AcDbSymbolTableRecord
100
AcDbLayerTableRecord
  2
DXF0
 70
     0
 62
     7
  6
CONTINUOUS
370
    -3
390

  0
LAYER
  5
17F
100
AcDbSymbolTableRecord
100
AcDbLayerTableRecord
  2
A0
 70
     0
 62
     9
  6
CONTINUOUS
370
    -3
390

  0
LAYER
  5
180
100
AcDbSymbolTableRecord
100
AcDbLayerTableRecord
  2
A1
 70
     0
 62
    12
  6
CONTINUOUS
370
    -3
390

  0
LAYER
  5
181
100
AcDbSymbolTableRecord
100
AcDbLayerTableRecord
  2
A2
 70
     0
 62
     9
  6
CONTINUOUS
370
    -3
390

  0
LAYER
  5
182
100
AcDbSymbolTableRecord
100
AcDbLayerTableRecord
  2
A3
 70
     0
 62
    12
  6
CONTINUOUS
370
    -3
390

  0
LAYER
  5
183
100
AcDbSymbolTableRecord
100
AcDbLayerTableRecord
  2
A4
 70
     0
 62
     9
  6
CONTINUOUS
370
    -3
390

  0
LAYER
  5
184
100
AcDbSymbolTableRecord
100
AcDbLayerTableRecord
  2
A5
 70
     0
 62
     8
  6
CONTINUOUS
370
    -3
390

  0
LAYER
  5
185
100
AcDbSymbolTableRecord
100
AcDbLayerTableRecord
  2
A6
 70
     0
 62
    12
  6
CONTINUOUS
370
    -3
390

  0
LAYER
  5
186
100
AcDbSymbolTableRecord
100
AcDbLayerTableRecord
  2
A8
 70
     0
 62
    10
  6
CONTINUOUS
370
    -3
390

  0
LAYER
  5
187
100
AcDbSymbolTableRecord
100
AcDbLayerTableRecord
  2
A9
 70
     0
 62
     9
  6
CONTINUOUS
370
    -3
390

  0
LAYER
  5
188
100
AcDbSymbolTableRecord
100
AcDbLayerTableRecord
  2
A10
 70
     0
 62
     6
  6
CONTINUOUS
370
    -3
390

  0
LAYER
  5
189
100
AcDbSymbolTableRecord
100
AcDbLayerTableRecord
  2
A18
 70
     0
 62
     7
  6
CONTINUOUS
370
    -3
390

  0
LAYER
  5
18A
100
AcDbSymbolTableRecord
100
AcDbLayerTableRecord
  2
A20
 70
     0
 62
     1
  6
CONTINUOUS
370
    -3
390

  0
LAYER
  5
18B
100
AcDbSymbolTableRecord
100
AcDbLayerTableRecord
  2
A21
 70
     0
 62
    41
  6
CONTINUOUS
370
    -3
390

  0
LAYER
  5
18C
100
AcDbSymbolTableRecord
100
AcDbLayerTableRecord
  2
A30
 70
     0
 62
     1
  6
CONTINUOUS
370
    -3
390

  0
LAYER
  5
18D
100
AcDbSymbolTableRecord
100
AcDbLayerTableRecord
  2
A40
 70
     0
 62
     9
  6
CONTINUOUS
370
    -3
390

  0
LAYER
  5
18E
100
AcDbSymbolTableRecord
100
AcDbLayerTableRecord
  2
A50
 70
     0
 62
    12
  6
CONTINUOUS
370
    -3
390

  0
LAYER
  5
18F
100
AcDbSymbolTableRecord
100
AcDbLayerTableRecord
  2
A1023
 70
     0
 62
     8
  6
CONTINUOUS
370
    -3
390

  0
LAYER
  5
190
100
AcDbSymbolTableRecord
100
AcDbLayerTableRecord
  2
DXF1023
 70
     0
 62
    16
  6
CONTINUOUS
370
    -3
390

  0
ENDTAB
  0
TABLE
  2
STYLE
  5
191
100
AcDbSymbolTable
 70
     4
  0
STYLE
  5
192
100
AcDbSymbolTableRecord
100
AcDbTextStyleTableRecord
  2
STANDARD
 70
    64
 40
0.0
 41
1.0
 50
0.0
 71
     0
 42
3.000000000000000
  3
TXT
  4

  0
STYLE
  5
193
100
AcDbSymbolTableRecord
100
AcDbTextStyleTableRecord
  2
ANKTATE
 70
    68
 40
0.0
 41
1.0
 50
0.0
 71
     0
 42
3.000000000000000
  3
TXT
  4

  0
STYLE
  5
194
100
AcDbSymbolTableRecord
100
AcDbTextStyleTableRecord
  2
KNJYOKO
 70
    64
 40
0.0
 41
1.0
 50
0.0
 71
     0
 42
3.000000000000000
  3
TXT
  4
BIGFONT
  0
STYLE
  5
195
100
AcDbSymbolTableRecord
100
AcDbTextStyleTableRecord
  2
KNJTATE
 70
    68
 40
0.0
 41
1.0
 50
0.0
 71
     0
 42
3.000000000000000
  3
TXT
  4
BIGFONT
  0
ENDTAB
  0
TABLE
  2
VIEW
  5
196
100
AcDbSymbolTable
 70
     0
  0
ENDTAB
  0
TABLE
  2
UCS
  5
197
100
AcDbSymbolTable
 70
     0
  0
ENDTAB
  0
TABLE
  2
APPID
  5
198
100
AcDbSymbolTable
 70
     1
  0
APPID
  5
199
100
AcDbSymbolTableRecord
100
AcDbRegAppTableRecord
  2
ACAD
 70
     0
  0
ENDTAB
  0
TABLE
  2
DIMSTYLE
  5
19A
100
AcDbSymbolTable
 70
     2
100
AcDbDimStyleTable
  0
DIMSTYLE
105
19B
100
AcDbSymbolTableRecord
100
AcDbDimStyleTableRecord
  2
STANDARD
 70
     0
 41
2.000000
 44
1.500000
 42
0.800000
145
0.661290
140
3.100000
144
1.000000
146
0.645161
340
192
  0
DIMSTYLE
105
19C
100
AcDbSymbolTableRecord
100
AcDbDimStyleTableRecord
  2
DXF001
 70
     0
 41
2.000000
 44
1.500000
 42
0.800000
145
0.661290
140
3.100000
144
1.000000
146
0.645161
 77
     1
 73
     0
 74
     0
271
     2
179
     2
275
     0
 78
     8
 79
     2
172
     1
340
192
  0
ENDTAB
  0
TABLE
  2
BLOCK_RECORD
  5
19D
100
AcDbSymbolTable
 70
    12
  0
BLOCK_RECORD
  5
19E
100
AcDbSymbolTableRecord
100
AcDbBlockTableRecord
  2
*MODEL_SPACE
  0
BLOCK_RECORD
  5
19F
100
AcDbSymbolTableRecord
100
AcDbBlockTableRecord
  2
*PAPER_SPACE
  0
BLOCK_RECORD
  5
1A0
100
AcDbSymbolTableRecord
100
AcDbBlockTableRecord
  2
*PAPER_SPACE0
  0
BLOCK_RECORD
  5
1
100
AcDbSymbolTableRecord
100
AcDbBlockTableRecord
  2
_NONE
  0
BLOCK_RECORD
  5
4
100
AcDbSymbolTableRecord
100
AcDbBlockTableRecord
  2
_CLOSED
  0
BLOCK_RECORD
  5
B
100
AcDbSymbolTableRecord
100
AcDbBlockTableRecord
  2
_DOT
  0
BLOCK_RECORD
  5
13
100
AcDbSymbolTableRecord
100
AcDbBlockTableRecord
  2
_OPEN
  0
BLOCK_RECORD
  5
19
100
AcDbSymbolTableRecord
100
AcDbBlockTableRecord
  2
_ORIGIN
  0
BLOCK_RECORD
  5
1E
100
AcDbSymbolTableRecord
100
AcDbBlockTableRecord
  2
_OPEN30
  0
BLOCK_RECORD
  5
24
100
AcDbSymbolTableRecord
100
AcDbBlockTableRecord
  2
_BOXFILLED
  0
BLOCK_RECORD
  5
29
100
AcDbSymbolTableRecord
100
AcDbBlockTableRecord
  2
_BOXBLANK
  0
BLOCK_RECORD
  5
31
100
AcDbSymbolTableRecord
100
AcDbBlockTableRecord
  2
_OBLIQUE
  0
BLOCK_RECORD
  5
35
100
AcDbSymbolTableRecord
100
AcDbBlockTableRecord
  2
_OPEN90
  0
BLOCK_RECORD
  5
3B
100
AcDbSymbolTableRecord
100
AcDbBlockTableRecord
  2
_CLOSEDBLANK
  0
BLOCK_RECORD
  5
41
100
AcDbSymbolTableRecord
100
AcDbBlockTableRecord
  2
_DOTBLANK
  0
ENDTAB
  0
ENDSEC
  0
SECTION
  2
BLOCKS
  0
BLOCK
  5
1A1
100
AcDbEntity
  8
0
100
AcDbBlockBegin
  2
*MODEL_SPACE
 70
     0
 10
0.0
 20
0.0
 30
0.0
  3
*MODEL_SPACE
  1

  0
ENDBLK
  5
1A2
100
AcDbEntity
  8
0
100
AcDbBlockEnd
  0
BLOCK
  5
1A3
100
AcDbEntity
  8
0
100
AcDbBlockBegin
  2
*PAPER_SPACE
 70
     0
 10
0.0
 20
0.0
 30
0.0
  3
*PAPER_SPACE
  1

  0
ENDBLK
  5
1A4
100
AcDbEntity
  8
0
100
AcDbBlockEnd
  0
BLOCK
  5
1A5
100
AcDbEntity
  8
0
100
AcDbBlockBegin
  2
*PAPER_SPACE0
 70
     0
 10
0.0
 20
0.0
 30
0.0
  3
*PAPER_SPACE0
  1

  0
ENDBLK
  5
1A6
100
AcDbEntity
  8
0
100
AcDbBlockEnd
  0
BLOCK
  5
2
330
1
100
AcDbEntity
  8
0
100
AcDbBlockBegin
  2
_NONE
 70
     0
 10
0.0
 20
0.0
 30
0.0
  3
_NONE
  1

  0
ENDBLK
  5
3
330
1
100
AcDbEntity
  8
0
100
AcDbBlockEnd
  0
BLOCK
  5
5
330
4
100
AcDbEntity
  8
0
100
AcDbBlockBegin
  2
_CLOSED
 70
     0
 10
0.0
 20
0.0
 30
0.0
  3
_CLOSED
  1

  0
LINE
  5
6
330
4
100
AcDbEntity
  8
0
  6
BYBLOCK
 62
     0
370
    -2
100
AcDbLine
 10
-1.0
 20
0.166667
 30
0.0
 11
0.0
 21
0.0
 31
0.0
  0
LINE
  5
7
330
4
100
AcDbEntity
  8
0
  6
BYBLOCK
 62
     0
370
    -2
100
AcDbLine
 10
0.0
 20
0.0
 30
0.0
 11
-1.0
 21
-0.166667
 31
0.0
  0
LINE
  5
8
330
4
100
AcDbEntity
  8
0
  6
BYBLOCK
 62
     0
370
    -2
100
AcDbLine
 10
-1.0
 20
0.166667
 30
0.0
 11
-1.0
 21
-0.166667
 31
0.0
  0
LINE
  5
9
330
4
100
AcDbEntity
  8
0
  6
BYBLOCK
 62
     0
370
    -2
100
AcDbLine
 10
0.0
 20
0.0
 30
0.0
 11
-1.0
 21
0.0
 31
0.0
  0
ENDBLK
  5
A
330
4
100
AcDbEntity
  8
0
100
AcDbBlockEnd
  0
BLOCK
  5
C
330
B
100
AcDbEntity
  8
0
100
AcDbBlockBegin
  2
_DOT
 70
     0
 10
0.0
 20
0.0
 30
0.0
  3
_DOT
  1

  0
POLYLINE
  5
D
330
B
100
AcDbEntity
  8
0
  6
BYBLOCK
 62
     0
370
    -2
100
AcDb2dPolyline
 66
     1
 10
0.0
 20
0.0
 30
0.0
 70
     1
 40
0.5
 41
0.5
  0
VERTEX
  5
E
330
B
100
AcDbEntity
  8
0
  6
BYBLOCK
 62
     0
370
    -2
100
AcDbVertex
100
AcDb2dVertex
 10
-0.25
 20
0.0
 30
0.0
 42
1.0
  0
VERTEX
  5
F
330
B
100
AcDbEntity
  8
0
  6
BYBLOCK
 62
     0
370
    -2
100
AcDbVertex
100
AcDb2dVertex
 10
0.25
 20
0.0
 30
0.0
 42
1.0
  0
SEQEND
  5
10
330
B
100
AcDbEntity
  8
0
  6
BYBLOCK
 62
     0
370
    -2
  0
LINE
  5
11
330
B
100
AcDbEntity
  8
0
  6
BYBLOCK
 62
     0
370
    -2
100
AcDbLine
 10
-0.5
 20
0.0
 30
0.0
 11
-1.0
 21
0.0
 31
0.0
  0
ENDBLK
  5
12
330
B
100
AcDbEntity
  8
0
100
AcDbBlockEnd
  0
BLOCK
  5
14
330
13
100
AcDbEntity
  8
0
100
AcDbBlockBegin
  2
_OPEN
 70
     0
 10
0.0
 20
0.0
 30
0.0
  3
_OPEN
  1

  0
LINE
  5
15
330
13
100
AcDbEntity
  8
0
  6
BYBLOCK
 62
     0
370
    -2
100
AcDbLine
 10
-1.0
 20
0.166667
 30
0.0
 11
0.0
 21
0.0
 31
0.0
  0
LINE
  5
16
330
13
100
AcDbEntity
  8
0
  6
BYBLOCK
 62
     0
370
    -2
100
AcDbLine
 10
0.0
 20
0.0
 30
0.0
 11
-1.0
 21
-0.166667
 31
0.0
  0
LINE
  5
17
330
13
100
AcDbEntity
  8
0
  6
BYBLOCK
 62
     0
370
    -2
100
AcDbLine
 10
0.0
 20
0.0
 30
0.0
 11
-1.0
 21
0.0
 31
0.0
  0
ENDBLK
  5
18
330
13
100
AcDbEntity
  8
0
100
AcDbBlockEnd
  0
BLOCK
  5
1A
330
19
100
AcDbEntity
  8
0
100
AcDbBlockBegin
  2
_ORIGIN
 70
     0
 10
0.0
 20
0.0
 30
0.0
  3
_ORIGIN
  1

  0
CIRCLE
  5
1B
330
19
100
AcDbEntity
  8
0
  6
BYBLOCK
 62
     0
370
    -2
100
AcDbCircle
 10
0.0
 20
0.0
 30
0.0
 40
0.5
  0
LINE
  5
1C
330
19
100
AcDbEntity
  8
0
  6
BYBLOCK
 62
     0
370
    -2
100
AcDbLine
 10
0.0
 20
0.0
 30
0.0
 11
-1.0
 21
0.0
 31
0.0
  0
ENDBLK
  5
1D
330
19
100
AcDbEntity
  8
0
100
AcDbBlockEnd
  0
BLOCK
  5
1F
330
1E
100
AcDbEntity
  8
0
100
AcDbBlockBegin
  2
_OPEN30
 70
     0
 10
0.0
 20
0.0
 30
0.0
  3
_OPEN30
  1

  0
LINE
  5
20
330
1E
100
AcDbEntity
  8
0
  6
BYBLOCK
 62
     0
370
    -2
100
AcDbLine
 10
-1.0
 20
0.267949
 30
0.0
 11
0.0
 21
0.0
 31
0.0
  0
LINE
  5
21
330
1E
100
AcDbEntity
  8
0
  6
BYBLOCK
 62
     0
370
    -2
100
AcDbLine
 10
0.0
 20
0.0
 30
0.0
 11
-1.0
 21
-0.267949
 31
0.0
  0
LINE
  5
22
330
1E
100
AcDbEntity
  8
0
  6
BYBLOCK
 62
     0
370
    -2
100
AcDbLine
 10
0.0
 20
0.0
 30
0.0
 11
-1.0
 21
0.0
 31
0.0
  0
ENDBLK
  5
23
330
1E
100
AcDbEntity
  8
0
100
AcDbBlockEnd
  0
BLOCK
  5
25
330
24
100
AcDbEntity
  8
0
100
AcDbBlockBegin
  2
_BOXFILLED
 70
     0
 10
0.0
 20
0.0
 30
0.0
  3
_BOXFILLED
  1

  0
SOLID
  5
26
330
24
100
AcDbEntity
  8
0
  6
BYBLOCK
 62
     0
370
    -2
100
AcDbTrace
 10
-0.5
 20
0.5
 30
0.0
 11
0.5
 21
0.5
 31
0.0
 12
-0.5
 22
-0.5
 32
0.0
 13
0.5
 23
-0.5
 33
0.0
  0
LINE
  5
27
330
24
100
AcDbEntity
  8
0
  6
BYBLOCK
 62
     0
370
    -2
100
AcDbLine
 10
-0.5
 20
0.0
 30
0.0
 11
-1.0
 21
0.0
 31
0.0
  0
ENDBLK
  5
28
330
24
100
AcDbEntity
  8
0
100
AcDbBlockEnd
  0
BLOCK
  5
2A
330
29
100
AcDbEntity
  8
0
100
AcDbBlockBegin
  2
_BOXBLANK
 70
     0
 10
0.0
 20
0.0
 30
0.0
  3
_BOXBLANK
  1

  0
LINE
  5
2B
330
29
100
AcDbEntity
  8
0
  6
BYBLOCK
 62
     0
370
    -2
100
AcDbLine
 10
-0.5
 20
-0.5
 30
0.0
 11
0.5
 21
-0.5
 31
0.0
  0
LINE
  5
2C
330
29
100
AcDbEntity
  8
0
  6
BYBLOCK
 62
     0
370
    -2
100
AcDbLine
 10
0.5
 20
-0.5
 30
0.0
 11
0.5
 21
0.5
 31
0.0
  0
LINE
  5
2D
330
29
100
AcDbEntity
  8
0
  6
BYBLOCK
 62
     0
370
    -2
100
AcDbLine
 10
0.5
 20
0.5
 30
0.0
 11
-0.5
 21
0.5
 31
0.0
  0
LINE
  5
2E
330
29
100
AcDbEntity
  8
0
  6
BYBLOCK
 62
     0
370
    -2
100
AcDbLine
 10
-0.5
 20
0.5
 30
0.0
 11
-0.5
 21
-0.5
 31
0.0
  0
LINE
  5
2F
330
29
100
AcDbEntity
  8
0
  6
BYBLOCK
 62
     0
370
    -2
100
AcDbLine
 10
-0.5
 20
0.0
 30
0.0
 11
-1.0
 21
0.0
 31
0.0
  0
ENDBLK
  5
30
330
29
100
AcDbEntity
  8
0
100
AcDbBlockEnd
  0
BLOCK
  5
32
330
31
100
AcDbEntity
  8
0
100
AcDbBlockBegin
  2
_OBLIQUE
 70
     0
 10
0.0
 20
0.0
 30
0.0
  3
_OBLIQUE
  1

  0
LINE
  5
33
330
31
100
AcDbEntity
  8
0
  6
BYBLOCK
 62
     0
370
    -2
100
AcDbLine
 10
-0.5
 20
-0.5
 30
0.0
 11
0.5
 21
0.5
 31
0.0
  0
ENDBLK
  5
34
330
31
100
AcDbEntity
  8
0
100
AcDbBlockEnd
  0
BLOCK
  5
36
330
35
100
AcDbEntity
  8
0
100
AcDbBlockBegin
  2
_OPEN90
 70
     0
 10
0.0
 20
0.0
 30
0.0
  3
_OPEN90
  1

  0
LINE
  5
37
330
35
100
AcDbEntity
  8
0
  6
BYBLOCK
 62
     0
370
    -2
100
AcDbLine
 10
-0.5
 20
0.5
 30
0.0
 11
0.0
 21
0.0
 31
0.0
  0
LINE
  5
38
330
35
100
AcDbEntity
  8
0
  6
BYBLOCK
 62
     0
370
    -2
100
AcDbLine
 10
0.0
 20
0.0
 30
0.0
 11
-0.5
 21
-0.5
 31
0.0
  0
LINE
  5
39
330
35
100
AcDbEntity
  8
0
  6
BYBLOCK
 62
     0
370
    -2
100
AcDbLine
 10
0.0
 20
0.0
 30
0.0
 11
-1.0
 21
0.0
 31
0.0
  0
ENDBLK
  5
3A
330
35
100
AcDbEntity
  8
0
100
AcDbBlockEnd
  0
BLOCK
  5
3C
330
3B
100
AcDbEntity
  8
0
100
AcDbBlockBegin
  2
_CLOSEDBLANK
 70
     0
 10
0.0
 20
0.0
 30
0.0
  3
_CLOSEDBLANK
  1

  0
LINE
  5
3D
330
3B
100
AcDbEntity
  8
0
  6
BYBLOCK
 62
     0
370
    -2
100
AcDbLine
 10
-1.0
 20
0.1666666666666666
 30
0.0
 11
0.0
 21
0.0
 31
0.0
  0
LINE
  5
3E
330
3B
100
AcDbEntity
  8
0
  6
BYBLOCK
 62
     0
370
    -2
100
AcDbLine
 10
0.0
 20
0.0
 30
0.0
 11
-1.0
 21
-0.1666666666666666
 31
0.0
  0
LINE
  5
3F
330
3B
100
AcDbEntity
  8
0
  6
BYBLOCK
 62
     0
370
    -2
100
AcDbLine
 10
-1.0
 20
0.1666666666666666
 30
0.0
 11
-1.0
 21
-0.1666666666666666
 31
0.0
  0
ENDBLK
  5
40
330
3B
100
AcDbEntity
  8
0
100
AcDbBlockEnd
  0
BLOCK
  5
42
330
41
100
AcDbEntity
  8
0
100
AcDbBlockBegin
  2
_DOTBLANK
 70
     0
 10
0.0
 20
0.0
 30
0.0
  3
_DOTBLANK
  1

  0
CIRCLE
  5
43
330
41
100
AcDbEntity
  8
0
  6
BYBLOCK
 62
     0
370
    -2
100
AcDbCircle
 10
0.0
 20
0.0
 30
0.0
 40
0.5
  0
LINE
  5
44
330
41
100
AcDbEntity
  8
0
  6
BYBLOCK
 62
     0
370
    -2
100
AcDbLine
 10
-0.5
 20
0.0
 30
0.0
 11
-1.0
 21
0.0
 31
0.0
  0
ENDBLK
  5
45
330
41
100
AcDbEntity
  8
0
100
AcDbBlockEnd
  0
ENDSEC
  0
SECTION
  2
ENTITIES
  0
MTEXT
  5
46
100
AcDbEntity
  8
A8
  6
CONTINUOUS
 62
3
100
AcDbMText
 10
9.999997526638502
 20
18.00000076076889
 30
0.000000000000000
 40
3.000000000000000
 41
0.000000000000000
 44
0.6739999771118164
 71
     7
 72
     1
  1
{\H0.94x;{TYPE No.TM-358E-14\P}
 11
1.000000000000000
 21
0.000000000000000
 31
0.000000000000000
  7
STANDARD
  0
POINT
  5
47
100
AcDbEntity
  8
A0
  6
CONTINUOUS
 62
3
100
AcDbPoint
 10
9.999997526638502
 20
18.00000076076889
 30
0.000000000000000
  0
POINT
  5
48
100
AcDbEntity
  8
A10
  6
CONTINUOUS
 62
3
100
AcDbPoint
 10
50.00000000000000
 20
50.00000000000000
 30
0.000000000000000
  0
SPLINE
  5
49
100
AcDbEntity
  8
A1
  6
CONTINUOUS
 62
7
100
AcDbSpline
210
0.000000000000000
220
0.000000000000000
230
1.000000000000000
 70
     8
 71
     3
 72
    10
 73
     6
 74
     0
 42
1.000000000000000e-07
 43
1.000000000000000e-07
 12
0.9693677461777952
 22
-0.2456138690486114
 32
0.000000000000000
 13
0.9976299186268989
 23
-0.06880803340573038
 33
0.000000000000000
 40
0.000000000000000
 40
0.000000000000000
 40
0.000000000000000
 40
0.000000000000000
 40
0.1593552073510979
 40
0.2995991515672735
 40
0.4336349660033922
 40
0.4336349660033922
 40
0.4336349660033922
 40
0.4336349660033922
 10
54.69255043201235
 20
199.9063662093280
 30
0.000000000000000
 10
54.74404169807622
 20
199.8933195929845
 30
0.000000000000000
 10
54.84128189673720
 20
199.8707098141685
 30
0.000000000000000
 10
54.98178297245488
 20
199.8360761948550
 30
0.000000000000000
 10
55.07293156655487
 20
199.8260715334198
 30
0.000000000000000
 10
55.11750427943787
 20
199.8229972864874
 30
0.000000000000000
  0
SPLINE
  5
4A
100
AcDbEntity
  8
A1
  6
CONTINUOUS
 62
7
100
AcDbSpline
210
0.000000000000000
220
0.000000000000000
230
1.000000000000000
 70
     8
 71
     3
 72
    17
 73
    13
 74
     0
 42
1.000000000000000e-07
 43
1.000000000000000e-07
 12
0.01297619500519431
 22
0.9999158056368742
 32
0.000000000000000
 13
-0.9999943034122225
 23
-0.003375373451717678
 33
0.000000000000000
 40
0.000000000000000
 40
0.000000000000000
 40
0.000000000000000
 40
0.000000000000000
 40
0.3665938535935901
 40
0.7277380964931510
 40
1.066963995356113
 40
1.410431768882698
 40
1.718141130059597
 40
2.043415589480066
 40
2.378062680964321
 40
2.735812780474491
 40
3.141763377117863
 40
3.569270663111604
 40
3.569270663111604
 40
3.569270663111604
 40
3.569270663111604
 10
409.0395823804994
 20
206.4066787398323
 30
0.000000000000000
 10
409.0411680449434
 20
206.5288664026515
 30
0.000000000000000
 10
409.0257199944284
 20
206.7718320464172
 30
0.000000000000000
 10
408.9553613934532
 20
207.1219642202446
 30
0.000000000000000
 10
408.8229853753922
 20
207.4463508281730
 30
0.000000000000000
 10
408.6337804324434
 20
207.7204157557456
 30
0.000000000000000
 10
408.3944151193704
 20
207.9439933084571
 30
0.000000000000000
 10
408.1202322031933
 20
208.1170826889289
 30
0.000000000000000
 10
407.8070189662593
 20
208.2503495300052
 30
0.000000000000000
 10
407.4532647678953
 20
208.3481804336135
 30
0.000000000000000
 10
407.0601242548113
 20
208.4089514691599
 30
0.000000000000000
 10
406.7820839973864
 20
208.4234782854018
 30
0.000000000000000
 10
406.6395823804993
 20
208.4229972864873
 30
0.000000000000000
  0
ELLIPSE
  5
4B
100
AcDbEntity
  8
A1
  6
CONTINUOUS
 62
7
100
AcDbEllipse
 10
55.40995755640677
 20
201.4229972864874
 30
0.000000000000000
 11
2.251857343893409
 21
0.000000000000000
 31
0.000000000000000
210
0.000000000000000
220
0.000000000000000
230
1.000000000000000
 40
0.7105245828910850
 41
3.925519873442455
 42
4.388153047842783
  0
ARC
  5
4C
100
AcDbEntity
  8
A1
  6
CONTINUOUS
 62
7
100
AcDbCircle
 10
55.03958238049950
 20
201.4229972864862
 30
0.000000000000000
 40
1.599999999998823
100
AcDbArc
 50
235.5158900442318
 51
270.0000000000122
  0
LINE
  5
4D
100
AcDbEntity
  8
A1
  6
CONTINUOUS
 62
7
100
AcDbLine
 10
55.03958238050029
 20
199.8229972864874
 30
0.000000000000000
 11
55.11750427943787
 21
199.8229972864874
 31
0.000000000000000
  0
LINE
  5
4E
100
AcDbEntity
  8
A1
  6
CONTINUOUS
 62
7
100
AcDbLine
 10
409.0395823804994
 20
199.8229972864874
 30
0.000000000000000
 11
409.0395823804994
 21
200.2932918425964
 31
0.000000000000000
  0
LINE
  5
4F
100
AcDbEntity
  8
A1
  6
CONTINUOUS
 62
7
100
AcDbLine
 10
55.11750427943787
 20
199.8229972864874
 30
0.000000000000000
 11
409.0395823804994
 21
199.8229972864874
 31
0.000000000000000
  0
LINE
  5
50
100
AcDbEntity
  8
A1
  6
CONTINUOUS
 62
7
100
AcDbLine
 10
53.43958238049981
 20
202.2987336767599
 30
0.000000000000000
 11
53.43958238049981
 21
200.5610445765288
 31
0.000000000000000
  0
LINE
  5
51
100
AcDbEntity
  8
A1
  6
CONTINUOUS
 62
7
100
AcDbLine
 10
409.0395823804994
 20
200.2932918425963
 30
0.000000000000000
 11
409.0395823804994
 21
202.2987336767596
 31
0.000000000000000
  0
LINE
  5
52
100
AcDbEntity
  8
A1
  6
CONTINUOUS
 62
7
100
AcDbLine
 10
53.81531349303429
 20
200.2932918425964
 30
0.000000000000000
 11
409.0395823804995
 21
200.2932918425962
 31
0.000000000000000
  0
LINE
  5
53
100
AcDbEntity
  8
A1
  6
CONTINUOUS
 62
7
100
AcDbLine
 10
53.81531349303432
 20
200.2932918425964
 30
0.000000000000000
 11
53.43958238049981
 21
200.5610445765288
 31
0.000000000000000
  0
LINE
  5
54
100
AcDbEntity
  8
A1
  6
CONTINUOUS
 62
7
100
AcDbLine
 10
53.43958238049981
 20
202.2987336767598
 30
0.000000000000000
 11
53.43958238049981
 21
208.4229972864873
 31
0.000000000000000
  0
LINE
  5
55
100
AcDbEntity
  8
A1
  6
CONTINUOUS
 62
7
100
AcDbLine
 10
409.0395823804994
 20
202.2987336767596
 30
0.000000000000000
 11
409.0395823804994
 21
206.4066787398323
 31
0.000000000000000
  0
LINE
  5
56
100
AcDbEntity
  8
A1
  6
CONTINUOUS
 62
7
100
AcDbLine
 10
53.43958238049981
 20
208.4229972864873
 30
0.000000000000000
 11
406.6395823804993
 21
208.4229972864873
 31
0.000000000000000
  0
LINE
  5
57
100
AcDbEntity
  8
A1
  6
CONTINUOUS
 62
7
100
AcDbLine
 10
53.43958238049984
 20
202.2987336767598
 30
0.000000000000000
 11
409.0395823804994
 21
202.2987336767595
 31
0.000000000000000
  0
SPLINE
  5
58
100
AcDbEntity
  8
A1
  6
CONTINUOUS
 62
7
100
AcDbSpline
210
0.000000000000000
220
0.000000000000000
230
1.000000000000000
 70
     8
 71
     3
 72
    10
 73
     6
 74
     0
 42
1.000000000000000e-07
 43
1.000000000000000e-07
 12
-0.9693677461782499
 22
0.2456138690486114
 32
0.000000000000000
 13
-0.9976299186237156
 23
0.06880803340754937
 33
0.000000000000000
 40
0.000000000000000
 40
0.000000000000000
 40
0.000000000000000
 40
0.000000000000000
 40
0.1593552073510912
 40
0.2995991515673900
 40
0.4336349660033926
 40
0.4336349660033926
 40
0.4336349660033926
 40
0.4336349660033926
 10
784.7866143289874
 20
218.9396283636468
 30
0.000000000000000
 10
784.7351230629234
 20
218.9526749799903
 30
0.000000000000000
 10
784.6378828642625
 20
218.9752847588064
 30
0.000000000000000
 10
784.4973817885444
 20
219.0099183781199
 30
0.000000000000000
 10
784.4062331944443
 20
219.0199230395550
 30
0.000000000000000
 10
784.3616604815614
 20
219.0229972864875
 30
0.000000000000000
  0
SPLINE
  5
59
100
AcDbEntity
  8
A1
  6
CONTINUOUS
 62
7
100
AcDbSpline
210
0.000000000000000
220
0.000000000000000
230
1.000000000000000
 70
     8
 71
     3
 72
    17
 73
    13
 74
     0
 42
1.000000000000000e-07
 43
1.000000000000000e-07
 12
-0.01297619500564906
 22
-0.9999158056366468
 32
0.000000000000000
 13
0.9999943034054013
 23
0.003375373451262931
 33
0.000000000000000
 40
0.000000000000000
 40
0.000000000000000
 40
0.000000000000000
 40
0.000000000000000
 40
0.3665938535936185
 40
0.7277380964931323
 40
1.066963995356155
 40
1.410431768882764
 40
1.718141130059644
 40
2.043415589480113
 40
2.378062680964379
 40
2.735812780474323
 40
3.141763377117924
 40
3.569270663111437
 40
3.569270663111437
 40
3.569270663111437
 40
3.569270663111437
 10
430.4395823805004
 20
212.4393158331426
 30
0.000000000000000
 10
430.4379967160563
 20
212.3171281703234
 30
0.000000000000000
 10
430.4534447665714
 20
212.0741625265578
 30
0.000000000000000
 10
430.5238033675463
 20
211.7240303527301
 30
0.000000000000000
 10
430.6561793856073
 20
211.3996437448021
 30
0.000000000000000
 10
430.8453843285564
 20
211.1255788172295
 30
0.000000000000000
 10
431.0847496416294
 20
210.9020012645178
 30
0.000000000000000
 10
431.3589325578074
 20
210.7289118840460
 30
0.000000000000000
 10
431.6721457947405
 20
210.5956450429699
 30
0.000000000000000
 10
432.0258999931044
 20
210.4978141393614
 30
0.000000000000000
 10
432.4190405061883
 20
210.4370431038151
 30
0.000000000000000
 10
432.6970807636134
 20
210.4225162875732
 30
0.000000000000000
 10
432.8395823804993
 20
210.4229972864876
 30
0.000000000000000
  0
ELLIPSE
  5
5A
100
AcDbEntity
  8
A1
  6
CONTINUOUS
 62
7
100
AcDbEllipse
 10
784.0692072045923
 20
217.4229972864873
 30
0.000000000000000
 11
2.251857343893409
 21
0.000000000000000
 31
0.000000000000000
210
0.000000000000000
220
0.000000000000000
230
1.000000000000000
 40
0.7105245828910850
 41
0.7839272198526441
 42
1.246560394252936
  0
ARC
  5
5B
100
AcDbEntity
  8
A1
  6
CONTINUOUS
 62
7
100
AcDbCircle
 10
784.4395823805004
 20
217.4229972864886
 30
0.000000000000000
 40
1.599999999998949
100
AcDbArc
 50
55.51589004423728
 51
90.00000000001017
  0
LINE
  5
5C
100
AcDbEntity
  8
A1
  6
CONTINUOUS
 62
7
100
AcDbLine
 10
784.4395823804992
 20
219.0229972864873
 30
0.000000000000000
 11
784.3616604815614
 21
219.0229972864873
 31
0.000000000000000
  0
LINE
  5
5D
100
AcDbEntity
  8
A1
  6
CONTINUOUS
 62
7
100
AcDbLine
 10
430.4395823805004
 20
219.0229972864876
 30
0.000000000000000
 11
430.4395823805004
 21
218.5527027303786
 31
0.000000000000000
  0
LINE
  5
5E
100
AcDbEntity
  8
A1
  6
CONTINUOUS
 62
7
100
AcDbLine
 10
784.3616604815614
 20
219.0229972864875
 30
0.000000000000000
 11
430.4395823805003
 21
219.0229972864876
 31
0.000000000000000
  0
LINE
  5
5F
100
AcDbEntity
  8
A1
  6
CONTINUOUS
 62
7
100
AcDbLine
 10
786.0395823804994
 20
216.5472608962151
 30
0.000000000000000
 11
786.0395823804994
 21
218.2849499964460
 31
0.000000000000000
  0
LINE
  5
60
100
AcDbEntity
  8
A1
  6
CONTINUOUS
 62
7
100
AcDbLine
 10
430.4395823805004
 20
218.5527027303786
 30
0.000000000000000
 11
430.4395823805004
 21
216.5472608962152
 31
0.000000000000000
  0
LINE
  5
61
100
AcDbEntity
  8
A1
  6
CONTINUOUS
 62
7
100
AcDbLine
 10
785.6638512679652
 20
218.5527027303785
 30
0.000000000000000
 11
430.4395823805003
 21
218.5527027303786
 31
0.000000000000000
  0
LINE
  5
62
100
AcDbEntity
  8
A1
  6
CONTINUOUS
 62
7
100
AcDbLine
 10
785.6638512679652
 20
218.5527027303785
 30
0.000000000000000
 11
786.0395823804995
 21
218.2849499964461
 31
0.000000000000000
  0
LINE
  5
63
100
AcDbEntity
  8
A1
  6
CONTINUOUS
 62
7
100
AcDbLine
 10
430.4395823805004
 20
216.5472608962152
 30
0.000000000000000
 11
430.4395823805004
 21
212.4393158331426
 31
0.000000000000000
  0
LINE
  5
64
100
AcDbEntity
  8
A1
  6
CONTINUOUS
 62
7
100
AcDbLine
 10
786.0395823804994
 20
210.4229972864876
 30
0.000000000000000
 11
432.8395823804993
 21
210.4229972864876
 31
0.000000000000000
  0
LINE
  5
65
100
AcDbEntity
  8
A1
  6
CONTINUOUS
 62
7
100
AcDbLine
 10
786.0395823804994
 20
216.5472608962152
 30
0.000000000000000
 11
786.0395823804994
 21
210.4229972864876
 31
0.000000000000000
  0
LINE
  5
66
100
AcDbEntity
  8
A1
  6
CONTINUOUS
 62
7
100
AcDbLine
 10
786.0395823804995
 20
216.5472608962151
 30
0.000000000000000
 11
430.4395823805004
 21
216.5472608962152
 31
0.000000000000000
  0
LINE
  5
67
100
AcDbEntity
  8
A1
  6
CONTINUOUS
 62
7
100
AcDbLine
 10
245.1395823804999
 20
209.4229972864873
 30
0.000000000000000
 11
243.5395823804998
 21
209.4229972864873
 31
0.000000000000000
  0
LINE
  5
68
100
AcDbEntity
  8
A1
  6
CONTINUOUS
 62
7
100
AcDbLine
 10
595.9395823805004
 20
209.4229972864873
 30
0.000000000000000
 11
594.3395823804993
 21
209.4229972864873
 31
0.000000000000000
  0
LINE
  5
69
100
AcDbEntity
  8
A1
  6
CONTINUOUS
 62
7
100
AcDbLine
 10
395.9395823805004
 20
209.4229972864873
 30
0.000000000000000
 11
392.7395823805003
 21
209.4229972864873
 31
0.000000000000000
  0
LINE
  5
6A
100
AcDbEntity
  8
A1
  6
CONTINUOUS
 62
7
100
AcDbLine
 10
446.7395823805003
 20
209.4229972864873
 30
0.000000000000000
 11
443.5395823804994
 21
209.4229972864873
 31
0.000000000000000
  0
LINE
  5
6B
100
AcDbEntity
  8
A1
  6
CONTINUOUS
 62
7
100
AcDbLine
 10
597.5395823804994
 20
203.7429972864879
 30
0.000000000000000
 11
597.5395823804994
 21
202.8229972864876
 31
0.000000000000000
  0
LINE
  5
6C
100
AcDbEntity
  8
A1
  6
CONTINUOUS
 62
7
100
AcDbLine
 10
409.0395823804994
 20
202.8229972864876
 30
0.000000000000000
 11
597.5395823804994
 21
202.8229972864876
 31
0.000000000000000
  0
LINE
  5
6D
100
AcDbEntity
  8
A1
  6
CONTINUOUS
 62
7
100
AcDbLine
 10
241.9395823804998
 20
215.1029972864869
 30
0.000000000000000
 11
241.9395823804998
 21
216.0229972864872
 31
0.000000000000000
  0
LINE
  5
6E
100
AcDbEntity
  8
A1
  6
CONTINUOUS
 62
7
100
AcDbLine
 10
430.4395823805004
 20
216.0229972864872
 30
0.000000000000000
 11
241.9395823804998
 21
216.0229972864872
 31
0.000000000000000
  0
LINE
  5
6F
100
AcDbEntity
  8
A1
  6
CONTINUOUS
 62
7
100
AcDbLine
 10
597.5395823804994
 20
203.7429972864879
 30
0.000000000000000
 11
597.5395823804994
 21
206.5515687150594
 31
0.000000000000000
  0
LINE
  5
70
100
AcDbEntity
  8
A1
  6
CONTINUOUS
 62
7
100
AcDbLine
 10
409.0395823804994
 20
203.7429972864879
 30
0.000000000000000
 11
597.5395823804994
 21
203.7429972864879
 31
0.000000000000000
  0
LINE
  5
71
100
AcDbEntity
  8
A1
  6
CONTINUOUS
 62
7
100
AcDbLine
 10
241.9395823804999
 20
215.1029972864869
 30
0.000000000000000
 11
241.9395823804999
 21
212.2944258579155
 31
0.000000000000000
  0
LINE
  5
72
100
AcDbEntity
  8
A1
  6
CONTINUOUS
 62
7
100
AcDbLine
 10
430.4395823805004
 20
215.1029972864869
 30
0.000000000000000
 11
241.9395823804998
 21
215.1029972864869
 31
0.000000000000000
  0
LINE
  5
73
100
AcDbEntity
  8
A1
  6
CONTINUOUS
 62
7
100
AcDbLine
 10
597.5395823804994
 20
206.5515687150594
 30
0.000000000000000
 11
597.5395823804994
 21
209.4229972864873
 31
0.000000000000000
  0
LINE
  5
74
100
AcDbEntity
  8
A1
  6
CONTINUOUS
 62
7
100
AcDbLine
 10
243.5395823804998
 20
208.4229972864873
 30
0.000000000000000
 11
243.5395823804998
 21
209.4229972864873
 31
0.000000000000000
  0
LINE
  5
75
100
AcDbEntity
  8
A1
  6
CONTINUOUS
 62
7
100
AcDbLine
 10
595.9395823805004
 20
209.4229972864873
 30
0.000000000000000
 11
597.5395823804994
 21
209.4229972864873
 31
0.000000000000000
  0
LINE
  5
76
100
AcDbEntity
  8
A1
  6
CONTINUOUS
 62
7
100
AcDbLine
 10
409.0307782109224
 20
206.5515687150594
 30
0.000000000000000
 11
597.5395823804994
 21
206.5515687150594
 31
0.000000000000000
  0
LINE
  5
77
100
AcDbEntity
  8
A1
  6
CONTINUOUS
 62
7
100
AcDbLine
 10
595.9395823805004
 20
210.4229972864871
 30
0.000000000000000
 11
595.9395823805004
 21
209.4229972864875
 31
0.000000000000000
  0
LINE
  5
78
100
AcDbEntity
  8
A1
  6
CONTINUOUS
 62
7
100
AcDbLine
 10
241.9395823804999
 20
212.2944258579155
 30
0.000000000000000
 11
241.9395823804999
 21
209.4229972864873
 31
0.000000000000000
  0
LINE
  5
79
100
AcDbEntity
  8
A1
  6
CONTINUOUS
 62
7
100
AcDbLine
 10
243.5395823804998
 20
209.4229972864873
 30
0.000000000000000
 11
241.9395823804998
 21
209.4229972864873
 31
0.000000000000000
  0
LINE
  5
7A
100
AcDbEntity
  8
A1
  6
CONTINUOUS
 62
7
100
AcDbLine
 10
243.5395823804998
 20
209.4229972864873
 30
0.000000000000000
 11
595.9395823805004
 21
209.4229972864873
 31
0.000000000000000
  0
LINE
  5
7B
100
AcDbEntity
  8
A1
  6
CONTINUOUS
 62
7
100
AcDbLine
 10
430.4483865500773
 20
212.2944258579155
 30
0.000000000000000
 11
241.9395823804998
 21
212.2944258579155
 31
0.000000000000000
  0
SPLINE
  5
7C
100
AcDbEntity
  8
A1
  6
CONTINUOUS
 62
7
100
AcDbSpline
210
0.000000000000000
220
0.000000000000000
230
1.000000000000000
 70
     8
 71
     3
 72
    11
 73
     7
 74
     0
 42
1.000000000000000e-07
 43
1.000000000000000e-07
 12
-0.8243239903895301
 22
-0.5661183258471283
 32
0.000000000000000
 13
0.01039795576889446
 23
-0.9999459397965893
 33
0.000000000000000
 40
0.000000000000000
 40
0.000000000000000
 40
0.000000000000000
 40
0.000000000000000
 40
0.03379741434396310
 40
0.1082274051015754
 40
0.2407267954020756
 40
0.4307723479019794
 40
0.4307723479019794
 40
0.4307723479019794
 40
0.4307723479019794
 10
430.4766197962613
 20
120.7572229700951
 30
0.000000000000000
 10
430.4673331231089
 20
120.7508451915530
 30
0.000000000000000
 10
430.4387626436865
 20
120.7252056881848
 30
0.000000000000000
 10
430.4453448366635
 20
120.6374196980115
 30
0.000000000000000
 10
430.4371735050837
 20
120.5096239998436
 30
0.000000000000000
 10
430.4389236854162
 20
120.4005680630178
 30
0.000000000000000
 10
430.4395823804992
 20
120.3372229701516
 30
0.000000000000000
  0
SPLINE
  5
7D
100
AcDbEntity
  8
A1
  6
CONTINUOUS
 62
7
100
AcDbSpline
210
0.000000000000000
220
0.000000000000000
230
1.000000000000000
 70
     8
 71
     3
 72
    19
 73
    15
 74
     0
 42
1.000000000000000e-07
 43
1.000000000000000e-07
 12
0.9771582111861790
 22
0.2125131297325424
 32
0.000000000000000
 13
0.9999990834717210
 23
0.001353904114239413
 33
0.000000000000000
 40
0.000000000000000
 40
0.000000000000000
 40
0.000000000000000
 40
0.000000000000000
 40
0.01987916097022160
 40
0.1081873548124037
 40
0.1803980812258063
 40
0.2720195744910726
 40
0.4629848704361638
 40
0.7050456709827397
 40
0.9581915100138083
 40
1.239982642070548
 40
1.559739519563017
 40
1.898168540833206
 40
2.267010472578607
 40
2.648452596355735
 40
2.648452596355735
 40
2.648452596355735
 40
2.648452596355735
 10
430.4766706925314
 20
88.65722302711572
 30
0.000000000000000
 10
430.4831457209893
 20
88.65863122135380
 30
0.000000000000000
 10
430.5183631876806
 20
88.66808951157540
 30
0.000000000000000
 10
430.5616047187246
 20
88.71417356454802
 30
0.000000000000000
 10
430.6241542679692
 20
88.76896633060082
 30
0.000000000000000
 10
430.7108910417751
 20
88.84989879217360
 30
0.000000000000000
 10
430.8431431760708
 20
88.96412948387652
 30
0.000000000000000
 10
431.0246316724522
 20
89.10375076057451
 30
0.000000000000000
 10
431.2410562530395
 20
89.24641769938020
 30
0.000000000000000
 10
431.4908182463495
 20
89.38417959924021
 30
0.000000000000000
 10
431.7782861496174
 20
89.51009977683370
 30
0.000000000000000
 10
432.1050268892605
 20
89.61450148086001
 30
0.000000000000000
 10
432.4620318988028
 20
89.68449732722522
 30
0.000000000000000
 10
432.7124351224411
 20
89.70073227814311
 30
0.000000000000000
 10
432.8395823804993
 20
89.70090442349670
 30
0.000000000000000
  0
SPLINE
  5
7E
100
AcDbEntity
  8
A1
  6
CONTINUOUS
 62
7
100
AcDbSpline
210
0.000000000000000
220
0.000000000000000
230
1.000000000000000
 70
     8
 71
     3
 72
    11
 73
     7
 74
     0
 42
1.000000000000000e-07
 43
1.000000000000000e-07
 12
-0.01266092020614451
 22
-0.9999198473387878
 32
0.000000000000000
 13
0.9150419199213502
 23
-0.4033587544417969
 33
0.000000000000000
 40
0.000000000000000
 40
0.000000000000000
 40
0.000000000000000
 40
0.000000000000000
 40
0.1956995530113884
 40
0.3354706351461811
 40
0.4090748976002401
 40
0.4318826814911100
 40
0.4318826814911100
 40
0.4318826814911100
 40
0.4318826814911100
 10
430.4395823804992
 20
89.07722297015189
 30
0.000000000000000
 10
430.4387564683575
 20
89.01199501442809
 30
0.000000000000000
 10
430.4368657730174
 20
88.89724262558690
 30
0.000000000000000
 10
430.4462108842397
 20
88.76953903051310
 30
0.000000000000000
 10
430.4401040588162
 20
88.67752380772032
 30
0.000000000000000
 10
430.4697139997445
 20
88.66028960021632
 30
0.000000000000000
 10
430.4766706925314
 20
88.65722302711572
 30
0.000000000000000
  0
SPLINE
  5
7F
100
AcDbEntity
  8
A1
  6
CONTINUOUS
 62
7
100
AcDbSpline
210
0.000000000000000
220
0.000000000000000
230
1.000000000000000
 70
     8
 71
     3
 72
    17
 73
    13
 74
     0
 42
1.000000000000000e-07
 43
1.000000000000000e-07
 12
-0.9999996484093572
 22
-0.0008385594568380839
 32
0.000000000000000
 13
-0.05245907459902810
 23
-0.9986230747842910
 33
0.000000000000000
 40
0.000000000000000
 40
0.000000000000000
 40
0.000000000000000
 40
0.000000000000000
 40
0.3968913951221015
 40
0.8013746514980533
 40
1.186311545886128
 40
1.568137433568957
 40
1.911511082641183
 40
2.235185675936038
 40
2.495783162693507
 40
2.723096174272625
 40
2.907629626462604
 40
3.053171907128309
 40
3.053171907128309
 40
3.053171907128309
 40
3.053171907128309
 10
432.8395823804993
 20
88.79669205906001
 30
0.000000000000000
 10
432.7072852953064
 20
88.79658112004910
 30
0.000000000000000
 10
432.4398097596472
 20
88.77845613350172
 30
0.000000000000000
 10
432.0515222529813
 20
88.69734750897811
 30
0.000000000000000
 10
431.6824229383909
 20
88.56674049837520
 30
0.000000000000000
 10
431.3517265979603
 20
88.39827364226440
 30
0.000000000000000
 10
431.0622707203990
 20
88.20055664658270
 30
0.000000000000000
 10
430.8307121209072
 20
87.99428110685972
 30
0.000000000000000
 10
430.6534699795157
 20
87.78871273833440
 30
0.000000000000000
 10
430.5328086099043
 20
87.59911606241332
 30
0.000000000000000
 10
430.4580118244720
 20
87.42725151954741
 30
0.000000000000000
 10
430.4421273849521
 20
87.31724553455490
 30
0.000000000000000
 10
430.4395823804992
 20
87.26879824127840
 30
0.000000000000000
  0
SPLINE
  5
80
100
AcDbEntity
  8
A1
  6
CONTINUOUS
 62
7
100
AcDbSpline
210
0.000000000000000
220
0.000000000000000
230
1.000000000000000
 70
     8
 71
     3
 72
    18
 73
    14
 74
     0
 42
1.000000000000000e-07
 43
1.000000000000000e-07
 12
-0.9915217982475042
 22
0.001532014073745813
 32
0.000000000000000
 13
-0.7272336656678817
 23
0.0008896246190488455
 33
0.000000000000000
 40
0.000000000000000
 40
0.000000000000000
 40
0.000000000000000
 40
0.000000000000000
 40
0.3980446407468375
 40
0.7920084926896513
 40
1.179414932487250
 40
1.539495736889307
 40
1.822168447289803
 40
2.025472827437319
 40
2.187270479654405
 40
2.348460770599663
 40
2.495450680069019
 40
2.588489713393821
 40
2.654816757932706
 40
2.654816757932706
 40
2.654816757932706
 40
2.654816757932706
 10
432.8395823804993
 20
119.7135415168067
 30
0.000000000000000
 10
432.7080257345072
 20
119.7137447868039
 30
0.000000000000000
 10
432.4421340071925
 20
119.7315593032660
 30
0.000000000000000
 10
432.0563181140503
 20
119.8112688587566
 30
0.000000000000000
 10
431.6899689404521
 20
119.9372531141243
 30
0.000000000000000
 10
431.3655928474641
 20
120.0935807700162
 30
0.000000000000000
 10
431.1250694908745
 20
120.2420811947296
 30
0.000000000000000
 10
430.9598047749584
 20
120.3604883087909
 30
0.000000000000000
 10
430.8323453992394
 20
120.4601506778390
 30
0.000000000000000
 10
430.7099314298002
 20
120.5650178794855
 30
0.000000000000000
 10
430.6026373473571
 20
120.6654868466271
 30
0.000000000000000
 10
430.5329770851859
 20
120.7271610681159
 30
0.000000000000000
 10
430.4926982161722
 20
120.7572033013712
 30
0.000000000000000
 10
430.4766197962613
 20
120.7572229700951
 30
0.000000000000000
  0
SPLINE
  5
81
100
AcDbEntity
  8
A1
  6
CONTINUOUS
 62
7
100
AcDbSpline
210
0.000000000000000
220
0.000000000000000
230
1.000000000000000
 70
     8
 71
     3
 72
    17
 73
    13
 74
     0
 42
1.000000000000000e-07
 43
1.000000000000000e-07
 12
0.05376351621998765
 22
-0.9985536962640253
 32
0.000000000000000
 13
0.9999994920967765
 23
-0.001007872110221797
 33
0.000000000000000
 40
0.000000000000000
 40
0.000000000000000
 40
0.000000000000000
 40
0.000000000000000
 40
0.1461149349530965
 40
0.3425019032556300
 40
0.5820785746847357
 40
0.8765888642839804
 40
1.172789017142207
 40
1.503017253887923
 40
1.847884966162808
 40
2.214448730510616
 40
2.625025399339393
 40
3.053137083773647
 40
3.053137083773647
 40
3.053137083773647
 40
3.053137083773647
 10
430.4395823804992
 20
122.1456476990250
 30
0.000000000000000
 10
430.4422009313911
 20
122.0970131628994
 30
0.000000000000000
 10
430.4587062794879
 20
121.9828767893880
 30
0.000000000000000
 10
430.5384216654201
 20
121.8038881327330
 30
0.000000000000000
 10
430.6721184052588
 20
121.5996431547748
 30
0.000000000000000
 10
430.8580850283464
 20
121.3931295384681
 30
0.000000000000000
 10
431.0913779961519
 20
121.1926216606623
 30
0.000000000000000
 10
431.3610142709481
 20
121.0119311084742
 30
0.000000000000000
 10
431.6710790231337
 20
120.8538688383435
 30
0.000000000000000
 10
432.0233613307910
 20
120.7253998388230
 30
0.000000000000000
 10
432.4168757865850
 20
120.6383515276782
 30
0.000000000000000
 10
432.6968785581676
 20
120.6178977085191
 30
0.000000000000000
 10
432.8395823804993
 20
120.6177538812435
 30
0.000000000000000
  0
ARC
  5
82
100
AcDbEntity
  8
A1
  6
CONTINUOUS
 62
7
100
AcDbCircle
 10
785.5395823804993
 20
91.90722297015202
 30
0.000000000000000
 40
1.300000000000000
100
AcDbArc
 50
90.00000000000000
 51
205.0289994876298
  0
ARC
  5
83
100
AcDbEntity
  8
A1
  6
CONTINUOUS
 62
7
100
AcDbCircle
 10
785.5395823804993
 20
117.5072229701515
 30
0.000000000000000
 40
1.300000000000000
100
AcDbArc
 50
154.9710005123702
 51
270.0000000000000
  0
ARC
  5
84
100
AcDbEntity
  8
A1
  6
CONTINUOUS
 62
7
100
AcDbCircle
 10
645.9395823804992
 20
104.7072229701517
 30
0.000000000000000
 40
2.250000000000000
100
AcDbArc
 50
90.00000000000000
 51
270.0000000000000
  0
ARC
  5
85
100
AcDbEntity
  8
A1
  6
CONTINUOUS
 62
7
100
AcDbCircle
 10
646.7395823804992
 20
104.7072229701518
 30
0.000000000000000
 40
2.250000000000000
100
AcDbArc
 50
270.0000000000000
 51
450.0000000000000
  0
ARC
  5
86
100
AcDbEntity
  8
A1
  6
CONTINUOUS
 62
7
100
AcDbCircle
 10
770.1395823804993
 20
105.1072229701518
 30
0.000000000000000
 40
2.250000000000030
100
AcDbArc
 50
0.000000000000000
 51
179.9999999999986
  0
ARC
  5
87
100
AcDbEntity
  8
A1
  6
CONTINUOUS
 62
7
100
AcDbCircle
 10
770.1395823804993
 20
104.3072229701518
 30
0.000000000000000
 40
2.250000000000030
100
AcDbArc
 50
180.0000000000038
 51
360.0000000000000
  0
ARC
  5
88
100
AcDbEntity
  8
A1
  6
CONTINUOUS
 62
7
100
AcDbCircle
 10
757.4395823804992
 20
105.1072229701518
 30
0.000000000000000
 40
2.250000000000000
100
AcDbArc
 50
0.000000000000000
 51
179.9999999999986
  0
ARC
  5
89
100
AcDbEntity
  8
A1
  6
CONTINUOUS
 62
7
100
AcDbCircle
 10
757.4395823804992
 20
104.3072229701518
 30
0.000000000000000
 40
2.250000000000000
100
AcDbArc
 50
180.0000000000037
 51
360.0000000000000
  0
ARC
  5
8A
100
AcDbEntity
  8
A1
  6
CONTINUOUS
 62
7
100
AcDbCircle
 10
785.5395823804993
 20
91.90722297015202
 30
0.000000000000000
 40
1.299999999999999
100
AcDbArc
 50
205.0289994876298
 51
234.6052701337144
  0
ARC
  5
8B
100
AcDbEntity
  8
A1
  6
CONTINUOUS
 62
7
100
AcDbCircle
 10
785.5395823804993
 20
117.5072229701515
 30
0.000000000000000
 40
1.299999999999999
100
AcDbArc
 50
125.3947298662856
 51
154.9710005123702
  0
LINE
  5
8C
100
AcDbEntity
  8
A1
  6
CONTINUOUS
 62
7
100
AcDbLine
 10
430.4395823804992
 20
92.58213037629000
 30
0.000000000000000
 11
430.4395823804992
 21
91.35722297015170
 31
0.000000000000000
  0
LINE
  5
8D
100
AcDbEntity
  8
A1
  6
CONTINUOUS
 62
7
100
AcDbLine
 10
430.4395823804992
 20
118.0572229701514
 30
0.000000000000000
 11
430.4395823804992
 21
116.8323155640133
 31
0.000000000000000
  0
LINE
  5
8E
100
AcDbEntity
  8
A1
  6
CONTINUOUS
 62
7
100
AcDbLine
 10
645.9395823804992
 20
102.4572229701517
 30
0.000000000000000
 11
646.7395823804992
 21
102.4572229701518
 31
0.000000000000000
  0
LINE
  5
8F
100
AcDbEntity
  8
A1
  6
CONTINUOUS
 62
7
100
AcDbLine
 10
646.7395823804992
 20
106.9572229701517
 30
0.000000000000000
 11
645.9395823804992
 21
106.9572229701517
 31
0.000000000000000
  0
LINE
  5
90
100
AcDbEntity
  8
A1
  6
CONTINUOUS
 62
7
100
AcDbLine
 10
767.8895823804993
 20
105.1072229701518
 30
0.000000000000000
 11
767.8895823804993
 21
104.3072229701517
 31
0.000000000000000
  0
LINE
  5
91
100
AcDbEntity
  8
A1
  6
CONTINUOUS
 62
7
100
AcDbLine
 10
772.3895823804993
 20
104.3072229701518
 30
0.000000000000000
 11
772.3895823804993
 21
105.1072229701518
 31
0.000000000000000
  0
LINE
  5
92
100
AcDbEntity
  8
A1
  6
CONTINUOUS
 62
7
100
AcDbLine
 10
755.1895823804992
 20
105.1072229701518
 30
0.000000000000000
 11
755.1895823804992
 21
104.3072229701517
 31
0.000000000000000
  0
LINE
  5
93
100
AcDbEntity
  8
A1
  6
CONTINUOUS
 62
7
100
AcDbLine
 10
759.6895823804992
 20
104.3072229701518
 30
0.000000000000000
 11
759.6895823804992
 21
105.1072229701518
 31
0.000000000000000
  0
LINE
  5
94
100
AcDbEntity
  8
A1
  6
CONTINUOUS
 62
7
100
AcDbLine
 10
786.0395823804993
 20
89.70090442349670
 30
0.000000000000000
 11
786.0395823804993
 21
89.95722297015180
 31
0.000000000000000
  0
LINE
  5
95
100
AcDbEntity
  8
A1
  6
CONTINUOUS
 62
7
100
AcDbLine
 10
430.4395823804992
 20
91.35722297015170
 30
0.000000000000000
 11
430.4395823804992
 21
89.35767225817040
 31
0.000000000000000
  0
LINE
  5
96
100
AcDbEntity
  8
A1
  6
CONTINUOUS
 62
7
100
AcDbLine
 10
784.3616604815612
 20
91.35722297015209
 30
0.000000000000000
 11
430.4395823804991
 21
91.35722297015170
 31
0.000000000000000
  0
LINE
  5
97
100
AcDbEntity
  8
A1
  6
CONTINUOUS
 62
7
100
AcDbLine
 10
786.0395823804995
 20
89.95722297015175
 30
0.000000000000000
 11
784.7866143289868
 21
90.84748757232853
 31
0.000000000000000
  0
LINE
  5
98
100
AcDbEntity
  8
A1
  6
CONTINUOUS
 62
7
100
AcDbLine
 10
786.0395823804993
 20
119.7135415168068
 30
0.000000000000000
 11
786.0395823804993
 21
119.4572229701518
 31
0.000000000000000
  0
LINE
  5
99
100
AcDbEntity
  8
A1
  6
CONTINUOUS
 62
7
100
AcDbLine
 10
430.4395823804992
 20
120.0567736821331
 30
0.000000000000000
 11
430.4395823804992
 21
118.0572229701514
 31
0.000000000000000
  0
LINE
  5
9A
100
AcDbEntity
  8
A1
  6
CONTINUOUS
 62
7
100
AcDbLine
 10
784.3616604815612
 20
118.0572229701514
 30
0.000000000000000
 11
430.4395823804992
 21
118.0572229701514
 31
0.000000000000000
  0
LINE
  5
9B
100
AcDbEntity
  8
A1
  6
CONTINUOUS
 62
7
100
AcDbLine
 10
784.7866143289866
 20
118.5669583679748
 30
0.000000000000000
 11
786.0395823804993
 21
119.4572229701518
 31
0.000000000000000
  0
LINE
  5
9C
100
AcDbEntity
  8
A1
  6
CONTINUOUS
 62
7
100
AcDbLine
 10
430.4395823804992
 20
120.3372229701516
 30
0.000000000000000
 11
430.4395823804992
 21
120.0567736821331
 31
0.000000000000000
  0
LINE
  5
9D
100
AcDbEntity
  8
A1
  6
CONTINUOUS
 62
7
100
AcDbLine
 10
431.4583625102635
 20
120.0567736821331
 30
0.000000000000000
 11
430.4395823804992
 21
120.0567736821331
 31
0.000000000000000
  0
LINE
  5
9E
100
AcDbEntity
  8
A1
  6
CONTINUOUS
 62
7
100
AcDbLine
 10
430.4395823804992
 20
89.35767225817040
 30
0.000000000000000
 11
430.4395823804992
 21
89.07722297015181
 31
0.000000000000000
  0
LINE
  5
9F
100
AcDbEntity
  8
A1
  6
CONTINUOUS
 62
7
100
AcDbLine
 10
431.4510385839662
 20
89.35767225817033
 30
0.000000000000000
 11
430.4395823804992
 21
89.35767225817041
 31
0.000000000000000
  0
LINE
  5
A0
100
AcDbEntity
  8
A1
  6
CONTINUOUS
 62
7
100
AcDbLine
 10
784.4395823804992
 20
93.20722297015240
 30
0.000000000000000
 11
784.4395823804992
 21
95.20722297015240
 31
0.000000000000000
  0
LINE
  5
A1
100
AcDbEntity
  8
A1
  6
CONTINUOUS
 62
7
100
AcDbLine
 10
786.0395823804993
 20
95.20722297015192
 30
0.000000000000000
 11
786.0395823804993
 21
93.20722297015192
 31
0.000000000000000
  0
LINE
  5
A2
100
AcDbEntity
  8
A1
  6
CONTINUOUS
 62
7
100
AcDbLine
 10
786.0395823804993
 20
93.20722297015192
 30
0.000000000000000
 11
784.4395823804992
 21
93.20722297015192
 31
0.000000000000000
  0
LINE
  5
A3
100
AcDbEntity
  8
A1
  6
CONTINUOUS
 62
7
100
AcDbLine
 10
784.4395823804992
 20
114.2072229701511
 30
0.000000000000000
 11
784.4395823804992
 21
116.2072229701511
 31
0.000000000000000
  0
LINE
  5
A4
100
AcDbEntity
  8
A1
  6
CONTINUOUS
 62
7
100
AcDbLine
 10
786.0395823804993
 20
116.2072229701516
 30
0.000000000000000
 11
786.0395823804993
 21
114.2072229701516
 31
0.000000000000000
  0
LINE
  5
A5
100
AcDbEntity
  8
A1
  6
CONTINUOUS
 62
7
100
AcDbLine
 10
784.4395823804992
 20
116.2072229701516
 30
0.000000000000000
 11
786.0395823804993
 21
116.2072229701516
 31
0.000000000000000
  0
LINE
  5
A6
100
AcDbEntity
  8
A1
  6
CONTINUOUS
 62
7
100
AcDbLine
 10
784.4395823804992
 20
114.2072229701511
 30
0.000000000000000
 11
784.4395823804992
 21
95.20722297015240
 31
0.000000000000000
  0
LINE
  5
A7
100
AcDbEntity
  8
A1
  6
CONTINUOUS
 62
7
100
AcDbLine
 10
784.4395823804992
 20
95.20722297015239
 30
0.000000000000000
 11
786.0395823804993
 21
95.20722297015190
 31
0.000000000000000
  0
LINE
  5
A8
100
AcDbEntity
  8
A1
  6
CONTINUOUS
 62
7
100
AcDbLine
 10
786.0395823804993
 20
95.20722297015192
 30
0.000000000000000
 11
786.0395823804993
 21
114.2072229701516
 31
0.000000000000000
  0
LINE
  5
A9
100
AcDbEntity
  8
A1
  6
CONTINUOUS
 62
7
100
AcDbLine
 10
786.0395823804993
 20
114.2072229701516
 30
0.000000000000000
 11
784.4395823804992
 21
114.2072229701511
 31
0.000000000000000
  0
LINE
  5
AA
100
AcDbEntity
  8
A1
  6
CONTINUOUS
 62
7
100
AcDbLine
 10
786.0395823804993
 20
89.70090442349670
 30
0.000000000000000
 11
432.8395823804993
 21
89.70090442349670
 31
0.000000000000000
  0
LINE
  5
AB
100
AcDbEntity
  8
A1
  6
CONTINUOUS
 62
7
100
AcDbLine
 10
786.0395823804993
 20
88.79669205906001
 30
0.000000000000000
 11
786.0395823804993
 21
89.70090442349670
 31
0.000000000000000
  0
LINE
  5
AC
100
AcDbEntity
  8
A1
  6
CONTINUOUS
 62
7
100
AcDbLine
 10
786.0395823804993
 20
120.6177538812435
 30
0.000000000000000
 11
786.0395823804993
 21
119.7135415168068
 31
0.000000000000000
  0
LINE
  5
AD
100
AcDbEntity
  8
A1
  6
CONTINUOUS
 62
7
100
AcDbLine
 10
786.0395823804994
 20
119.7135415168068
 30
0.000000000000000
 11
432.8395823804993
 21
119.7135415168067
 31
0.000000000000000
  0
LINE
  5
AE
100
AcDbEntity
  8
A1
  6
CONTINUOUS
 62
7
100
AcDbLine
 10
786.0395823804993
 20
88.79669205906001
 30
0.000000000000000
 11
432.8395823804993
 21
88.79669205906001
 31
0.000000000000000
  0
LINE
  5
AF
100
AcDbEntity
  8
A1
  6
CONTINUOUS
 62
7
100
AcDbLine
 10
430.4395823804992
 20
87.26879824127840
 30
0.000000000000000
 11
430.4395823804992
 21
87.05722297015160
 31
0.000000000000000
  0
LINE
  5
B0
100
AcDbEntity
  8
A1
  6
CONTINUOUS
 62
7
100
AcDbLine
 10
430.4395823804992
 20
87.05722297015160
 30
0.000000000000000
 11
786.0395823804993
 21
87.05722297015160
 31
0.000000000000000
  0
LINE
  5
B1
100
AcDbEntity
  8
A1
  6
CONTINUOUS
 62
7
100
AcDbLine
 10
786.0395823804993
 20
87.05722297015160
 30
0.000000000000000
 11
786.0395823804993
 21
88.79669205906001
 31
0.000000000000000
  0
LINE
  5
B2
100
AcDbEntity
  8
A1
  6
CONTINUOUS
 62
7
100
AcDbLine
 10
430.4395823804992
 20
87.26879824127840
 30
0.000000000000000
 11
430.4395823804992
 21
89.07722297015181
 31
0.000000000000000
  0
LINE
  5
B3
100
AcDbEntity
  8
A1
  6
CONTINUOUS
 62
7
100
AcDbLine
 10
432.8395823804993
 20
89.70090442349670
 30
0.000000000000000
 11
432.8395823804993
 21
88.79669205906001
 31
0.000000000000000
  0
LINE
  5
B4
100
AcDbEntity
  8
A1
  6
CONTINUOUS
 62
7
100
AcDbLine
 10
430.4395823804992
 20
120.3372229701516
 30
0.000000000000000
 11
430.4395823804992
 21
122.1456476990250
 31
0.000000000000000
  0
LINE
  5
B5
100
AcDbEntity
  8
A1
  6
CONTINUOUS
 62
7
100
AcDbLine
 10
432.8395823804993
 20
120.6177538812435
 30
0.000000000000000
 11
432.8395823804993
 21
119.7135415168067
 31
0.000000000000000
  0
LINE
  5
B6
100
AcDbEntity
  8
A1
  6
CONTINUOUS
 62
7
100
AcDbLine
 10
786.0395823804993
 20
120.6177538812435
 30
0.000000000000000
 11
432.8395823804993
 21
120.6177538812435
 31
0.000000000000000
  0
LINE
  5
B7
100
AcDbEntity
  8
A1
  6
CONTINUOUS
 62
7
100
AcDbLine
 10
786.0395823804994
 20
122.3572229701519
 30
0.000000000000000
 11
430.4395823804991
 21
122.3572229701518
 31
0.000000000000000
  0
LINE
  5
B8
100
AcDbEntity
  8
A1
  6
CONTINUOUS
 62
7
100
AcDbLine
 10
430.4395823804992
 20
122.3572229701518
 30
0.000000000000000
 11
430.4395823804992
 21
122.1456476990250
 31
0.000000000000000
  0
LINE
  5
B9
100
AcDbEntity
  8
A1
  6
CONTINUOUS
 62
7
100
AcDbLine
 10
786.0395823804993
 20
122.3572229701519
 30
0.000000000000000
 11
786.0395823804993
 21
120.6177538812435
 31
0.000000000000000
  0
CIRCLE
  5
BA
100
AcDbEntity
  8
A1
  6
CONTINUOUS
 62
7
100
AcDbCircle
 10
353.9895823804992
 20
104.7072229701514
 30
0.000000000000000
 40
1.200000000000000
  0
ARC
  5
BB
100
AcDbEntity
  8
A1
  6
CONTINUOUS
 62
7
100
AcDbCircle
 10
349.9895823804992
 20
106.4072220313847
 30
0.000000000000000
 40
0.7000000000000000
100
AcDbArc
 50
238.7541664501535
 51
270.1326981011896
  0
ARC
  5
BC
100
AcDbEntity
  8
A1
  6
CONTINUOUS
 62
7
100
AcDbCircle
 10
357.9895823804992
 20
106.4072220313848
 30
0.000000000000000
 40
0.7000000000000000
100
AcDbArc
 50
269.8673018988091
 51
301.2458335498429
  0
ARC
  5
BD
100
AcDbEntity
  8
A1
  6
CONTINUOUS
 62
7
100
AcDbCircle
 10
357.9895823804992
 20
103.0072239089181
 30
0.000000000000000
 40
0.7000000000000000
100
AcDbArc
 50
58.75416645015464
 51
90.00000000000000
  0
ARC
  5
BE
100
AcDbEntity
  8
A1
  6
CONTINUOUS
 62
7
100
AcDbCircle
 10
349.9895823804992
 20
103.0072239089182
 30
0.000000000000000
 40
0.7000000000000000
100
AcDbArc
 50
90.00000000000000
 51
121.2458335498480
  0
ARC
  5
BF
100
AcDbEntity
  8
A1
  6
CONTINUOUS
 62
7
100
AcDbCircle
 10
356.2144419268663
 20
106.4072239087655
 30
0.000000000000000
 40
0.7000000000014542
100
AcDbArc
 50
217.3831984098576
 51
270.0000000000000
  0
ARC
  5
C0
100
AcDbEntity
  8
A1
  6
CONTINUOUS
 62
7
100
AcDbCircle
 10
353.9895823804992
 20
104.7072239090740
 30
0.000000000000000
 40
2.099999999999949
100
AcDbArc
 50
37.38319840989766
 51
142.6168015901009
  0
ARC
  5
C1
100
AcDbEntity
  8
A1
  6
CONTINUOUS
 62
7
100
AcDbCircle
 10
351.7647228341333
 20
106.4072239087655
 30
0.000000000000000
 40
0.7000000000014096
100
AcDbArc
 50
270.0000000000745
 51
322.6168015900901
  0
ARC
  5
C2
100
AcDbEntity
  8
A1
  6
CONTINUOUS
 62
7
100
AcDbCircle
 10
351.7647228341333
 20
103.0072239089168
 30
0.000000000000000
 40
0.7000000000013981
100
AcDbArc
 50
37.38319841748326
 51
90.00000000000000
  0
ARC
  5
C3
100
AcDbEntity
  8
A1
  6
CONTINUOUS
 62
7
100
AcDbCircle
 10
353.9895823804992
 20
104.7072239090740
 30
0.000000000000000
 40
2.100000000282682
100
AcDbArc
 50
217.3831984174706
 51
322.6168015825434
  0
ARC
  5
C4
100
AcDbEntity
  8
A1
  6
CONTINUOUS
 62
7
100
AcDbCircle
 10
356.2144419268663
 20
103.0072239089168
 30
0.000000000000000
 40
0.7000000000014097
100
AcDbArc
 50
90.00000000000000
 51
142.6168015825316
  0
ARC
  5
C5
100
AcDbEntity
  8
A1
  6
CONTINUOUS
 62
7
100
AcDbCircle
 10
53.93958238050880
 20
91.90722297014290
 30
0.000000000000000
 40
1.299999999986762
100
AcDbArc
 50
305.3947298661674
 51
334.9710005125440
  0
ARC
  5
C6
100
AcDbEntity
  8
A1
  6
CONTINUOUS
 62
7
100
AcDbCircle
 10
53.93958238049913
 20
117.5072229701501
 30
0.000000000000000
 40
1.299999999998944
100
AcDbArc
 50
270.0000000000051
 51
327.7957724961118
  0
ARC
  5
C7
100
AcDbEntity
  8
A1
  6
CONTINUOUS
 62
7
100
AcDbCircle
 10
53.93958238049936
 20
91.90722297015321
 30
0.000000000000000
 40
1.299999999998565
100
AcDbArc
 50
32.20422750387912
 51
90.00000000000500
  0
ARC
  5
C8
100
AcDbEntity
  8
A1
  6
CONTINUOUS
 62
7
100
AcDbCircle
 10
53.93958238050556
 20
117.5072229701573
 30
0.000000000000000
 40
1.299999999990823
100
AcDbArc
 50
25.02899948750225
 51
54.60527013378433
  0
ARC
  5
C9
100
AcDbEntity
  8
A1
  6
CONTINUOUS
 62
7
100
AcDbCircle
 10
53.93958238049925
 20
117.5072229701511
 30
0.000000000000000
 40
1.300000000000000
100
AcDbArc
 50
327.7957724960699
 51
385.0289994876299
  0
ARC
  5
CA
100
AcDbEntity
  8
A1
  6
CONTINUOUS
 62
7
100
AcDbCircle
 10
53.93958238049925
 20
91.90722297015171
 30
0.000000000000000
 40
1.300000000000000
100
AcDbArc
 50
334.9710005123702
 51
392.2042275039300
  0
ARC
  5
CB
100
AcDbEntity
  8
A1
  6
CONTINUOUS
 62
7
100
AcDbCircle
 10
393.1395823804992
 20
105.1072229701515
 30
0.000000000000000
 40
2.250000000000000
100
AcDbArc
 50
0.000000000000000
 51
180.0000000000000
  0
ARC
  5
CC
100
AcDbEntity
  8
A1
  6
CONTINUOUS
 62
7
100
AcDbCircle
 10
393.1395823804992
 20
104.3072229701515
 30
0.000000000000000
 40
2.250000000000000
100
AcDbArc
 50
180.0000000000000
 51
360.0000000000000
  0
ARC
  5
CD
100
AcDbEntity
  8
A1
  6
CONTINUOUS
 62
7
100
AcDbCircle
 10
380.4395823804992
 20
105.1072229701515
 30
0.000000000000000
 40
2.250000000000000
100
AcDbArc
 50
0.000000000000000
 51
180.0000000000000
  0
ARC
  5
CE
100
AcDbEntity
  8
A1
  6
CONTINUOUS
 62
7
100
AcDbCircle
 10
380.4395823804992
 20
104.3072229701515
 30
0.000000000000000
 40
2.250000000000000
100
AcDbArc
 50
180.0000000000000
 51
360.0000000000000
  0
ARC
  5
CF
100
AcDbEntity
  8
A1
  6
CONTINUOUS
 62
7
100
AcDbCircle
 10
82.03958238049927
 20
105.1072229701515
 30
0.000000000000000
 40
2.250000000000000
100
AcDbArc
 50
1.374000000000000e-12
 51
180.0000000000000
  0
ARC
  5
D0
100
AcDbEntity
  8
A1
  6
CONTINUOUS
 62
7
100
AcDbCircle
 10
82.03958238049927
 20
104.3072229701515
 30
0.000000000000000
 40
2.250000000000000
100
AcDbArc
 50
180.0000000000000
 51
359.9999999999964
  0
ARC
  5
D1
100
AcDbEntity
  8
A1
  6
CONTINUOUS
 62
7
100
AcDbCircle
 10
69.33958238049928
 20
105.1072229701515
 30
0.000000000000000
 40
2.250000000000030
100
AcDbArc
 50
1.323100000000000e-12
 51
180.0000000000000
  0
ARC
  5
D2
100
AcDbEntity
  8
A1
  6
CONTINUOUS
 62
7
100
AcDbCircle
 10
69.33958238049928
 20
104.3072229701515
 30
0.000000000000000
 40
2.250000000000030
100
AcDbArc
 50
180.0000000000000
 51
359.9999999999963
  0
ARC
  5
D3
100
AcDbEntity
  8
A1
  6
CONTINUOUS
 62
7
100
AcDbCircle
 10
368.1395823804992
 20
104.7072229701515
 30
0.000000000000000
 40
2.250000000000000
100
AcDbArc
 50
270.0000000000000
 51
450.0000000000000
  0
ARC
  5
D4
100
AcDbEntity
  8
A1
  6
CONTINUOUS
 62
7
100
AcDbCircle
 10
367.3395823804992
 20
104.7072229701515
 30
0.000000000000000
 40
2.250000000000000
100
AcDbArc
 50
90.00000000000000
 51
270.0000000000000
  0
ARC
  5
D5
100
AcDbEntity
  8
A1
  6
CONTINUOUS
 62
7
100
AcDbCircle
 10
282.4395823804992
 20
104.7072229701515
 30
0.000000000000000
 40
2.250000000000000
100
AcDbArc
 50
270.0000000000000
 51
450.0000000000000
  0
ARC
  5
D6
100
AcDbEntity
  8
A1
  6
CONTINUOUS
 62
7
100
AcDbCircle
 10
281.6395823804992
 20
104.7072229701515
 30
0.000000000000000
 40
2.250000000000000
100
AcDbArc
 50
90.00000000000000
 51
270.0000000000000
  0
ARC
  5
D7
100
AcDbEntity
  8
A1
  6
CONTINUOUS
 62
7
100
AcDbCircle
 10
193.5395823804992
 20
104.7072229701515
 30
0.000000000000000
 40
2.250000000000000
100
AcDbArc
 50
270.0000000000000
 51
450.0000000000000
  0
ARC
  5
D8
100
AcDbEntity
  8
A1
  6
CONTINUOUS
 62
7
100
AcDbCircle
 10
192.7395823804993
 20
104.7072229701515
 30
0.000000000000000
 40
2.250000000000000
100
AcDbArc
 50
90.00000000000000
 51
270.0000000000000
  0
ARC
  5
D9
100
AcDbEntity
  8
A1
  6
CONTINUOUS
 62
7
100
AcDbCircle
 10
349.9895823804992
 20
103.0072239089182
 30
0.000000000000000
 40
0.7000000000000000
100
AcDbArc
 50
121.2458335498480
 51
180.0000000000000
  0
ARC
  5
DA
100
AcDbEntity
  8
A1
  6
CONTINUOUS
 62
7
100
AcDbCircle
 10
353.9895823804992
 20
104.7072229701514
 30
0.000000000000000
 40
4.500000000000000
100
AcDbArc
 50
165.8308474967136
 51
194.1691525032855
  0
ARC
  5
DB
100
AcDbEntity
  8
A1
  6
CONTINUOUS
 62
7
100
AcDbCircle
 10
349.9895823804992
 20
106.4072220313847
 30
0.000000000000000
 40
0.7000000000000000
100
AcDbArc
 50
180.0000000000000
 51
238.7541664501533
  0
ARC
  5
DC
100
AcDbEntity
  8
A1
  6
CONTINUOUS
 62
7
100
AcDbCircle
 10
357.9895823804992
 20
106.4072220313848
 30
0.000000000000000
 40
0.7000000000000000
100
AcDbArc
 50
301.2458335498438
 51
360.0000000000000
  0
ARC
  5
DD
100
AcDbEntity
  8
A1
  6
CONTINUOUS
 62
7
100
AcDbCircle
 10
353.9895823804992
 20
104.7072229701514
 30
0.000000000000000
 40
4.500000000000000
100
AcDbArc
 50
345.8308474967133
 51
374.1691525032875
  0
ARC
  5
DE
100
AcDbEntity
  8
A1
  6
CONTINUOUS
 62
7
100
AcDbCircle
 10
357.9895823804992
 20
103.0072239089181
 30
0.000000000000000
 40
0.7000000000000000
100
AcDbArc
 50
0.000000000000000
 51
58.75416645015464
  0
LINE
  5
DF
100
AcDbEntity
  8
A1
  6
CONTINUOUS
 62
7
100
AcDbLine
 10
53.43958238049925
 20
88.22463845018231
 30
0.000000000000000
 11
53.43958238049925
 21
87.05722297015140
 31
0.000000000000000
  0
LINE
  5
E0
100
AcDbEntity
  8
A1
  6
CONTINUOUS
 62
7
100
AcDbLine
 10
53.43958238049924
 20
87.05722297015141
 30
0.000000000000000
 11
409.0395823804994
 21
87.05722297015153
 31
0.000000000000000
  0
LINE
  5
E1
100
AcDbEntity
  8
A1
  6
CONTINUOUS
 62
7
100
AcDbLine
 10
409.0395823804993
 20
87.05722297015151
 30
0.000000000000000
 11
409.0395823804993
 21
88.22463845018240
 31
0.000000000000000
  0
LINE
  5
E2
100
AcDbEntity
  8
A1
  6
CONTINUOUS
 62
7
100
AcDbLine
 10
409.0395823804993
 20
121.1898074901207
 30
0.000000000000000
 11
409.0395823804993
 21
122.3572229701516
 31
0.000000000000000
  0
LINE
  5
E3
100
AcDbEntity
  8
A1
  6
CONTINUOUS
 62
7
100
AcDbLine
 10
53.43958238049925
 20
121.1898074901206
 30
0.000000000000000
 11
53.43958238049925
 21
122.3572229701516
 31
0.000000000000000
  0
LINE
  5
E4
100
AcDbEntity
  8
A1
  6
CONTINUOUS
 62
7
100
AcDbLine
 10
409.0395823804993
 20
122.3572229701516
 30
0.000000000000000
 11
53.43958238049925
 21
122.3572229701516
 31
0.000000000000000
  0
LINE
  5
E5
100
AcDbEntity
  8
A1
  6
CONTINUOUS
 62
7
100
AcDbLine
 10
409.0395823804993
 20
96.80722297015132
 30
0.000000000000000
 11
409.0395823804993
 21
112.6072229701514
 31
0.000000000000000
  0
LINE
  5
E6
100
AcDbEntity
  8
A1
  6
CONTINUOUS
 62
7
100
AcDbLine
 10
356.2144419268663
 20
105.7072239087640
 30
0.000000000000000
 11
357.9879611688047
 21
105.7072239087640
 31
0.000000000000000
  0
LINE
  5
E7
100
AcDbEntity
  8
A1
  6
CONTINUOUS
 62
7
100
AcDbLine
 10
349.9912035921937
 20
105.7072239087639
 30
0.000000000000000
 11
351.7647228341342
 21
105.7072239087639
 31
0.000000000000000
  0
LINE
  5
E8
100
AcDbEntity
  8
A1
  6
CONTINUOUS
 62
7
100
AcDbLine
 10
351.7647228341333
 20
103.7072239089182
 30
0.000000000000000
 11
349.9895823804992
 21
103.7072239089182
 31
0.000000000000000
  0
LINE
  5
E9
100
AcDbEntity
  8
A1
  6
CONTINUOUS
 62
7
100
AcDbLine
 10
357.9895823804992
 20
103.7072239089181
 30
0.000000000000000
 11
356.2144419268663
 21
103.7072239089182
 31
0.000000000000000
  0
LINE
  5
EA
100
AcDbEntity
  8
A1
  6
CONTINUOUS
 62
7
100
AcDbLine
 10
409.0395823804993
 20
88.22463845018240
 30
0.000000000000000
 11
409.0395823804993
 21
90.22418916216441
 31
0.000000000000000
  0
LINE
  5
EB
100
AcDbEntity
  8
A1
  6
CONTINUOUS
 62
7
100
AcDbLine
 10
53.43958238049922
 20
89.95722297015155
 30
0.000000000000000
 11
53.81531349303378
 21
90.22418916216412
 31
0.000000000000000
  0
LINE
  5
EC
100
AcDbEntity
  8
A1
  6
CONTINUOUS
 62
7
100
AcDbLine
 10
53.43958238049925
 20
88.22463845018230
 30
0.000000000000000
 11
409.0395823804993
 21
88.22463845018238
 31
0.000000000000000
  0
LINE
  5
ED
100
AcDbEntity
  8
A1
  6
CONTINUOUS
 62
7
100
AcDbLine
 10
53.43958238049925
 20
88.22463845018231
 30
0.000000000000000
 11
53.43958238049925
 21
89.95722297015152
 31
0.000000000000000
  0
LINE
  5
EE
100
AcDbEntity
  8
A1
  6
CONTINUOUS
 62
7
100
AcDbLine
 10
409.0395823804993
 20
119.1902567781389
 30
0.000000000000000
 11
409.0395823804993
 21
121.1898074901207
 31
0.000000000000000
  0
LINE
  5
EF
100
AcDbEntity
  8
A1
  6
CONTINUOUS
 62
7
100
AcDbLine
 10
53.81531349303380
 20
119.1902567781388
 30
0.000000000000000
 11
53.43958238049925
 21
119.4572229701516
 31
0.000000000000000
  0
LINE
  5
F0
100
AcDbEntity
  8
A1
  6
CONTINUOUS
 62
7
100
AcDbLine
 10
53.43958238049925
 20
121.1898074901206
 30
0.000000000000000
 11
409.0395823804993
 21
121.1898074901207
 31
0.000000000000000
  0
LINE
  5
F1
100
AcDbEntity
  8
A1
  6
CONTINUOUS
 62
7
100
AcDbLine
 10
53.43958238049925
 20
121.1898074901206
 30
0.000000000000000
 11
53.43958238049925
 21
119.4572229701515
 31
0.000000000000000
  0
LINE
  5
F2
100
AcDbEntity
  8
A1
  6
CONTINUOUS
 62
7
100
AcDbLine
 10
409.0395823804993
 20
95.34656279837151
 30
0.000000000000000
 11
409.0395823804993
 21
96.80722297015132
 31
0.000000000000000
  0
LINE
  5
F3
100
AcDbEntity
  8
A1
  6
CONTINUOUS
 62
7
100
AcDbLine
 10
409.0395823804993
 20
96.80722297015132
 30
0.000000000000000
 11
405.2395823804992
 21
96.80722297015132
 31
0.000000000000000
  0
LINE
  5
F4
100
AcDbEntity
  8
A1
  6
CONTINUOUS
 62
7
100
AcDbLine
 10
409.0395823804993
 20
112.6072229701514
 30
0.000000000000000
 11
409.0395823804993
 21
114.0678831419314
 31
0.000000000000000
  0
LINE
  5
F5
100
AcDbEntity
  8
A1
  6
CONTINUOUS
 62
7
100
AcDbLine
 10
409.0395823804993
 20
112.6072229701514
 30
0.000000000000000
 11
405.2395823804992
 21
112.6072229701514
 31
0.000000000000000
  0
LINE
  5
F6
100
AcDbEntity
  8
A1
  6
CONTINUOUS
 62
7
100
AcDbLine
 10
409.0395823804993
 20
94.28590262659159
 30
0.000000000000000
 11
409.0395823804993
 21
95.34656279837151
 31
0.000000000000000
  0
LINE
  5
F7
100
AcDbEntity
  8
A1
  6
CONTINUOUS
 62
7
100
AcDbLine
 10
409.0395823804993
 20
95.34656279837149
 30
0.000000000000000
 11
405.2395823804992
 21
95.34656279837138
 31
0.000000000000000
  0
LINE
  5
F8
100
AcDbEntity
  8
A1
  6
CONTINUOUS
 62
7
100
AcDbLine
 10
409.0395823804993
 20
90.22418916216429
 30
0.000000000000000
 11
409.0395823804993
 21
91.35722297015181
 31
0.000000000000000
  0
LINE
  5
F9
100
AcDbEntity
  8
A1
  6
CONTINUOUS
 62
7
100
AcDbLine
 10
53.81531349303378
 20
90.22418916216411
 30
0.000000000000000
 11
409.0395823804993
 21
90.22418916216442
 31
0.000000000000000
  0
LINE
  5
FA
100
AcDbEntity
  8
A1
  6
CONTINUOUS
 62
7
100
AcDbLine
 10
54.69255043201176
 20
90.84748757232825
 30
0.000000000000000
 11
53.81531349303376
 21
90.22418916216404
 31
0.000000000000000
  0
LINE
  5
FB
100
AcDbEntity
  8
A1
  6
CONTINUOUS
 62
7
100
AcDbLine
 10
409.0395823804993
 20
114.0678831419315
 30
0.000000000000000
 11
409.0395823804993
 21
115.1285433137112
 31
0.000000000000000
  0
LINE
  5
FC
100
AcDbEntity
  8
A1
  6
CONTINUOUS
 62
7
100
AcDbLine
 10
409.0395823804993
 20
114.0678831419314
 30
0.000000000000000
 11
405.2395823804992
 21
114.0678831419314
 31
0.000000000000000
  0
LINE
  5
FD
100
AcDbEntity
  8
A1
  6
CONTINUOUS
 62
7
100
AcDbLine
 10
53.43958238049925
 20
116.2072229701515
 30
0.000000000000000
 11
53.93958238049874
 21
116.2072229701513
 31
0.000000000000000
  0
LINE
  5
FE
100
AcDbEntity
  8
A1
  6
CONTINUOUS
 62
7
100
AcDbLine
 10
53.43958238049925
 20
93.20722297015161
 30
0.000000000000000
 11
53.43958238049925
 21
116.2072229701513
 31
0.000000000000000
  0
LINE
  5
FF
100
AcDbEntity
  8
A1
  6
CONTINUOUS
 62
7
100
AcDbLine
 10
53.93958238049873
 20
93.20722297015200
 30
0.000000000000000
 11
53.43958238049924
 21
93.20722297015180
 31
0.000000000000000
  0
LINE
  5
100
100
AcDbEntity
  8
A1
  6
CONTINUOUS
 62
7
100
AcDbLine
 10
409.0395823804993
 20
118.0572229701512
 30
0.000000000000000
 11
409.0395823804993
 21
119.1902567781388
 31
0.000000000000000
  0
LINE
  5
101
100
AcDbEntity
  8
A1
  6
CONTINUOUS
 62
7
100
AcDbLine
 10
53.81531349303378
 20
119.1902567781388
 30
0.000000000000000
 11
409.0395823804993
 21
119.1902567781389
 31
0.000000000000000
  0
LINE
  5
102
100
AcDbEntity
  8
A1
  6
CONTINUOUS
 62
7
100
AcDbLine
 10
53.81531349303376
 20
119.1902567781388
 30
0.000000000000000
 11
54.69255043201176
 21
118.5669583679746
 31
0.000000000000000
  0
LINE
  5
103
100
AcDbEntity
  8
A1
  6
CONTINUOUS
 62
7
100
AcDbLine
 10
409.0395823804993
 20
115.1285433137112
 30
0.000000000000000
 11
409.0395823804993
 21
118.0572229701512
 31
0.000000000000000
  0
LINE
  5
104
100
AcDbEntity
  8
A1
  6
CONTINUOUS
 62
7
100
AcDbLine
 10
409.0395823804993
 20
91.35722297015181
 30
0.000000000000000
 11
409.0395823804993
 21
94.28590262659159
 31
0.000000000000000
  0
LINE
  5
105
100
AcDbEntity
  8
A1
  6
CONTINUOUS
 62
7
100
AcDbLine
 10
55.11750427943731
 20
91.35722297015181
 30
0.000000000000000
 11
409.0395823804993
 21
91.35722297015181
 31
0.000000000000000
  0
LINE
  5
106
100
AcDbEntity
  8
A1
  6
CONTINUOUS
 62
7
100
AcDbLine
 10
409.0395823804993
 20
94.28590262659159
 30
0.000000000000000
 11
405.2395823804992
 21
94.28590262659159
 31
0.000000000000000
  0
LINE
  5
107
100
AcDbEntity
  8
A1
  6
CONTINUOUS
 62
7
100
AcDbLine
 10
405.2395823804992
 20
94.28590262659159
 30
0.000000000000000
 11
405.2395823804992
 21
115.1285433137112
 31
0.000000000000000
  0
LINE
  5
108
100
AcDbEntity
  8
A1
  6
CONTINUOUS
 62
7
100
AcDbLine
 10
409.0395823804993
 20
115.1285433137112
 30
0.000000000000000
 11
405.2395823804992
 21
115.1285433137112
 31
0.000000000000000
  0
LINE
  5
109
100
AcDbEntity
  8
A1
  6
CONTINUOUS
 62
7
100
AcDbLine
 10
55.11750427943731
 20
118.0572229701511
 30
0.000000000000000
 11
409.0395823804993
 21
118.0572229701512
 31
0.000000000000000
  0
LINE
  5
10A
100
AcDbEntity
  8
A1
  6
CONTINUOUS
 62
7
100
AcDbLine
 10
55.03958238049928
 20
116.8144026471247
 30
0.000000000000000
 11
55.03958238049928
 21
92.60004329317820
 31
0.000000000000000
  0
LINE
  5
10B
100
AcDbEntity
  8
A1
  6
CONTINUOUS
 62
7
100
AcDbLine
 10
390.8895823804992
 20
104.3072229701515
 30
0.000000000000000
 11
390.8895823804992
 21
105.1072229701515
 31
0.000000000000000
  0
LINE
  5
10C
100
AcDbEntity
  8
A1
  6
CONTINUOUS
 62
7
100
AcDbLine
 10
395.3895823804992
 20
105.1072229701515
 30
0.000000000000000
 11
395.3895823804992
 21
104.3072229701515
 31
0.000000000000000
  0
LINE
  5
10D
100
AcDbEntity
  8
A1
  6
CONTINUOUS
 62
7
100
AcDbLine
 10
378.1895823804992
 20
104.3072229701515
 30
0.000000000000000
 11
378.1895823804992
 21
105.1072229701515
 31
0.000000000000000
  0
LINE
  5
10E
100
AcDbEntity
  8
A1
  6
CONTINUOUS
 62
7
100
AcDbLine
 10
382.6895823804992
 20
105.1072229701515
 30
0.000000000000000
 11
382.6895823804992
 21
104.3072229701515
 31
0.000000000000000
  0
LINE
  5
10F
100
AcDbEntity
  8
A1
  6
CONTINUOUS
 62
7
100
AcDbLine
 10
79.78958238049927
 20
104.3072229701515
 30
0.000000000000000
 11
79.78958238049927
 21
105.1072229701515
 31
0.000000000000000
  0
LINE
  5
110
100
AcDbEntity
  8
A1
  6
CONTINUOUS
 62
7
100
AcDbLine
 10
84.28958238049927
 20
105.1072229701515
 30
0.000000000000000
 11
84.28958238049927
 21
104.3072229701514
 31
0.000000000000000
  0
LINE
  5
111
100
AcDbEntity
  8
A1
  6
CONTINUOUS
 62
7
100
AcDbLine
 10
67.08958238049928
 20
104.3072229701515
 30
0.000000000000000
 11
67.08958238049928
 21
105.1072229701515
 31
0.000000000000000
  0
LINE
  5
112
100
AcDbEntity
  8
A1
  6
CONTINUOUS
 62
7
100
AcDbLine
 10
71.58958238049922
 20
105.1072229701515
 30
0.000000000000000
 11
71.58958238049922
 21
104.3072229701514
 31
0.000000000000000
  0
LINE
  5
113
100
AcDbEntity
  8
A1
  6
CONTINUOUS
 62
7
100
AcDbLine
 10
367.3395823804992
 20
106.9572229701515
 30
0.000000000000000
 11
368.1395823804992
 21
106.9572229701515
 31
0.000000000000000
  0
LINE
  5
114
100
AcDbEntity
  8
A1
  6
CONTINUOUS
 62
7
100
AcDbLine
 10
368.1395823804992
 20
102.4572229701515
 30
0.000000000000000
 11
367.3395823804992
 21
102.4572229701515
 31
0.000000000000000
  0
LINE
  5
115
100
AcDbEntity
  8
A1
  6
CONTINUOUS
 62
7
100
AcDbLine
 10
281.6395823804992
 20
106.9572229701515
 30
0.000000000000000
 11
282.4395823804992
 21
106.9572229701515
 31
0.000000000000000
  0
LINE
  5
116
100
AcDbEntity
  8
A1
  6
CONTINUOUS
 62
7
100
AcDbLine
 10
282.4395823804992
 20
102.4572229701515
 30
0.000000000000000
 11
281.6395823804992
 21
102.4572229701515
 31
0.000000000000000
  0
LINE
  5
117
100
AcDbEntity
  8
A1
  6
CONTINUOUS
 62
7
100
AcDbLine
 10
192.7395823804993
 20
106.9572229701514
 30
0.000000000000000
 11
193.5395823804992
 21
106.9572229701514
 31
0.000000000000000
  0
LINE
  5
118
100
AcDbEntity
  8
A1
  6
CONTINUOUS
 62
7
100
AcDbLine
 10
193.5395823804992
 20
102.4572229701514
 30
0.000000000000000
 11
192.7395823804993
 21
102.4572229701514
 31
0.000000000000000
  0
LINE
  5
119
100
AcDbEntity
  8
A1
  6
CONTINUOUS
 62
7
100
AcDbLine
 10
356.8763342685341
 20
99.70722297015141
 30
0.000000000000000
 11
351.1028304924614
 21
99.70722297015172
 31
0.000000000000000
  0
LINE
  5
11A
100
AcDbEntity
  8
A1
  6
CONTINUOUS
 62
7
100
AcDbLine
 10
351.1028304924614
 20
99.70722297015163
 30
0.000000000000000
 11
349.2895823804963
 21
102.8478608268029
 31
0.000000000000000
  0
LINE
  5
11B
100
AcDbEntity
  8
A1
  6
CONTINUOUS
 62
7
100
AcDbLine
 10
349.2895823804962
 20
102.8478608268029
 30
0.000000000000000
 11
349.2895823804992
 21
103.0072239089182
 31
0.000000000000000
  0
LINE
  5
11C
100
AcDbEntity
  8
A1
  6
CONTINUOUS
 62
7
100
AcDbLine
 10
349.2895823804992
 20
106.4072220313847
 30
0.000000000000000
 11
349.2895823804992
 21
106.5665851135059
 31
0.000000000000000
  0
LINE
  5
11D
100
AcDbEntity
  8
A1
  6
CONTINUOUS
 62
7
100
AcDbLine
 10
349.2895823804992
 20
106.5665851135059
 30
0.000000000000000
 11
351.1028304924614
 21
109.7072229701512
 31
0.000000000000000
  0
LINE
  5
11E
100
AcDbEntity
  8
A1
  6
CONTINUOUS
 62
7
100
AcDbLine
 10
351.1028304924613
 20
109.7072229701512
 30
0.000000000000000
 11
356.8763342685342
 21
109.7072229701514
 31
0.000000000000000
  0
LINE
  5
11F
100
AcDbEntity
  8
A1
  6
CONTINUOUS
 62
7
100
AcDbLine
 10
356.8763342685343
 20
109.7072229701514
 30
0.000000000000000
 11
358.6895823805003
 21
106.5665851134999
 31
0.000000000000000
  0
LINE
  5
120
100
AcDbEntity
  8
A1
  6
CONTINUOUS
 62
7
100
AcDbLine
 10
358.6895823805002
 20
106.5665851134999
 30
0.000000000000000
 11
358.6895823805002
 21
106.4072220313848
 31
0.000000000000000
  0
LINE
  5
121
100
AcDbEntity
  8
A1
  6
CONTINUOUS
 62
7
100
AcDbLine
 10
358.6895823804992
 20
103.0072239089181
 30
0.000000000000000
 11
358.6895823805002
 21
102.8478608268030
 31
0.000000000000000
  0
LINE
  5
122
100
AcDbEntity
  8
A1
  6
CONTINUOUS
 62
7
100
AcDbLine
 10
358.6895823805002
 20
102.8478608268030
 30
0.000000000000000
 11
356.8763342685340
 21
99.70722297015141
 31
0.000000000000000
  0
ARC
  5
123
100
AcDbEntity
  8
A1
  6
CONTINUOUS
 62
7
100
AcDbCircle
 10
446.6895823804996
 20
104.7072229701516
 30
0.000000000000000
 40
4.750000000000000
100
AcDbArc
 50
270.0000000000000
 51
450.0000000000000
  0
ARC
  5
124
100
AcDbEntity
  8
A1
  6
CONTINUOUS
 62
7
100
AcDbCircle
 10
443.4895823804997
 20
104.7072229701516
 30
0.000000000000000
 40
4.750000000000000
100
AcDbArc
 50
90.00000000000000
 51
270.0000000000000
  0
LINE
  5
125
100
AcDbEntity
  8
A1
  6
CONTINUOUS
 62
7
100
AcDbLine
 10
597.5395823804992
 20
95.00722297015164
 30
0.000000000000000
 11
597.5395823804993
 21
114.4072229701494
 31
0.000000000000000
  0
LINE
  5
126
100
AcDbEntity
  8
A1
  6
CONTINUOUS
 62
7
100
AcDbLine
 10
443.4895823804997
 20
109.4572229701516
 30
0.000000000000000
 11
446.6895823804995
 21
109.4572229701515
 31
0.000000000000000
  0
LINE
  5
127
100
AcDbEntity
  8
A1
  6
CONTINUOUS
 62
7
100
AcDbLine
 10
446.6895823804996
 20
99.95722297015152
 30
0.000000000000000
 11
443.4895823804997
 21
99.95722297015161
 31
0.000000000000000
  0
LINE
  5
128
100
AcDbEntity
  8
A1
  6
CONTINUOUS
 62
7
100
AcDbLine
 10
597.5395823804993
 20
92.93574148794411
 30
0.000000000000000
 11
597.5395823804993
 21
92.58213037628880
 31
0.000000000000000
  0
LINE
  5
129
100
AcDbEntity
  8
A1
  6
CONTINUOUS
 62
7
100
AcDbLine
 10
409.0395823804993
 20
92.58213037629011
 30
0.000000000000000
 11
597.5395823804992
 21
92.58213037628892
 31
0.000000000000000
  0
LINE
  5
12A
100
AcDbEntity
  8
A1
  6
CONTINUOUS
 62
7
100
AcDbLine
 10
597.5395823804993
 20
116.4787044523568
 30
0.000000000000000
 11
597.5395823804993
 21
116.8323155640122
 31
0.000000000000000
  0
LINE
  5
12B
100
AcDbEntity
  8
A1
  6
CONTINUOUS
 62
7
100
AcDbLine
 10
597.5395823804992
 20
116.8323155640121
 30
0.000000000000000
 11
409.0395823804993
 21
116.8323155640134
 31
0.000000000000000
  0
LINE
  5
12C
100
AcDbEntity
  8
A1
  6
CONTINUOUS
 62
7
100
AcDbLine
 10
597.5395823804993
 20
92.97079115078560
 30
0.000000000000000
 11
597.5395823804993
 21
92.93574148794411
 31
0.000000000000000
  0
LINE
  5
12D
100
AcDbEntity
  8
A1
  6
CONTINUOUS
 62
7
100
AcDbLine
 10
409.0395823804993
 20
92.93574148794541
 30
0.000000000000000
 11
597.5395823804994
 21
92.93574148794413
 31
0.000000000000000
  0
LINE
  5
12E
100
AcDbEntity
  8
A1
  6
CONTINUOUS
 62
7
100
AcDbLine
 10
597.5395823804993
 20
116.4436547895154
 30
0.000000000000000
 11
597.5395823804993
 21
116.4787044523568
 31
0.000000000000000
  0
LINE
  5
12F
100
AcDbEntity
  8
A1
  6
CONTINUOUS
 62
7
100
AcDbLine
 10
409.0395823804993
 20
116.4787044523581
 30
0.000000000000000
 11
597.5395823804993
 21
116.4787044523568
 31
0.000000000000000
  0
LINE
  5
130
100
AcDbEntity
  8
A1
  6
CONTINUOUS
 62
7
100
AcDbLine
 10
597.5395823804994
 20
95.00722297015163
 30
0.000000000000000
 11
409.0395823804993
 21
95.00722297015291
 31
0.000000000000000
  0
LINE
  5
131
100
AcDbEntity
  8
A1
  6
CONTINUOUS
 62
7
100
AcDbLine
 10
597.5395823804993
 20
95.00722297015162
 30
0.000000000000000
 11
597.5395823804993
 21
94.27983660454200
 31
0.000000000000000
  0
LINE
  5
132
100
AcDbEntity
  8
A1
  6
CONTINUOUS
 62
7
100
AcDbLine
 10
597.5395823804993
 20
92.97079115078560
 30
0.000000000000000
 11
597.5395823804993
 21
94.27983660454200
 31
0.000000000000000
  0
LINE
  5
133
100
AcDbEntity
  8
A1
  6
CONTINUOUS
 62
7
100
AcDbLine
 10
409.0395823804994
 20
94.27983660454331
 30
0.000000000000000
 11
597.5395823804993
 21
94.27983660454200
 31
0.000000000000000
  0
LINE
  5
134
100
AcDbEntity
  8
A1
  6
CONTINUOUS
 62
7
100
AcDbLine
 10
409.0395823804993
 20
92.97079115078691
 30
0.000000000000000
 11
597.5395823804993
 21
92.97079115078560
 31
0.000000000000000
  0
LINE
  5
135
100
AcDbEntity
  8
A1
  6
CONTINUOUS
 62
7
100
AcDbLine
 10
409.0395823804993
 20
114.4072229701506
 30
0.000000000000000
 11
597.5395823804990
 21
114.4072229701494
 31
0.000000000000000
  0
LINE
  5
136
100
AcDbEntity
  8
A1
  6
CONTINUOUS
 62
7
100
AcDbLine
 10
597.5395823804992
 20
114.4072229701494
 30
0.000000000000000
 11
597.5395823804993
 21
115.1346093357589
 31
0.000000000000000
  0
LINE
  5
137
100
AcDbEntity
  8
A1
  6
CONTINUOUS
 62
7
100
AcDbLine
 10
597.5395823804993
 20
116.4436547895153
 30
0.000000000000000
 11
597.5395823804993
 21
115.1346093357589
 31
0.000000000000000
  0
LINE
  5
138
100
AcDbEntity
  8
A1
  6
CONTINUOUS
 62
7
100
AcDbLine
 10
409.0395823804993
 20
116.4436547895166
 30
0.000000000000000
 11
597.5395823804993
 21
116.4436547895153
 31
0.000000000000000
  0
LINE
  5
139
100
AcDbEntity
  8
A1
  6
CONTINUOUS
 62
7
100
AcDbLine
 10
409.0395823804993
 20
115.1346093357602
 30
0.000000000000000
 11
597.5395823804993
 21
115.1346093357589
 31
0.000000000000000
  0
LINE
  5
13A
100
AcDbEntity
  8
A4
  6
CENTER
 62
1
100
AcDbLine
 10
770.1395823804993
 20
108.8572229701518
 30
0.000000000000000
 11
770.1395823804993
 21
103.6072229701518
 31
0.000000000000000
  0
LINE
  5
13B
100
AcDbEntity
  8
A4
  6
CENTER
 62
1
100
AcDbLine
 10
770.1395823804993
 20
105.8072229701518
 30
0.000000000000000
 11
770.1395823804993
 21
100.5572229701518
 31
0.000000000000000
  0
LINE
  5
13C
100
AcDbEntity
  8
A4
  6
CENTER
 62
1
100
AcDbLine
 10
757.4395823804992
 20
108.8572229701518
 30
0.000000000000000
 11
757.4395823804992
 21
103.6072229701518
 31
0.000000000000000
  0
LINE
  5
13D
100
AcDbEntity
  8
A4
  6
CENTER
 62
1
100
AcDbLine
 10
757.4395823804992
 20
105.8072229701518
 30
0.000000000000000
 11
757.4395823804992
 21
100.5572229701518
 31
0.000000000000000
  0
LINE
  5
13E
100
AcDbEntity
  8
A4
  6
CENTER
 62
1
100
AcDbLine
 10
367.7395823804992
 20
108.4572229701518
 30
0.000000000000000
 11
367.7395823804992
 21
100.9572229701518
 31
0.000000000000000
  0
LINE
  5
13F
100
AcDbEntity
  8
A4
  6
CENTER
 62
1
100
AcDbLine
 10
193.1395823804992
 20
108.4572229701518
 30
0.000000000000000
 11
193.1395823804992
 21
100.9572229701518
 31
0.000000000000000
  0
LINE
  5
140
100
AcDbEntity
  8
A4
  6
CENTER
 62
1
100
AcDbLine
 10
282.0395823804992
 20
108.4572229701518
 30
0.000000000000000
 11
282.0395823804992
 21
100.9572229701518
 31
0.000000000000000
  0
ARC
  5
141
100
AcDbEntity
  8
A3
  6
DASHED
 62
2
100
AcDbCircle
 10
395.9895823804925
 20
104.7072229701514
 30
0.000000000000000
 40
4.750000000000000
100
AcDbArc
 50
270.0000000000000
 51
450.0000000000000
  0
ARC
  5
142
100
AcDbEntity
  8
A3
  6
DASHED
 62
2
100
AcDbCircle
 10
392.7895823804926
 20
104.7072229701514
 30
0.000000000000000
 40
4.750000000000000
100
AcDbArc
 50
90.00000000000000
 51
270.0000000000000
  0
LINE
  5
143
100
AcDbEntity
  8
A3
  6
DASHED
 62
2
100
AcDbLine
 10
395.9895823804925
 20
99.95722297015141
 30
0.000000000000000
 11
392.7895823804926
 21
99.95722297015141
 31
0.000000000000000
  0
LINE
  5
144
100
AcDbEntity
  8
A3
  6
DASHED
 62
2
100
AcDbLine
 10
392.7895823804926
 20
109.4572229701514
 30
0.000000000000000
 11
395.9895823804925
 21
109.4572229701514
 31
0.000000000000000
  0
ARC
  5
145
100
AcDbEntity
  8
A3
  6
DASHED
 62
2
100
AcDbCircle
 10
459.0395823804993
 20
104.3072229701517
 30
0.000000000000000
 40
2.250000000000000
100
AcDbArc
 50
180.0000000000000
 51
360.0000000000000
  0
ARC
  5
146
100
AcDbEntity
  8
A3
  6
DASHED
 62
2
100
AcDbCircle
 10
459.0395823804993
 20
105.1072229701517
 30
0.000000000000000
 40
2.250000000000000
100
AcDbArc
 50
0.000000000000000
 51
180.0000000000000
  0
ARC
  5
147
100
AcDbEntity
  8
A3
  6
DASHED
 62
2
100
AcDbCircle
 10
471.3395823804992
 20
104.7072229701517
 30
0.000000000000000
 40
2.250000000000000
100
AcDbArc
 50
90.00000000000000
 51
270.0000000000000
  0
ARC
  5
148
100
AcDbEntity
  8
A3
  6
DASHED
 62
2
100
AcDbCircle
 10
472.1395823804992
 20
104.7072229701517
 30
0.000000000000000
 40
2.250000000000000
100
AcDbArc
 50
270.0000000000000
 51
450.0000000000000
  0
ARC
  5
149
100
AcDbEntity
  8
A1
  6
CONTINUOUS
 62
7
100
AcDbCircle
 10
557.0395823804993
 20
104.7072229701517
 30
0.000000000000000
 40
2.250000000000000
100
AcDbArc
 50
90.00000000000000
 51
270.0000000000000
  0
ARC
  5
14A
100
AcDbEntity
  8
A1
  6
CONTINUOUS
 62
7
100
AcDbCircle
 10
557.8395823804993
 20
104.7072229701517
 30
0.000000000000000
 40
2.250000000000000
100
AcDbArc
 50
270.0000000000000
 51
450.0000000000000
  0
LINE
  5
14B
100
AcDbEntity
  8
A3
  6
DASHED
 62
2
100
AcDbLine
 10
461.2895823804993
 20
105.1072229701517
 30
0.000000000000000
 11
461.2895823804993
 21
104.3072229701517
 31
0.000000000000000
  0
LINE
  5
14C
100
AcDbEntity
  8
A3
  6
DASHED
 62
2
100
AcDbLine
 10
456.7895823804993
 20
104.3072229701517
 30
0.000000000000000
 11
456.7895823804993
 21
105.1072229701517
 31
0.000000000000000
  0
LINE
  5
14D
100
AcDbEntity
  8
A3
  6
DASHED
 62
2
100
AcDbLine
 10
472.1395823804992
 20
102.4572229701517
 30
0.000000000000000
 11
471.3395823804992
 21
102.4572229701517
 31
0.000000000000000
  0
LINE
  5
14E
100
AcDbEntity
  8
A3
  6
DASHED
 62
2
100
AcDbLine
 10
471.3395823804992
 20
106.9572229701517
 30
0.000000000000000
 11
472.1395823804992
 21
106.9572229701517
 31
0.000000000000000
  0
LINE
  5
14F
100
AcDbEntity
  8
A1
  6
CONTINUOUS
 62
7
100
AcDbLine
 10
557.8395823804993
 20
102.4572229701517
 30
0.000000000000000
 11
557.0395823804993
 21
102.4572229701517
 31
0.000000000000000
  0
LINE
  5
150
100
AcDbEntity
  8
A1
  6
CONTINUOUS
 62
7
100
AcDbLine
 10
557.0395823804993
 20
106.9572229701517
 30
0.000000000000000
 11
557.8395823804993
 21
106.9572229701517
 31
0.000000000000000
  0
LINE
  5
151
100
AcDbEntity
  8
A4
  6
CENTER
 62
1
100
AcDbLine
 10
557.4395823804994
 20
108.4572229701518
 30
0.000000000000000
 11
557.4395823804994
 21
100.9572229701518
 31
0.000000000000000
  0
LINE
  5
152
100
AcDbEntity
  8
A4
  6
CENTER
 62
1
100
AcDbLine
 10
471.7395823804992
 20
100.9572229701518
 30
0.000000000000000
 11
471.7395823804992
 21
108.4572229701518
 31
0.000000000000000
  0
LINE
  5
153
100
AcDbEntity
  8
A4
  6
CENTER
 62
1
100
AcDbLine
 10
459.0395823804993
 20
103.6072229701517
 30
0.000000000000000
 11
459.0395823804993
 21
108.8572229701517
 31
0.000000000000000
  0
LINE
  5
154
100
AcDbEntity
  8
A4
  6
CENTER
 62
1
100
AcDbLine
 10
459.0395823804993
 20
100.5572229701517
 30
0.000000000000000
 11
459.0395823804993
 21
105.8072229701517
 31
0.000000000000000
  0
LINE
  5
155
100
AcDbEntity
  8
A4
  6
CENTER
 62
1
100
AcDbLine
 10
446.3395823804992
 20
103.6072229701517
 30
0.000000000000000
 11
446.3395823804992
 21
108.8572229701517
 31
0.000000000000000
  0
LINE
  5
156
100
AcDbEntity
  8
A4
  6
CENTER
 62
1
100
AcDbLine
 10
446.3395823804992
 20
100.5572229701517
 30
0.000000000000000
 11
446.3395823804992
 21
105.8072229701517
 31
0.000000000000000
  0
LINE
  5
157
100
AcDbEntity
  8
A4
  6
CENTER
 62
1
100
AcDbLine
 10
646.3395823804992
 20
100.9572229701518
 30
0.000000000000000
 11
646.3395823804992
 21
108.4572229701518
 31
0.000000000000000
  0
LINE
  5
158
100
AcDbEntity
  8
A4
  6
CENTER
 62
1
100
AcDbLine
 10
380.4395823804992
 20
100.5572229701515
 30
0.000000000000000
 11
380.4395823804992
 21
108.8572229701515
 31
0.000000000000000
  0
LINE
  5
159
100
AcDbEntity
  8
A4
  6
CENTER
 62
1
100
AcDbLine
 10
393.1395823804992
 20
100.5572229701515
 30
0.000000000000000
 11
393.1395823804992
 21
108.8572229701515
 31
0.000000000000000
  0
LINE
  5
15A
100
AcDbEntity
  8
A4
  6
CENTER
 62
1
100
AcDbLine
 10
69.33958238049928
 20
100.5572229701515
 30
0.000000000000000
 11
69.33958238049928
 21
108.8572229701515
 31
0.000000000000000
  0
LINE
  5
15B
100
AcDbEntity
  8
A4
  6
CENTER
 62
1
100
AcDbLine
 10
82.03958238049927
 20
100.5572229701515
 30
0.000000000000000
 11
82.03958238049927
 21
108.8572229701515
 31
0.000000000000000
  0
LINE
  5
15C
100
AcDbEntity
  8
A4
  6
CENTER
 62
1
100
AcDbLine
 10
51.93958238049925
 20
104.7072229701515
 30
0.000000000000000
 11
787.5395823804993
 21
104.7072229701517
 31
0.000000000000000
  0
LINE
  5
15D
100
AcDbEntity
  8
A4
  6
CENTER
 62
1
100
AcDbLine
 10
757.4395823804992
 20
214.5229972864875
 30
0.000000000000000
 11
757.4395823804992
 21
221.7016753060787
 31
0.000000000000000
  0
LINE
  5
15E
100
AcDbEntity
  8
A4
  6
CENTER
 62
1
100
AcDbLine
 10
646.3395823804992
 20
214.5229972864875
 30
0.000000000000000
 11
646.3395823804992
 21
221.7016753060787
 31
0.000000000000000
  0
LINE
  5
15F
100
AcDbEntity
  8
A4
  6
CENTER
 62
1
100
AcDbLine
 10
557.4395823804994
 20
214.5229972864875
 30
0.000000000000000
 11
557.4395823804994
 21
221.7016753060787
 31
0.000000000000000
  0
LINE
  5
160
100
AcDbEntity
  8
A4
  6
CENTER
 62
1
100
AcDbLine
 10
471.7395823804992
 20
214.5229972864875
 30
0.000000000000000
 11
471.7395823804992
 21
221.7016753060787
 31
0.000000000000000
  0
LINE
  5
161
100
AcDbEntity
  8
A4
  6
CENTER
 62
1
100
AcDbLine
 10
459.0395823804993
 20
214.5229972864875
 30
0.000000000000000
 11
459.0395823804993
 21
221.7016753060787
 31
0.000000000000000
  0
LINE
  5
162
100
AcDbEntity
  8
A4
  6
CENTER
 62
1
100
AcDbLine
 10
446.3395823804992
 20
214.5229972864875
 30
0.000000000000000
 11
446.3395823804992
 21
221.7016753060787
 31
0.000000000000000
  0
LINE
  5
163
100
AcDbEntity
  8
A4
  6
CENTER
 62
1
100
AcDbLine
 10
380.4395823804682
 20
196.4876668298430
 30
0.000000000000000
 11
380.4395823804654
 21
204.3229972864829
 31
0.000000000000000
  0
LINE
  5
164
100
AcDbEntity
  8
A4
  6
CENTER
 62
1
100
AcDbLine
 10
367.7395823807161
 20
196.4876668298743
 30
0.000000000000000
 11
367.7395823807354
 21
204.3229972865142
 31
0.000000000000000
  0
LINE
  5
165
100
AcDbEntity
  8
A4
  6
CENTER
 62
1
100
AcDbLine
 10
282.0395823805521
 20
196.4876668299258
 30
0.000000000000000
 11
282.0395823805569
 21
204.3229972865657
 31
0.000000000000000
  0
LINE
  5
166
100
AcDbEntity
  8
A4
  6
CENTER
 62
1
100
AcDbLine
 10
193.1395823804291
 20
196.4876668298550
 30
0.000000000000000
 11
193.1395823804229
 21
204.3229972864949
 31
0.000000000000000
  0
LINE
  5
167
100
AcDbEntity
  8
A4
  6
CENTER
 62
1
100
AcDbLine
 10
82.03958238044963
 20
196.4876668297921
 30
0.000000000000000
 11
82.03958238044520
 21
204.3229972864319
 31
0.000000000000000
  0
LINE
  5
168
100
AcDbEntity
  8
A4
  6
CENTER
 62
1
100
AcDbLine
 10
69.33958238049061
 20
196.4876668297908
 30
0.000000000000000
 11
69.33958238048984
 21
204.3229972864307
 31
0.000000000000000
  0
LINE
  5
169
100
AcDbEntity
  8
A4
  6
CENTER
 62
1
100
AcDbLine
 10
770.1395823797313
 20
214.5229972864875
 30
0.000000000000000
 11
770.1395823797313
 21
221.7016753060787
 31
0.000000000000000
  0
LINE
  5
16A
100
AcDbEntity
  8
A4
  6
CENTER
 62
1
100
AcDbLine
 10
393.1395823806419
 20
196.4876668298475
 30
0.000000000000000
 11
393.1395823806419
 21
204.3229972864874
 31
0.000000000000000
  0
LINE
  5
16B
100
AcDbEntity
  8
A3
  6
DASHED
 62
2
100
AcDbLine
 10
409.0395823804994
 20
202.8229972864876
 30
0.000000000000000
 11
243.5395823804998
 21
202.8229972864876
 31
0.000000000000000
  0
LINE
  5
16C
100
AcDbEntity
  8
A3
  6
DASHED
 62
2
100
AcDbLine
 10
243.5395823804998
 20
202.8229972864876
 30
0.000000000000000
 11
243.5395823804998
 21
208.4229972864873
 31
0.000000000000000
  0
LINE
  5
16D
100
AcDbEntity
  8
A3
  6
DASHED
 62
2
100
AcDbLine
 10
430.4395823805004
 20
216.0229972864872
 30
0.000000000000000
 11
595.9395823805004
 21
216.0229972864872
 31
0.000000000000000
  0
LINE
  5
16E
100
AcDbEntity
  8
A3
  6
DASHED
 62
2
100
AcDbLine
 10
595.9395823805004
 20
216.0229972864872
 30
0.000000000000000
 11
595.9395823805004
 21
210.4229972864871
 31
0.000000000000000
  0
LINE
  5
16F
100
AcDbEntity
  8
A3
  6
DASHED
 62
2
100
AcDbLine
 10
430.4395823804992
 20
116.8323155640133
 30
0.000000000000000
 11
430.4395823804992
 21
91.35722297015170
 31
0.000000000000000
  0
ARC
  5
170
100
AcDbEntity
  8
A1
  6
CONTINUOUS
 62
7
100
AcDbCircle
 10
446.3395823804992
 20
104.3072229701515
 30
0.000000000000000
 40
2.250000000000000
100
AcDbArc
 50
180.0000000000000
 51
360.0000000000000
  0
LINE
  5
171
100
AcDbEntity
  8
A1
  6
CONTINUOUS
 62
7
100
AcDbLine
 10
444.0895823804992
 20
104.3072229701515
 30
0.000000000000000
 11
444.0895823804992
 21
105.1072229701515
 31
0.000000000000000
  0
LINE
  5
172
100
AcDbEntity
  8
A1
  6
CONTINUOUS
 62
7
100
AcDbLine
 10
448.5895823804992
 20
105.1072229701515
 30
0.000000000000000
 11
448.5895823804992
 21
104.3072229701515
 31
0.000000000000000
  0
ARC
  5
173
100
AcDbEntity
  8
A1
  6
CONTINUOUS
 62
7
100
AcDbCircle
 10
446.3395823804992
 20
105.1072229701515
 30
0.000000000000000
 40
2.250000000000000
100
AcDbArc
 50
0.000000000000000
 51
180.0000000000000
  0
ENDSEC
  0
SECTION
  2
OBJECTS
  0
DICTIONARY
  5
1A7
100
AcDbDictionary
  3
ACAD_GROUP
350
1A8
  3
ACAD_LAYOUT
350
1A9
  3
ACAD_MLINESTYLE
350
1AA
  0
DICTIONARY
  5
1A8
102
{ACAD_REACTORS
330
1A7
102
}
330
1A7
100
AcDbDictionary
  0
DICTIONARY
  5
1A9
102
{ACAD_REACTORS
330
1A7
102
}
330
1A7
100
AcDbDictionary
  3
Model
350
1AB
  3
ﾚｲｱｳﾄ1
350
1AC
  3
ﾚｲｱｳﾄ2
350
1AD
  0
DICTIONARY
  5
1AA
102
{ACAD_REACTORS
330
1A7
102
}
330
1A7
100
AcDbDictionary
  3
STANDARD
350
1AE
  0
LAYOUT
  5
1AB
102
{ACAD_REACTORS
330
1A9
102
}
330
1A9
100
AcDbPlotSettings
 70
11952
  4
A3
 44
297.000000
 45
420.000000
 73
  1
 72
  1
100
AcDbLayout
  1
Model
 71
0
330
19E
  0
LAYOUT
  5
1AC
102
{ACAD_REACTORS
330
1A9
102
}
330
1A9
100
AcDbPlotSettings
100
AcDbLayout
  1
ﾚｲｱｳﾄ1
 71
1
330
19F
  0
LAYOUT
  5
1AD
102
{ACAD_REACTORS
330
1A9
102
}
330
1A9
100
AcDbPlotSettings
100
AcDbLayout
  1
ﾚｲｱｳﾄ2
 71
2
330
1A0
  0
MLINESTYLE
  5
1AE
102
{ACAD_REACTORS
330
1AA
102
}
330
1AA
100
AcDbMlineStyle
  2
STANDARD
 70
     0
  3

 62
   256
 51
90.00
 52
90.00
 71
     2
 49
0.50
 62
   256
  6
BYLAYER
 49
-0.50
 62
   256
  6
BYLAYER
  0
ENDSEC
  0
EOF
