  0
SECTION
  2
HEADER
  9
$ACADVER
  1
AC1027
  9
$DWGCODEPAGE
  3
ANSI_932
  9
$LTSCALE
 40
20.0
  9
$FILLMODE
 70
     1
  9
$CLAYER
  8
0
  9
$PDMODE
 70
     0
  9
$SPLFRAME
 70
     0
  9
$SPLINETYPE
 70
     6
  9
$SPLINESEGS
 70
     8
  9
$DIMASZ
 40
2.000000
  9
$DIMEXE
 40
1.500000
  9
$DIMEXO
 40
0.800000
  9
$DIMTAD
 70
     1
  9
$DIMTIH
 70
     0
  9
$DIMTOH
 70
     0
  9
$DIMTVP
 40
0.500000
  9
$DIMTXT
 40
3.100000
  9
$EXTMIN
 10
0.000000
 20
0.000000
 30
0.000000
  9
$EXTMAX
 10
297.000000
 20
420.000000
 30
0.000000
  9
$MEASUREMENT
 70
  1
  9
$LIMMIN
 10
0.000000
 20
0.000000
  9
$LIMMAX
 10
297.000000
 20
420.000000
  9
$HANDSEED
  5
1AB
  9
$LWDISPLAY
290
     0
  9
$DIMBLK
  1
_OPEN
  9
$DIMDEC
 70
     2
  9
$DIMADEC
 70
     2
  9
$DIMAUNIT
 70
     0
  9
$DIMZIN
 70
     8
  9
$DIMAZIN
 70
     2
  9
$DIMTOFL
 70
     1
  0
ENDSEC
  0
SECTION
  2
CLASSES
  0
ENDSEC
  0
SECTION
  2
TABLES
  0
TABLE
  2
VPORT
  5
172
100
AcDbSymbolTable
 70
     1
  0
VPORT
  5
173
100
AcDbSymbolTableRecord
100
AcDbViewportTableRecord
  2
*ACTIVE
 70
     0
 12
438.329164
 22
102.891907
 40
169.783812
 41
5.045583
  0
ENDTAB
  0
TABLE
  2
LTYPE
  5
174
100
AcDbSymbolTable
 70
     3
  0
LTYPE
  5
175
100
AcDbSymbolTableRecord
100
AcDbLinetypeTableRecord
  2
BYBLOCK
 70
     0
  3

 72
    65
 73
     0
 40
0.0
  0
LTYPE
  5
176
100
AcDbSymbolTableRecord
100
AcDbLinetypeTableRecord
  2
BYLAYER
 70
     0
  3

 72
    65
 73
     0
 40
0.0
  0
LTYPE
  5
177
100
AcDbSymbolTableRecord
100
AcDbLinetypeTableRecord
  2
CONTINUOUS
 70
     0
  3
Solid line (NEC CAE2D for Win R18.0 : 2026.03.12)
 72
    65
 73
     0
 40
0.0
  0
LTYPE
  5
178
100
AcDbSymbolTableRecord
100
AcDbLinetypeTableRecord
  2
DASHED
 70
     0
  3
__ __ __ __ __ __ __ __ __ __ __ __ __ _
 72
    65
 73
     2
 40
0.75
 49
0.5
 74
     0
 49
-0.25
 74
     0
  0
LTYPE
  5
179
100
AcDbSymbolTableRecord
100
AcDbLinetypeTableRecord
  2
CENTER
 70
     0
  3
____ _ ____ _ ____ _ ____ _ ____ _ ____
 72
    65
 73
     4
 40
2.0
 49
1.25
 74
     0
 49
-0.25
 74
     0
 49
0.25
 74
     0
 49
-0.25
 74
     0
  0
ENDTAB
  0
TABLE
  2
LAYER
  5
17A
100
AcDbSymbolTable
 70
    18
  0
LAYER
  5
17B
100
AcDbSymbolTableRecord
100
AcDbLayerTableRecord
  2
0
 70
     0
 62
     7
  6
CONTINUOUS
370
    -3
390

  0
LAYER
  5
17C
100
AcDbSymbolTableRecord
100
AcDbLayerTableRecord
  2
DXF0
 70
     0
 62
     7
  6
CONTINUOUS
370
    -3
390

  0
LAYER
  5
17D
100
AcDbSymbolTableRecord
100
AcDbLayerTableRecord
  2
A0
 70
     0
 62
     9
  6
CONTINUOUS
370
    -3
390

  0
LAYER
  5
17E
100
AcDbSymbolTableRecord
100
AcDbLayerTableRecord
  2
A1
 70
     0
 62
    12
  6
CONTINUOUS
370
    -3
390

  0
LAYER
  5
17F
100
AcDbSymbolTableRecord
100
AcDbLayerTableRecord
  2
A2
 70
     0
 62
     9
  6
CONTINUOUS
370
    -3
390

  0
LAYER
  5
180
100
AcDbSymbolTableRecord
100
AcDbLayerTableRecord
  2
A3
 70
     0
 62
    12
  6
CONTINUOUS
370
    -3
390

  0
LAYER
  5
181
100
AcDbSymbolTableRecord
100
AcDbLayerTableRecord
  2
A4
 70
     0
 62
     9
  6
CONTINUOUS
370
    -3
390

  0
LAYER
  5
182
100
AcDbSymbolTableRecord
100
AcDbLayerTableRecord
  2
A5
 70
     0
 62
     8
  6
CONTINUOUS
370
    -3
390

  0
LAYER
  5
183
100
AcDbSymbolTableRecord
100
AcDbLayerTableRecord
  2
A6
 70
     0
 62
    12
  6
CONTINUOUS
370
    -3
390

  0
LAYER
  5
184
100
AcDbSymbolTableRecord
100
AcDbLayerTableRecord
  2
A8
 70
     0
 62
    10
  6
CONTINUOUS
370
    -3
390

  0
LAYER
  5
185
100
AcDbSymbolTableRecord
100
AcDbLayerTableRecord
  2
A9
 70
     0
 62
     9
  6
CONTINUOUS
370
    -3
390

  0
LAYER
  5
186
100
AcDbSymbolTableRecord
100
AcDbLayerTableRecord
  2
A10
 70
     0
 62
     6
  6
CONTINUOUS
370
    -3
390

  0
LAYER
  5
187
100
AcDbSymbolTableRecord
100
AcDbLayerTableRecord
  2
A20
 70
     0
 62
     1
  6
CONTINUOUS
370
    -3
390

  0
LAYER
  5
188
100
AcDbSymbolTableRecord
100
AcDbLayerTableRecord
  2
A30
 70
     0
 62
     1
  6
CONTINUOUS
370
    -3
390

  0
LAYER
  5
189
100
AcDbSymbolTableRecord
100
AcDbLayerTableRecord
  2
A40
 70
     0
 62
     9
  6
CONTINUOUS
370
    -3
390

  0
LAYER
  5
18A
100
AcDbSymbolTableRecord
100
AcDbLayerTableRecord
  2
A50
 70
     0
 62
    12
  6
CONTINUOUS
370
    -3
390

  0
LAYER
  5
18B
100
AcDbSymbolTableRecord
100
AcDbLayerTableRecord
  2
A1023
 70
     0
 62
     8
  6
CONTINUOUS
370
    -3
390

  0
LAYER
  5
18C
100
AcDbSymbolTableRecord
100
AcDbLayerTableRecord
  2
DXF1023
 70
     0
 62
    16
  6
CONTINUOUS
370
    -3
390

  0
ENDTAB
  0
TABLE
  2
STYLE
  5
18D
100
AcDbSymbolTable
 70
     4
  0
STYLE
  5
18E
100
AcDbSymbolTableRecord
100
AcDbTextStyleTableRecord
  2
STANDARD
 70
    64
 40
0.0
 41
1.0
 50
0.0
 71
     0
 42
3.000000000000000
  3
TXT
  4

  0
STYLE
  5
18F
100
AcDbSymbolTableRecord
100
AcDbTextStyleTableRecord
  2
ANKTATE
 70
    68
 40
0.0
 41
1.0
 50
0.0
 71
     0
 42
3.000000000000000
  3
TXT
  4

  0
STYLE
  5
190
100
AcDbSymbolTableRecord
100
AcDbTextStyleTableRecord
  2
KNJYOKO
 70
    64
 40
0.0
 41
1.0
 50
0.0
 71
     0
 42
3.000000000000000
  3
TXT
  4
BIGFONT
  0
STYLE
  5
191
100
AcDbSymbolTableRecord
100
AcDbTextStyleTableRecord
  2
KNJTATE
 70
    68
 40
0.0
 41
1.0
 50
0.0
 71
     0
 42
3.000000000000000
  3
TXT
  4
BIGFONT
  0
ENDTAB
  0
TABLE
  2
VIEW
  5
192
100
AcDbSymbolTable
 70
     0
  0
ENDTAB
  0
TABLE
  2
UCS
  5
193
100
AcDbSymbolTable
 70
     0
  0
ENDTAB
  0
TABLE
  2
APPID
  5
194
100
AcDbSymbolTable
 70
     1
  0
APPID
  5
195
100
AcDbSymbolTableRecord
100
AcDbRegAppTableRecord
  2
ACAD
 70
     0
  0
ENDTAB
  0
TABLE
  2
DIMSTYLE
  5
196
100
AcDbSymbolTable
 70
     2
100
AcDbDimStyleTable
  0
DIMSTYLE
105
197
100
AcDbSymbolTableRecord
100
AcDbDimStyleTableRecord
  2
STANDARD
 70
     0
 41
2.000000
 44
1.500000
 42
0.800000
145
0.661290
140
3.100000
144
1.000000
146
0.645161
340
18E
  0
DIMSTYLE
105
198
100
AcDbSymbolTableRecord
100
AcDbDimStyleTableRecord
  2
DXF001
 70
     0
 41
2.000000
 44
1.500000
 42
0.800000
145
0.661290
140
3.100000
144
1.000000
146
0.645161
 77
     1
 73
     0
 74
     0
271
     2
179
     2
275
     0
 78
     8
 79
     2
172
     1
340
18E
  0
ENDTAB
  0
TABLE
  2
BLOCK_RECORD
  5
199
100
AcDbSymbolTable
 70
    12
  0
BLOCK_RECORD
  5
19A
100
AcDbSymbolTableRecord
100
AcDbBlockTableRecord
  2
*MODEL_SPACE
  0
BLOCK_RECORD
  5
19B
100
AcDbSymbolTableRecord
100
AcDbBlockTableRecord
  2
*PAPER_SPACE
  0
BLOCK_RECORD
  5
19C
100
AcDbSymbolTableRecord
100
AcDbBlockTableRecord
  2
*PAPER_SPACE0
  0
BLOCK_RECORD
  5
1
100
AcDbSymbolTableRecord
100
AcDbBlockTableRecord
  2
_NONE
  0
BLOCK_RECORD
  5
4
100
AcDbSymbolTableRecord
100
AcDbBlockTableRecord
  2
_CLOSED
  0
BLOCK_RECORD
  5
B
100
AcDbSymbolTableRecord
100
AcDbBlockTableRecord
  2
_DOT
  0
BLOCK_RECORD
  5
13
100
AcDbSymbolTableRecord
100
AcDbBlockTableRecord
  2
_OPEN
  0
BLOCK_RECORD
  5
19
100
AcDbSymbolTableRecord
100
AcDbBlockTableRecord
  2
_ORIGIN
  0
BLOCK_RECORD
  5
1E
100
AcDbSymbolTableRecord
100
AcDbBlockTableRecord
  2
_OPEN30
  0
BLOCK_RECORD
  5
24
100
AcDbSymbolTableRecord
100
AcDbBlockTableRecord
  2
_BOXFILLED
  0
BLOCK_RECORD
  5
29
100
AcDbSymbolTableRecord
100
AcDbBlockTableRecord
  2
_BOXBLANK
  0
BLOCK_RECORD
  5
31
100
AcDbSymbolTableRecord
100
AcDbBlockTableRecord
  2
_OBLIQUE
  0
BLOCK_RECORD
  5
35
100
AcDbSymbolTableRecord
100
AcDbBlockTableRecord
  2
_OPEN90
  0
BLOCK_RECORD
  5
3B
100
AcDbSymbolTableRecord
100
AcDbBlockTableRecord
  2
_CLOSEDBLANK
  0
BLOCK_RECORD
  5
41
100
AcDbSymbolTableRecord
100
AcDbBlockTableRecord
  2
_DOTBLANK
  0
ENDTAB
  0
ENDSEC
  0
SECTION
  2
BLOCKS
  0
BLOCK
  5
19D
100
AcDbEntity
  8
0
100
AcDbBlockBegin
  2
*MODEL_SPACE
 70
     0
 10
0.0
 20
0.0
 30
0.0
  3
*MODEL_SPACE
  1

  0
ENDBLK
  5
19E
100
AcDbEntity
  8
0
100
AcDbBlockEnd
  0
BLOCK
  5
19F
100
AcDbEntity
  8
0
100
AcDbBlockBegin
  2
*PAPER_SPACE
 70
     0
 10
0.0
 20
0.0
 30
0.0
  3
*PAPER_SPACE
  1

  0
ENDBLK
  5
1A0
100
AcDbEntity
  8
0
100
AcDbBlockEnd
  0
BLOCK
  5
1A1
100
AcDbEntity
  8
0
100
AcDbBlockBegin
  2
*PAPER_SPACE0
 70
     0
 10
0.0
 20
0.0
 30
0.0
  3
*PAPER_SPACE0
  1

  0
ENDBLK
  5
1A2
100
AcDbEntity
  8
0
100
AcDbBlockEnd
  0
BLOCK
  5
2
330
1
100
AcDbEntity
  8
0
100
AcDbBlockBegin
  2
_NONE
 70
     0
 10
0.0
 20
0.0
 30
0.0
  3
_NONE
  1

  0
ENDBLK
  5
3
330
1
100
AcDbEntity
  8
0
100
AcDbBlockEnd
  0
BLOCK
  5
5
330
4
100
AcDbEntity
  8
0
100
AcDbBlockBegin
  2
_CLOSED
 70
     0
 10
0.0
 20
0.0
 30
0.0
  3
_CLOSED
  1

  0
LINE
  5
6
330
4
100
AcDbEntity
  8
0
  6
BYBLOCK
 62
     0
370
    -2
100
AcDbLine
 10
-1.0
 20
0.166667
 30
0.0
 11
0.0
 21
0.0
 31
0.0
  0
LINE
  5
7
330
4
100
AcDbEntity
  8
0
  6
BYBLOCK
 62
     0
370
    -2
100
AcDbLine
 10
0.0
 20
0.0
 30
0.0
 11
-1.0
 21
-0.166667
 31
0.0
  0
LINE
  5
8
330
4
100
AcDbEntity
  8
0
  6
BYBLOCK
 62
     0
370
    -2
100
AcDbLine
 10
-1.0
 20
0.166667
 30
0.0
 11
-1.0
 21
-0.166667
 31
0.0
  0
LINE
  5
9
330
4
100
AcDbEntity
  8
0
  6
BYBLOCK
 62
     0
370
    -2
100
AcDbLine
 10
0.0
 20
0.0
 30
0.0
 11
-1.0
 21
0.0
 31
0.0
  0
ENDBLK
  5
A
330
4
100
AcDbEntity
  8
0
100
AcDbBlockEnd
  0
BLOCK
  5
C
330
B
100
AcDbEntity
  8
0
100
AcDbBlockBegin
  2
_DOT
 70
     0
 10
0.0
 20
0.0
 30
0.0
  3
_DOT
  1

  0
POLYLINE
  5
D
330
B
100
AcDbEntity
  8
0
  6
BYBLOCK
 62
     0
370
    -2
100
AcDb2dPolyline
 66
     1
 10
0.0
 20
0.0
 30
0.0
 70
     1
 40
0.5
 41
0.5
  0
VERTEX
  5
E
330
B
100
AcDbEntity
  8
0
  6
BYBLOCK
 62
     0
370
    -2
100
AcDbVertex
100
AcDb2dVertex
 10
-0.25
 20
0.0
 30
0.0
 42
1.0
  0
VERTEX
  5
F
330
B
100
AcDbEntity
  8
0
  6
BYBLOCK
 62
     0
370
    -2
100
AcDbVertex
100
AcDb2dVertex
 10
0.25
 20
0.0
 30
0.0
 42
1.0
  0
SEQEND
  5
10
330
B
100
AcDbEntity
  8
0
  6
BYBLOCK
 62
     0
370
    -2
  0
LINE
  5
11
330
B
100
AcDbEntity
  8
0
  6
BYBLOCK
 62
     0
370
    -2
100
AcDbLine
 10
-0.5
 20
0.0
 30
0.0
 11
-1.0
 21
0.0
 31
0.0
  0
ENDBLK
  5
12
330
B
100
AcDbEntity
  8
0
100
AcDbBlockEnd
  0
BLOCK
  5
14
330
13
100
AcDbEntity
  8
0
100
AcDbBlockBegin
  2
_OPEN
 70
     0
 10
0.0
 20
0.0
 30
0.0
  3
_OPEN
  1

  0
LINE
  5
15
330
13
100
AcDbEntity
  8
0
  6
BYBLOCK
 62
     0
370
    -2
100
AcDbLine
 10
-1.0
 20
0.166667
 30
0.0
 11
0.0
 21
0.0
 31
0.0
  0
LINE
  5
16
330
13
100
AcDbEntity
  8
0
  6
BYBLOCK
 62
     0
370
    -2
100
AcDbLine
 10
0.0
 20
0.0
 30
0.0
 11
-1.0
 21
-0.166667
 31
0.0
  0
LINE
  5
17
330
13
100
AcDbEntity
  8
0
  6
BYBLOCK
 62
     0
370
    -2
100
AcDbLine
 10
0.0
 20
0.0
 30
0.0
 11
-1.0
 21
0.0
 31
0.0
  0
ENDBLK
  5
18
330
13
100
AcDbEntity
  8
0
100
AcDbBlockEnd
  0
BLOCK
  5
1A
330
19
100
AcDbEntity
  8
0
100
AcDbBlockBegin
  2
_ORIGIN
 70
     0
 10
0.0
 20
0.0
 30
0.0
  3
_ORIGIN
  1

  0
CIRCLE
  5
1B
330
19
100
AcDbEntity
  8
0
  6
BYBLOCK
 62
     0
370
    -2
100
AcDbCircle
 10
0.0
 20
0.0
 30
0.0
 40
0.5
  0
LINE
  5
1C
330
19
100
AcDbEntity
  8
0
  6
BYBLOCK
 62
     0
370
    -2
100
AcDbLine
 10
0.0
 20
0.0
 30
0.0
 11
-1.0
 21
0.0
 31
0.0
  0
ENDBLK
  5
1D
330
19
100
AcDbEntity
  8
0
100
AcDbBlockEnd
  0
BLOCK
  5
1F
330
1E
100
AcDbEntity
  8
0
100
AcDbBlockBegin
  2
_OPEN30
 70
     0
 10
0.0
 20
0.0
 30
0.0
  3
_OPEN30
  1

  0
LINE
  5
20
330
1E
100
AcDbEntity
  8
0
  6
BYBLOCK
 62
     0
370
    -2
100
AcDbLine
 10
-1.0
 20
0.267949
 30
0.0
 11
0.0
 21
0.0
 31
0.0
  0
LINE
  5
21
330
1E
100
AcDbEntity
  8
0
  6
BYBLOCK
 62
     0
370
    -2
100
AcDbLine
 10
0.0
 20
0.0
 30
0.0
 11
-1.0
 21
-0.267949
 31
0.0
  0
LINE
  5
22
330
1E
100
AcDbEntity
  8
0
  6
BYBLOCK
 62
     0
370
    -2
100
AcDbLine
 10
0.0
 20
0.0
 30
0.0
 11
-1.0
 21
0.0
 31
0.0
  0
ENDBLK
  5
23
330
1E
100
AcDbEntity
  8
0
100
AcDbBlockEnd
  0
BLOCK
  5
25
330
24
100
AcDbEntity
  8
0
100
AcDbBlockBegin
  2
_BOXFILLED
 70
     0
 10
0.0
 20
0.0
 30
0.0
  3
_BOXFILLED
  1

  0
SOLID
  5
26
330
24
100
AcDbEntity
  8
0
  6
BYBLOCK
 62
     0
370
    -2
100
AcDbTrace
 10
-0.5
 20
0.5
 30
0.0
 11
0.5
 21
0.5
 31
0.0
 12
-0.5
 22
-0.5
 32
0.0
 13
0.5
 23
-0.5
 33
0.0
  0
LINE
  5
27
330
24
100
AcDbEntity
  8
0
  6
BYBLOCK
 62
     0
370
    -2
100
AcDbLine
 10
-0.5
 20
0.0
 30
0.0
 11
-1.0
 21
0.0
 31
0.0
  0
ENDBLK
  5
28
330
24
100
AcDbEntity
  8
0
100
AcDbBlockEnd
  0
BLOCK
  5
2A
330
29
100
AcDbEntity
  8
0
100
AcDbBlockBegin
  2
_BOXBLANK
 70
     0
 10
0.0
 20
0.0
 30
0.0
  3
_BOXBLANK
  1

  0
LINE
  5
2B
330
29
100
AcDbEntity
  8
0
  6
BYBLOCK
 62
     0
370
    -2
100
AcDbLine
 10
-0.5
 20
-0.5
 30
0.0
 11
0.5
 21
-0.5
 31
0.0
  0
LINE
  5
2C
330
29
100
AcDbEntity
  8
0
  6
BYBLOCK
 62
     0
370
    -2
100
AcDbLine
 10
0.5
 20
-0.5
 30
0.0
 11
0.5
 21
0.5
 31
0.0
  0
LINE
  5
2D
330
29
100
AcDbEntity
  8
0
  6
BYBLOCK
 62
     0
370
    -2
100
AcDbLine
 10
0.5
 20
0.5
 30
0.0
 11
-0.5
 21
0.5
 31
0.0
  0
LINE
  5
2E
330
29
100
AcDbEntity
  8
0
  6
BYBLOCK
 62
     0
370
    -2
100
AcDbLine
 10
-0.5
 20
0.5
 30
0.0
 11
-0.5
 21
-0.5
 31
0.0
  0
LINE
  5
2F
330
29
100
AcDbEntity
  8
0
  6
BYBLOCK
 62
     0
370
    -2
100
AcDbLine
 10
-0.5
 20
0.0
 30
0.0
 11
-1.0
 21
0.0
 31
0.0
  0
ENDBLK
  5
30
330
29
100
AcDbEntity
  8
0
100
AcDbBlockEnd
  0
BLOCK
  5
32
330
31
100
AcDbEntity
  8
0
100
AcDbBlockBegin
  2
_OBLIQUE
 70
     0
 10
0.0
 20
0.0
 30
0.0
  3
_OBLIQUE
  1

  0
LINE
  5
33
330
31
100
AcDbEntity
  8
0
  6
BYBLOCK
 62
     0
370
    -2
100
AcDbLine
 10
-0.5
 20
-0.5
 30
0.0
 11
0.5
 21
0.5
 31
0.0
  0
ENDBLK
  5
34
330
31
100
AcDbEntity
  8
0
100
AcDbBlockEnd
  0
BLOCK
  5
36
330
35
100
AcDbEntity
  8
0
100
AcDbBlockBegin
  2
_OPEN90
 70
     0
 10
0.0
 20
0.0
 30
0.0
  3
_OPEN90
  1

  0
LINE
  5
37
330
35
100
AcDbEntity
  8
0
  6
BYBLOCK
 62
     0
370
    -2
100
AcDbLine
 10
-0.5
 20
0.5
 30
0.0
 11
0.0
 21
0.0
 31
0.0
  0
LINE
  5
38
330
35
100
AcDbEntity
  8
0
  6
BYBLOCK
 62
     0
370
    -2
100
AcDbLine
 10
0.0
 20
0.0
 30
0.0
 11
-0.5
 21
-0.5
 31
0.0
  0
LINE
  5
39
330
35
100
AcDbEntity
  8
0
  6
BYBLOCK
 62
     0
370
    -2
100
AcDbLine
 10
0.0
 20
0.0
 30
0.0
 11
-1.0
 21
0.0
 31
0.0
  0
ENDBLK
  5
3A
330
35
100
AcDbEntity
  8
0
100
AcDbBlockEnd
  0
BLOCK
  5
3C
330
3B
100
AcDbEntity
  8
0
100
AcDbBlockBegin
  2
_CLOSEDBLANK
 70
     0
 10
0.0
 20
0.0
 30
0.0
  3
_CLOSEDBLANK
  1

  0
LINE
  5
3D
330
3B
100
AcDbEntity
  8
0
  6
BYBLOCK
 62
     0
370
    -2
100
AcDbLine
 10
-1.0
 20
0.1666666666666666
 30
0.0
 11
0.0
 21
0.0
 31
0.0
  0
LINE
  5
3E
330
3B
100
AcDbEntity
  8
0
  6
BYBLOCK
 62
     0
370
    -2
100
AcDbLine
 10
0.0
 20
0.0
 30
0.0
 11
-1.0
 21
-0.1666666666666666
 31
0.0
  0
LINE
  5
3F
330
3B
100
AcDbEntity
  8
0
  6
BYBLOCK
 62
     0
370
    -2
100
AcDbLine
 10
-1.0
 20
0.1666666666666666
 30
0.0
 11
-1.0
 21
-0.1666666666666666
 31
0.0
  0
ENDBLK
  5
40
330
3B
100
AcDbEntity
  8
0
100
AcDbBlockEnd
  0
BLOCK
  5
42
330
41
100
AcDbEntity
  8
0
100
AcDbBlockBegin
  2
_DOTBLANK
 70
     0
 10
0.0
 20
0.0
 30
0.0
  3
_DOTBLANK
  1

  0
CIRCLE
  5
43
330
41
100
AcDbEntity
  8
0
  6
BYBLOCK
 62
     0
370
    -2
100
AcDbCircle
 10
0.0
 20
0.0
 30
0.0
 40
0.5
  0
LINE
  5
44
330
41
100
AcDbEntity
  8
0
  6
BYBLOCK
 62
     0
370
    -2
100
AcDbLine
 10
-0.5
 20
0.0
 30
0.0
 11
-1.0
 21
0.0
 31
0.0
  0
ENDBLK
  5
45
330
41
100
AcDbEntity
  8
0
100
AcDbBlockEnd
  0
ENDSEC
  0
SECTION
  2
ENTITIES
  0
MTEXT
  5
46
100
AcDbEntity
  8
A8
  6
CONTINUOUS
 62
3
100
AcDbMText
 10
9.999997526638502
 20
18.00000076076889
 30
0.000000000000000
 40
3.000000000000000
 41
0.000000000000000
 44
0.6739999771118164
 71
     7
 72
     1
  1
{\H0.94x;{TYPE No.TM-378E-16}}
 11
1.000000000000000
 21
0.000000000000000
 31
0.000000000000000
  7
STANDARD
  0
POINT
  5
47
100
AcDbEntity
  8
A0
  6
CONTINUOUS
 62
3
100
AcDbPoint
 10
9.999997526638502
 20
18.00000076076889
 30
0.000000000000000
  0
SPLINE
  5
48
100
AcDbEntity
  8
A1
  6
CONTINUOUS
 62
7
100
AcDbSpline
210
0.000000000000000
220
0.000000000000000
230
1.000000000000000
 70
     8
 71
     3
 72
    11
 73
     7
 74
     0
 42
1.000000000000000e-07
 43
1.000000000000000e-07
 12
-0.8243239903968060
 22
-0.5661183258562232
 32
0.000000000000000
 13
0.01039795576980396
 23
-0.9999459397977262
 33
0.000000000000000
 40
0.000000000000000
 40
0.000000000000000
 40
0.000000000000000
 40
0.000000000000000
 40
0.03379741434396310
 40
0.1082274051015895
 40
0.2407267954020612
 40
0.4307723479019935
 40
0.4307723479019935
 40
0.4307723479019935
 40
0.4307723479019935
 10
458.7953675772582
 20
105.6003429109539
 30
0.000000000000000
 10
458.7860809041058
 20
105.5939651324117
 30
0.000000000000000
 10
458.7575104246833
 20
105.5683256290436
 30
0.000000000000000
 10
458.7640926176607
 20
105.4805396388703
 30
0.000000000000000
 10
458.7559212860803
 20
105.3527439407025
 30
0.000000000000000
 10
458.7576714664131
 20
105.2436880038766
 30
0.000000000000000
 10
458.7583301614962
 20
105.1803429110103
 30
0.000000000000000
  0
SPLINE
  5
49
100
AcDbEntity
  8
A1
  6
CONTINUOUS
 62
7
100
AcDbSpline
210
0.000000000000000
220
0.000000000000000
230
1.000000000000000
 70
     8
 71
     3
 72
    19
 73
    15
 74
     0
 42
1.000000000000000e-07
 43
1.000000000000000e-07
 12
0.9771582111716270
 22
0.2125131297307234
 32
0.000000000000000
 13
0.9999990834721757
 23
0.001353904114353099
 33
0.000000000000000
 40
0.000000000000000
 40
0.000000000000000
 40
0.000000000000000
 40
0.000000000000000
 40
0.01987916097022160
 40
0.1081873548124166
 40
0.1803980812258049
 40
0.2720195744910568
 40
0.4629848704361573
 40
0.7050456709827376
 40
0.9581915100138023
 40
1.239982642070538
 40
1.559739519563008
 40
1.898168540833194
 40
2.267010472578602
 40
2.648452596355729
 40
2.648452596355729
 40
2.648452596355729
 40
2.648452596355729
 10
458.7954184735284
 20
73.50034296797450
 30
0.000000000000000
 10
458.8018935019862
 20
73.50175116221256
 30
0.000000000000000
 10
458.8371109686776
 20
73.51120945243416
 30
0.000000000000000
 10
458.8803524997214
 20
73.55729350540673
 30
0.000000000000000
 10
458.9429020489661
 20
73.61208627145950
 30
0.000000000000000
 10
459.0296388227721
 20
73.69301873303235
 30
0.000000000000000
 10
459.1618909570677
 20
73.80724942473529
 30
0.000000000000000
 10
459.3433794534491
 20
73.94687070143331
 30
0.000000000000000
 10
459.5598040340365
 20
74.08953764023896
 30
0.000000000000000
 10
459.8095660273462
 20
74.22729954009901
 30
0.000000000000000
 10
460.0970339306144
 20
74.35321971769255
 30
0.000000000000000
 10
460.4237746702575
 20
74.45762142171867
 30
0.000000000000000
 10
460.7807796797996
 20
74.52761726808410
 30
0.000000000000000
 10
461.0311829034380
 20
74.54385221900185
 30
0.000000000000000
 10
461.1583301614962
 20
74.54402436435544
 30
0.000000000000000
  0
SPLINE
  5
4A
100
AcDbEntity
  8
A1
  6
CONTINUOUS
 62
7
100
AcDbSpline
210
0.000000000000000
220
0.000000000000000
230
1.000000000000000
 70
     8
 71
     3
 72
    11
 73
     7
 74
     0
 42
1.000000000000000e-07
 43
1.000000000000000e-07
 12
-0.01266092020705401
 22
-0.9999198473376509
 32
0.000000000000000
 13
0.9150419199286262
 23
-0.4033587544327020
 33
0.000000000000000
 40
0.000000000000000
 40
0.000000000000000
 40
0.000000000000000
 40
0.000000000000000
 40
0.1956995530114239
 40
0.3354706351461882
 40
0.4090748976002332
 40
0.4318826814911070
 40
0.4318826814911070
 40
0.4318826814911070
 40
0.4318826814911070
 10
458.7583301614962
 20
73.92034291101064
 30
0.000000000000000
 10
458.7575042493545
 20
73.85511495528689
 30
0.000000000000000
 10
458.7556135540142
 20
73.74036256644570
 30
0.000000000000000
 10
458.7649586652367
 20
73.61265897137193
 30
0.000000000000000
 10
458.7588518398132
 20
73.52064374857898
 30
0.000000000000000
 10
458.7884617807415
 20
73.50340954107503
 30
0.000000000000000
 10
458.7954184735284
 20
73.50034296797450
 30
0.000000000000000
  0
SPLINE
  5
4B
100
AcDbEntity
  8
A1
  6
CONTINUOUS
 62
7
100
AcDbSpline
210
0.000000000000000
220
0.000000000000000
230
1.000000000000000
 70
     8
 71
     3
 72
    17
 73
    13
 74
     0
 42
1.000000000000000e-07
 43
1.000000000000000e-07
 12
-0.9999996484093572
 22
-0.0008385594563833365
 32
0.000000000000000
 13
-0.05245907459539012
 23
-0.9986230747847458
 33
0.000000000000000
 40
0.000000000000000
 40
0.000000000000000
 40
0.000000000000000
 40
0.000000000000000
 40
0.3968913951221020
 40
0.8013746514980480
 40
1.186311545886125
 40
1.568137433568957
 40
1.911511082641187
 40
2.235185675936038
 40
2.495783162693501
 40
2.723096174272601
 40
2.907629626462607
 40
3.053171907128311
 40
3.053171907128311
 40
3.053171907128311
 40
3.053171907128311
 10
461.1583301614962
 20
73.63981199991872
 30
0.000000000000000
 10
461.0260330763033
 20
73.63970106090787
 30
0.000000000000000
 10
460.7585575406440
 20
73.62157607436046
 30
0.000000000000000
 10
460.3702700339782
 20
73.54046744983677
 30
0.000000000000000
 10
460.0011707193878
 20
73.40986043923394
 30
0.000000000000000
 10
459.6704743789573
 20
73.24139358312317
 30
0.000000000000000
 10
459.3810185013958
 20
73.04367658744150
 30
0.000000000000000
 10
459.1494599019042
 20
72.83740104771842
 30
0.000000000000000
 10
458.9722177605127
 20
72.63183267919315
 30
0.000000000000000
 10
458.8515563909011
 20
72.44223600327203
 30
0.000000000000000
 10
458.7767596054689
 20
72.27037146040610
 30
0.000000000000000
 10
458.7608751659490
 20
72.16036547541370
 30
0.000000000000000
 10
458.7583301614962
 20
72.11191818213717
 30
0.000000000000000
  0
SPLINE
  5
4C
100
AcDbEntity
  8
A1
  6
CONTINUOUS
 62
7
100
AcDbSpline
210
0.000000000000000
220
0.000000000000000
230
1.000000000000000
 70
     8
 71
     3
 72
    18
 73
    14
 74
     0
 42
1.000000000000000e-07
 43
1.000000000000000e-07
 12
-0.9915215752721451
 22
0.001532013729274695
 32
0.000000000000000
 13
-0.7272336505338899
 23
0.0008896256822481519
 33
0.000000000000000
 40
0.000000000000000
 40
0.000000000000000
 40
0.000000000000000
 40
0.000000000000000
 40
0.3980447302610887
 40
0.7920082721832763
 40
1.179415474850064
 40
1.539494697198672
 40
1.822420753268857
 40
2.025725131227409
 40
2.187521156170561
 40
2.348461167012253
 40
2.495450867250014
 40
2.588489918421261
 40
2.654816964259433
 40
2.654816964259433
 40
2.654816964259433
 40
2.654816964259433
 10
461.1583301614962
 20
104.5566614576655
 30
0.000000000000000
 10
461.0267735155038
 20
104.5568647276627
 30
0.000000000000000
 10
460.7608816892375
 20
104.5746791062575
 30
0.000000000000000
 10
460.3750662406230
 20
104.6543892811053
 30
0.000000000000000
 10
460.0087155182209
 20
104.7803713785381
 30
0.000000000000000
 10
459.6843447712837
 20
104.9367064830367
 30
0.000000000000000
 10
459.4435930293343
 20
105.0853192414115
 30
0.000000000000000
 10
459.2783673481163
 20
105.2037808147724
 30
0.000000000000000
 10
459.1508963569535
 20
105.3034256846825
 30
0.000000000000000
 10
459.0286807237337
 20
105.4081397051687
 30
0.000000000000000
 10
458.9213849201108
 20
105.5086065280552
 30
0.000000000000000
 10
458.8517248893879
 20
105.5702810378833
 30
0.000000000000000
 10
458.8114459971496
 20
105.6003232422061
 30
0.000000000000000
 10
458.7953675772582
 20
105.6003429109539
 30
0.000000000000000
  0
SPLINE
  5
4D
100
AcDbEntity
  8
A1
  6
CONTINUOUS
 62
7
100
AcDbSpline
210
0.000000000000000
220
0.000000000000000
230
1.000000000000000
 70
     8
 71
     3
 72
    17
 73
    13
 74
     0
 42
1.000000000000000e-07
 43
1.000000000000000e-07
 12
0.05376351621998765
 22
-0.9985536962662991
 32
0.000000000000000
 13
0.9999994920972313
 23
-0.001007872110108110
 33
0.000000000000000
 40
0.000000000000000
 40
0.000000000000000
 40
0.000000000000000
 40
0.000000000000000
 40
0.1461149349531246
 40
0.3425019032556449
 40
0.5820785746847505
 40
0.8765888642840058
 40
1.172789017142223
 40
1.503017253887931
 40
1.847884966162810
 40
2.214448730510632
 40
2.625025399339401
 40
3.053137083773656
 40
3.053137083773656
 40
3.053137083773656
 40
3.053137083773656
 10
458.7583301614962
 20
106.9887676398838
 30
0.000000000000000
 10
458.7609487123880
 20
106.9401331037581
 30
0.000000000000000
 10
458.7774540604849
 20
106.8259967302468
 30
0.000000000000000
 10
458.8571694464169
 20
106.6470080735918
 30
0.000000000000000
 10
458.9908661862557
 20
106.4427630956336
 30
0.000000000000000
 10
459.1768328093433
 20
106.2362494793269
 30
0.000000000000000
 10
459.4101257771490
 20
106.0357416015211
 30
0.000000000000000
 10
459.6797620519450
 20
105.8550510493329
 30
0.000000000000000
 10
459.9898268041306
 20
105.6969887792023
 30
0.000000000000000
 10
460.3421091117880
 20
105.5685197796816
 30
0.000000000000000
 10
460.7356235675818
 20
105.4814714685372
 30
0.000000000000000
 10
461.0156263391645
 20
105.4610176493778
 30
0.000000000000000
 10
461.1583301614962
 20
105.4608738221022
 30
0.000000000000000
  0
ARC
  5
4E
100
AcDbEntity
  8
A1
  6
CONTINUOUS
 62
7
100
AcDbCircle
 10
864.6583301614961
 20
76.75034291101082
 30
0.000000000000000
 40
1.300000000000036
100
AcDbArc
 50
90.00000000000000
 51
205.0289994876213
  0
ARC
  5
4F
100
AcDbEntity
  8
A1
  6
CONTINUOUS
 62
7
100
AcDbCircle
 10
864.6583301614961
 20
102.3503429110102
 30
0.000000000000000
 40
1.300000000000036
100
AcDbArc
 50
154.9710005123787
 51
270.0000000000000
  0
ARC
  5
50
100
AcDbEntity
  8
A1
  6
CONTINUOUS
 62
7
100
AcDbCircle
 10
725.0583301614961
 20
89.55034291101050
 30
0.000000000000000
 40
2.250000000000000
100
AcDbArc
 50
90.00000000000000
 51
270.0000000000000
  0
ARC
  5
51
100
AcDbEntity
  8
A1
  6
CONTINUOUS
 62
7
100
AcDbCircle
 10
725.8583301614962
 20
89.55034291101055
 30
0.000000000000000
 40
2.250000000000000
100
AcDbArc
 50
270.0000000000000
 51
450.0000000000000
  0
ARC
  5
52
100
AcDbEntity
  8
A1
  6
CONTINUOUS
 62
7
100
AcDbCircle
 10
849.2583301614961
 20
89.95034291101055
 30
0.000000000000000
 40
2.250000000000030
100
AcDbArc
 50
0.000000000000000
 51
179.9999999999986
  0
ARC
  5
53
100
AcDbEntity
  8
A1
  6
CONTINUOUS
 62
7
100
AcDbCircle
 10
849.2583301614961
 20
89.15034291101060
 30
0.000000000000000
 40
2.250000000000030
100
AcDbArc
 50
180.0000000000040
 51
360.0000000000001
  0
ARC
  5
54
100
AcDbEntity
  8
A1
  6
CONTINUOUS
 62
7
100
AcDbCircle
 10
836.5583301614961
 20
89.95034291101055
 30
0.000000000000000
 40
2.250000000000000
100
AcDbArc
 50
0.000000000000000
 51
179.9999999999986
  0
ARC
  5
55
100
AcDbEntity
  8
A1
  6
CONTINUOUS
 62
7
100
AcDbCircle
 10
836.5583301614961
 20
89.15034291101060
 30
0.000000000000000
 40
2.250000000000000
100
AcDbArc
 50
180.0000000000040
 51
360.0000000000000
  0
ARC
  5
56
100
AcDbEntity
  8
A1
  6
CONTINUOUS
 62
7
100
AcDbCircle
 10
864.6583301614961
 20
76.75034291101082
 30
0.000000000000000
 40
1.300000000000035
100
AcDbArc
 50
205.0289994876213
 51
234.6052701336991
  0
ARC
  5
57
100
AcDbEntity
  8
A1
  6
CONTINUOUS
 62
7
100
AcDbCircle
 10
864.6583301614961
 20
102.3503429110102
 30
0.000000000000000
 40
1.300000000000035
100
AcDbArc
 50
125.3947298663009
 51
154.9710005123787
  0
LINE
  5
58
100
AcDbEntity
  8
A1
  6
CONTINUOUS
 62
7
100
AcDbLine
 10
458.7583301614962
 20
77.42525031714882
 30
0.000000000000000
 11
458.7583301614962
 21
76.20034291101047
 31
0.000000000000000
  0
LINE
  5
59
100
AcDbEntity
  8
A1
  6
CONTINUOUS
 62
7
100
AcDbLine
 10
458.7583301614962
 20
102.9003429110101
 30
0.000000000000000
 11
458.7583301614962
 21
101.6754355048721
 31
0.000000000000000
  0
LINE
  5
5A
100
AcDbEntity
  8
A1
  6
CONTINUOUS
 62
7
100
AcDbLine
 10
725.0583301614960
 20
87.30034291101047
 30
0.000000000000000
 11
725.8583301614960
 21
87.30034291101053
 31
0.000000000000000
  0
LINE
  5
5B
100
AcDbEntity
  8
A1
  6
CONTINUOUS
 62
7
100
AcDbLine
 10
725.8583301614962
 20
91.80034291101049
 30
0.000000000000000
 11
725.0583301614961
 21
91.80034291101049
 31
0.000000000000000
  0
LINE
  5
5C
100
AcDbEntity
  8
A1
  6
CONTINUOUS
 62
7
100
AcDbLine
 10
847.0083301614961
 20
89.95034291101061
 30
0.000000000000000
 11
847.0083301614961
 21
89.15034291101045
 31
0.000000000000000
  0
LINE
  5
5D
100
AcDbEntity
  8
A1
  6
CONTINUOUS
 62
7
100
AcDbLine
 10
851.5083301614961
 20
89.15034291101060
 30
0.000000000000000
 11
851.5083301614961
 21
89.95034291101055
 31
0.000000000000000
  0
LINE
  5
5E
100
AcDbEntity
  8
A1
  6
CONTINUOUS
 62
7
100
AcDbLine
 10
834.3083301614961
 20
89.95034291101061
 30
0.000000000000000
 11
834.3083301614961
 21
89.15034291101045
 31
0.000000000000000
  0
LINE
  5
5F
100
AcDbEntity
  8
A1
  6
CONTINUOUS
 62
7
100
AcDbLine
 10
838.8083301614961
 20
89.15034291101060
 30
0.000000000000000
 11
838.8083301614961
 21
89.95034291101055
 31
0.000000000000000
  0
LINE
  5
60
100
AcDbEntity
  8
A1
  6
CONTINUOUS
 62
7
100
AcDbLine
 10
865.1583301614961
 20
74.54402436435552
 30
0.000000000000000
 11
865.1583301614961
 21
74.80034291101052
 31
0.000000000000000
  0
LINE
  5
61
100
AcDbEntity
  8
A1
  6
CONTINUOUS
 62
7
100
AcDbLine
 10
458.7583301614962
 20
76.20034291101047
 30
0.000000000000000
 11
458.7583301614962
 21
74.20079219902912
 31
0.000000000000000
  0
LINE
  5
62
100
AcDbEntity
  8
A1
  6
CONTINUOUS
 62
7
100
AcDbLine
 10
863.4804082625575
 20
76.20034291101089
 30
0.000000000000000
 11
458.7583301614962
 21
76.20034291101047
 31
0.000000000000000
  0
LINE
  5
63
100
AcDbEntity
  8
A1
  6
CONTINUOUS
 62
7
100
AcDbLine
 10
865.1583301614962
 20
74.80034291101055
 30
0.000000000000000
 11
863.9053621099831
 21
75.69060751318739
 31
0.000000000000000
  0
LINE
  5
64
100
AcDbEntity
  8
A1
  6
CONTINUOUS
 62
7
100
AcDbLine
 10
865.1583301614961
 20
104.5566614576655
 30
0.000000000000000
 11
865.1583301614961
 21
104.3003429110105
 31
0.000000000000000
  0
LINE
  5
65
100
AcDbEntity
  8
A1
  6
CONTINUOUS
 62
7
100
AcDbLine
 10
458.7583301614962
 20
104.8998936229919
 30
0.000000000000000
 11
458.7583301614962
 21
102.9003429110101
 31
0.000000000000000
  0
LINE
  5
66
100
AcDbEntity
  8
A1
  6
CONTINUOUS
 62
7
100
AcDbLine
 10
863.4804082625576
 20
102.9003429110102
 30
0.000000000000000
 11
458.7583301614962
 21
102.9003429110102
 31
0.000000000000000
  0
LINE
  5
67
100
AcDbEntity
  8
A1
  6
CONTINUOUS
 62
7
100
AcDbLine
 10
863.9053621099830
 20
103.4100783088337
 30
0.000000000000000
 11
865.1583301614962
 21
104.3003429110105
 31
0.000000000000000
  0
LINE
  5
68
100
AcDbEntity
  8
A1
  6
CONTINUOUS
 62
7
100
AcDbLine
 10
458.7583301614962
 20
105.1803429110104
 30
0.000000000000000
 11
458.7583301614962
 21
104.8998936229919
 31
0.000000000000000
  0
LINE
  5
69
100
AcDbEntity
  8
A1
  6
CONTINUOUS
 62
7
100
AcDbLine
 10
459.7771102912605
 20
104.8998936229919
 30
0.000000000000000
 11
458.7583301614962
 21
104.8998936229919
 31
0.000000000000000
  0
LINE
  5
6A
100
AcDbEntity
  8
A1
  6
CONTINUOUS
 62
7
100
AcDbLine
 10
458.7583301614962
 20
74.20079219902911
 30
0.000000000000000
 11
458.7583301614962
 21
73.92034291101058
 31
0.000000000000000
  0
LINE
  5
6B
100
AcDbEntity
  8
A1
  6
CONTINUOUS
 62
7
100
AcDbLine
 10
459.7697863649630
 20
74.20079219902902
 30
0.000000000000000
 11
458.7583301614961
 21
74.20079219902912
 31
0.000000000000000
  0
LINE
  5
6C
100
AcDbEntity
  8
A1
  6
CONTINUOUS
 62
7
100
AcDbLine
 10
863.5583301614961
 20
78.05034291101120
 30
0.000000000000000
 11
863.5583301614961
 21
80.05034291101120
 31
0.000000000000000
  0
LINE
  5
6D
100
AcDbEntity
  8
A1
  6
CONTINUOUS
 62
7
100
AcDbLine
 10
865.1583301614961
 20
80.05034291101067
 30
0.000000000000000
 11
865.1583301614961
 21
78.05034291101067
 31
0.000000000000000
  0
LINE
  5
6E
100
AcDbEntity
  8
A1
  6
CONTINUOUS
 62
7
100
AcDbLine
 10
865.1583301614961
 20
78.05034291101067
 30
0.000000000000000
 11
863.5583301614961
 21
78.05034291101072
 31
0.000000000000000
  0
LINE
  5
6F
100
AcDbEntity
  8
A1
  6
CONTINUOUS
 62
7
100
AcDbLine
 10
863.5583301614961
 20
99.05034291100984
 30
0.000000000000000
 11
863.5583301614961
 21
101.0503429110098
 31
0.000000000000000
  0
LINE
  5
70
100
AcDbEntity
  8
A1
  6
CONTINUOUS
 62
7
100
AcDbLine
 10
865.1583301614961
 20
101.0503429110104
 30
0.000000000000000
 11
865.1583301614961
 21
99.05034291101038
 31
0.000000000000000
  0
LINE
  5
71
100
AcDbEntity
  8
A1
  6
CONTINUOUS
 62
7
100
AcDbLine
 10
863.5583301614961
 20
101.0503429110104
 30
0.000000000000000
 11
865.1583301614961
 21
101.0503429110104
 31
0.000000000000000
  0
LINE
  5
72
100
AcDbEntity
  8
A1
  6
CONTINUOUS
 62
7
100
AcDbLine
 10
863.5583301614961
 20
99.05034291100984
 30
0.000000000000000
 11
863.5583301614961
 21
80.05034291101120
 31
0.000000000000000
  0
LINE
  5
73
100
AcDbEntity
  8
A1
  6
CONTINUOUS
 62
7
100
AcDbLine
 10
863.5583301614961
 20
80.05034291101120
 30
0.000000000000000
 11
865.1583301614961
 21
80.05034291101067
 31
0.000000000000000
  0
LINE
  5
74
100
AcDbEntity
  8
A1
  6
CONTINUOUS
 62
7
100
AcDbLine
 10
865.1583301614961
 20
80.05034291101067
 30
0.000000000000000
 11
865.1583301614961
 21
99.05034291101038
 31
0.000000000000000
  0
LINE
  5
75
100
AcDbEntity
  8
A1
  6
CONTINUOUS
 62
7
100
AcDbLine
 10
865.1583301614961
 20
99.05034291101038
 30
0.000000000000000
 11
863.5583301614961
 21
99.05034291100984
 31
0.000000000000000
  0
LINE
  5
76
100
AcDbEntity
  8
A1
  6
CONTINUOUS
 62
7
100
AcDbLine
 10
865.1583301614961
 20
74.54402436435552
 30
0.000000000000000
 11
461.1583301614962
 21
74.54402436435548
 31
0.000000000000000
  0
LINE
  5
77
100
AcDbEntity
  8
A1
  6
CONTINUOUS
 62
7
100
AcDbLine
 10
865.1583301614961
 20
73.63981199991876
 30
0.000000000000000
 11
865.1583301614961
 21
74.54402436435552
 31
0.000000000000000
  0
LINE
  5
78
100
AcDbEntity
  8
A1
  6
CONTINUOUS
 62
7
100
AcDbLine
 10
865.1583301614961
 20
105.4608738221023
 30
0.000000000000000
 11
865.1583301614961
 21
104.5566614576655
 31
0.000000000000000
  0
LINE
  5
79
100
AcDbEntity
  8
A1
  6
CONTINUOUS
 62
7
100
AcDbLine
 10
865.1583301614961
 20
104.5566614576655
 30
0.000000000000000
 11
461.1583301614962
 21
104.5566614576655
 31
0.000000000000000
  0
LINE
  5
7A
100
AcDbEntity
  8
A1
  6
CONTINUOUS
 62
7
100
AcDbLine
 10
865.1583301614961
 20
73.63981199991876
 30
0.000000000000000
 11
461.1583301614962
 21
73.63981199991872
 31
0.000000000000000
  0
LINE
  5
7B
100
AcDbEntity
  8
A1
  6
CONTINUOUS
 62
7
100
AcDbLine
 10
458.7583301614962
 20
72.11191818213719
 30
0.000000000000000
 11
458.7583301614962
 21
71.90034291101040
 31
0.000000000000000
  0
LINE
  5
7C
100
AcDbEntity
  8
A1
  6
CONTINUOUS
 62
7
100
AcDbLine
 10
458.7583301614962
 20
71.90034291101038
 30
0.000000000000000
 11
865.1583301614961
 21
71.90034291101044
 31
0.000000000000000
  0
LINE
  5
7D
100
AcDbEntity
  8
A1
  6
CONTINUOUS
 62
7
100
AcDbLine
 10
865.1583301614961
 20
71.90034291101043
 30
0.000000000000000
 11
865.1583301614961
 21
73.63981199991876
 31
0.000000000000000
  0
LINE
  5
7E
100
AcDbEntity
  8
A1
  6
CONTINUOUS
 62
7
100
AcDbLine
 10
458.7583301614962
 20
72.11191818213717
 30
0.000000000000000
 11
458.7583301614962
 21
73.92034291101058
 31
0.000000000000000
  0
LINE
  5
7F
100
AcDbEntity
  8
A1
  6
CONTINUOUS
 62
7
100
AcDbLine
 10
461.1583301614962
 20
74.54402436435548
 30
0.000000000000000
 11
461.1583301614962
 21
73.63981199991872
 31
0.000000000000000
  0
LINE
  5
80
100
AcDbEntity
  8
A1
  6
CONTINUOUS
 62
7
100
AcDbLine
 10
458.7583301614962
 20
105.1803429110104
 30
0.000000000000000
 11
458.7583301614962
 21
106.9887676398838
 31
0.000000000000000
  0
LINE
  5
81
100
AcDbEntity
  8
A1
  6
CONTINUOUS
 62
7
100
AcDbLine
 10
461.1583301614962
 20
105.4608738221022
 30
0.000000000000000
 11
461.1583301614962
 21
104.5566614576655
 31
0.000000000000000
  0
LINE
  5
82
100
AcDbEntity
  8
A1
  6
CONTINUOUS
 62
7
100
AcDbLine
 10
865.1583301614961
 20
105.4608738221023
 30
0.000000000000000
 11
461.1583301614962
 21
105.4608738221022
 31
0.000000000000000
  0
LINE
  5
83
100
AcDbEntity
  8
A1
  6
CONTINUOUS
 62
7
100
AcDbLine
 10
865.1583301614961
 20
107.2003429110106
 30
0.000000000000000
 11
458.7583301614962
 21
107.2003429110106
 31
0.000000000000000
  0
LINE
  5
84
100
AcDbEntity
  8
A1
  6
CONTINUOUS
 62
7
100
AcDbLine
 10
458.7583301614962
 20
107.2003429110106
 30
0.000000000000000
 11
458.7583301614962
 21
106.9887676398837
 31
0.000000000000000
  0
LINE
  5
85
100
AcDbEntity
  8
A1
  6
CONTINUOUS
 62
7
100
AcDbLine
 10
865.1583301614961
 20
107.2003429110106
 30
0.000000000000000
 11
865.1583301614961
 21
105.4608738221023
 31
0.000000000000000
  0
CIRCLE
  5
86
100
AcDbEntity
  8
A1
  6
CONTINUOUS
 62
7
100
AcDbCircle
 10
382.1083301614962
 20
89.55034291101018
 30
0.000000000000000
 40
1.200000000000000
  0
ARC
  5
87
100
AcDbEntity
  8
A1
  6
CONTINUOUS
 62
7
100
AcDbCircle
 10
378.1083301614960
 20
91.25034197224345
 30
0.000000000000000
 40
0.7000000000000000
100
AcDbArc
 50
238.7541664501545
 51
270.1326981011920
  0
ARC
  5
88
100
AcDbEntity
  8
A1
  6
CONTINUOUS
 62
7
100
AcDbCircle
 10
386.1083301614962
 20
91.25034197224355
 30
0.000000000000000
 40
0.7000000000000000
100
AcDbArc
 50
269.8673018988091
 51
301.2458335498429
  0
ARC
  5
89
100
AcDbEntity
  8
A1
  6
CONTINUOUS
 62
7
100
AcDbCircle
 10
386.1083301614962
 20
87.85034384977685
 30
0.000000000000000
 40
0.7000000000000000
100
AcDbArc
 50
58.75416645015566
 51
90.00000000000000
  0
ARC
  5
8A
100
AcDbEntity
  8
A1
  6
CONTINUOUS
 62
7
100
AcDbCircle
 10
378.1083301614960
 20
87.85034384977698
 30
0.000000000000000
 40
0.7000000000000000
100
AcDbArc
 50
90.00000000000000
 51
121.2458335498480
  0
ARC
  5
8B
100
AcDbEntity
  8
A1
  6
CONTINUOUS
 62
7
100
AcDbCircle
 10
384.3331897078632
 20
91.25034384962426
 30
0.000000000000000
 40
0.7000000000014542
100
AcDbArc
 50
217.3831984098576
 51
270.0000000000000
  0
ARC
  5
8C
100
AcDbEntity
  8
A1
  6
CONTINUOUS
 62
7
100
AcDbCircle
 10
382.1083301614962
 20
89.55034384993276
 30
0.000000000000000
 40
2.099999999999949
100
AcDbArc
 50
37.38319840989787
 51
142.6168015901012
  0
ARC
  5
8D
100
AcDbEntity
  8
A1
  6
CONTINUOUS
 62
7
100
AcDbCircle
 10
379.8834706151302
 20
91.25034384962426
 30
0.000000000000000
 40
0.7000000000014096
100
AcDbArc
 50
270.0000000000745
 51
322.6168015900902
  0
ARC
  5
8E
100
AcDbEntity
  8
A1
  6
CONTINUOUS
 62
7
100
AcDbCircle
 10
379.8834706151302
 20
87.85034384977557
 30
0.000000000000000
 40
0.7000000000013981
100
AcDbArc
 50
37.38319841748397
 51
90.00000000000000
  0
ARC
  5
8F
100
AcDbEntity
  8
A1
  6
CONTINUOUS
 62
7
100
AcDbCircle
 10
382.1083301614962
 20
89.55034384993276
 30
0.000000000000000
 40
2.100000000282682
100
AcDbArc
 50
217.3831984174700
 51
322.6168015825432
  0
ARC
  5
90
100
AcDbEntity
  8
A1
  6
CONTINUOUS
 62
7
100
AcDbCircle
 10
384.3331897078632
 20
87.85034384977557
 30
0.000000000000000
 40
0.7000000000014097
100
AcDbArc
 50
90.00000000000000
 51
142.6168015825316
  0
ARC
  5
91
100
AcDbEntity
  8
A1
  6
CONTINUOUS
 62
7
100
AcDbCircle
 10
31.25833016149738
 20
76.75034291100894
 30
0.000000000000000
 40
1.299999999997775
100
AcDbArc
 50
305.3947298662958
 51
334.9710005124176
  0
ARC
  5
92
100
AcDbEntity
  8
A1
  6
CONTINUOUS
 62
7
100
AcDbCircle
 10
31.25833016149608
 20
102.3503429110088
 30
0.000000000000000
 40
1.299999999998901
100
AcDbArc
 50
270.0000000000025
 51
327.7957724961113
  0
ARC
  5
93
100
AcDbEntity
  8
A1
  6
CONTINUOUS
 62
7
100
AcDbCircle
 10
31.25833016149599
 20
76.75034291101150
 30
0.000000000000000
 40
1.299999999999016
100
AcDbArc
 50
32.20422750389191
 51
89.99999999999501
  0
ARC
  5
94
100
AcDbEntity
  8
A1
  6
CONTINUOUS
 62
7
100
AcDbCircle
 10
31.25833016149537
 20
102.3503429110098
 30
0.000000000000000
 40
1.300000000000249
100
AcDbArc
 50
25.02899948761033
 51
54.60527013367427
  0
ARC
  5
95
100
AcDbEntity
  8
A1
  6
CONTINUOUS
 62
7
100
AcDbCircle
 10
31.25833016149619
 20
102.3503429110099
 30
0.000000000000000
 40
1.300000000000036
100
AcDbArc
 50
327.7957724960677
 51
385.0289994876214
  0
ARC
  5
96
100
AcDbEntity
  8
A1
  6
CONTINUOUS
 62
7
100
AcDbCircle
 10
31.25833016149619
 20
76.75034291101051
 30
0.000000000000000
 40
1.300000000000036
100
AcDbArc
 50
334.9710005123787
 51
392.2042275039323
  0
ARC
  5
97
100
AcDbEntity
  8
A1
  6
CONTINUOUS
 62
7
100
AcDbCircle
 10
421.2583301614962
 20
89.95034291101024
 30
0.000000000000000
 40
2.250000000000000
100
AcDbArc
 50
0.000000000000000
 51
180.0000000000000
  0
ARC
  5
98
100
AcDbEntity
  8
A1
  6
CONTINUOUS
 62
7
100
AcDbCircle
 10
421.2583301614962
 20
89.15034291101026
 30
0.000000000000000
 40
2.250000000000000
100
AcDbArc
 50
180.0000000000000
 51
360.0000000000000
  0
ARC
  5
99
100
AcDbEntity
  8
A1
  6
CONTINUOUS
 62
7
100
AcDbCircle
 10
408.5583301614962
 20
89.95034291101024
 30
0.000000000000000
 40
2.250000000000000
100
AcDbArc
 50
0.000000000000000
 51
180.0000000000000
  0
ARC
  5
9A
100
AcDbEntity
  8
A1
  6
CONTINUOUS
 62
7
100
AcDbCircle
 10
408.5583301614962
 20
89.15034291101023
 30
0.000000000000000
 40
2.250000000000000
100
AcDbArc
 50
180.0000000000000
 51
360.0000000000000
  0
ARC
  5
9B
100
AcDbEntity
  8
A1
  6
CONTINUOUS
 62
7
100
AcDbCircle
 10
59.35833016149608
 20
89.95034291101021
 30
0.000000000000000
 40
2.250000000000000
100
AcDbArc
 50
1.424900000000000e-12
 51
180.0000000000000
  0
ARC
  5
9C
100
AcDbEntity
  8
A1
  6
CONTINUOUS
 62
7
100
AcDbCircle
 10
59.35833016149608
 20
89.15034291101028
 30
0.000000000000000
 40
2.250000000000000
100
AcDbArc
 50
180.0000000000000
 51
359.9999999999960
  0
ARC
  5
9D
100
AcDbEntity
  8
A1
  6
CONTINUOUS
 62
7
100
AcDbCircle
 10
46.65833016149608
 20
89.95034291101021
 30
0.000000000000000
 40
2.250000000000030
100
AcDbArc
 50
1.374000000000000e-12
 51
180.0000000000000
  0
ARC
  5
9E
100
AcDbEntity
  8
A1
  6
CONTINUOUS
 62
7
100
AcDbCircle
 10
46.65833016149608
 20
89.15034291101028
 30
0.000000000000000
 40
2.250000000000030
100
AcDbArc
 50
180.0000000000000
 51
359.9999999999959
  0
ARC
  5
9F
100
AcDbEntity
  8
A1
  6
CONTINUOUS
 62
7
100
AcDbCircle
 10
396.2583301614962
 20
89.55034291101023
 30
0.000000000000000
 40
2.250000000000000
100
AcDbArc
 50
270.0000000000000
 51
450.0000000000000
  0
ARC
  5
A0
100
AcDbEntity
  8
A1
  6
CONTINUOUS
 62
7
100
AcDbCircle
 10
395.4583301614961
 20
89.55034291101023
 30
0.000000000000000
 40
2.250000000000000
100
AcDbArc
 50
90.00000000000000
 51
270.0000000000000
  0
ARC
  5
A1
100
AcDbEntity
  8
A1
  6
CONTINUOUS
 62
7
100
AcDbCircle
 10
310.5583301614962
 20
89.55034291101023
 30
0.000000000000000
 40
2.250000000000000
100
AcDbArc
 50
270.0000000000000
 51
450.0000000000000
  0
ARC
  5
A2
100
AcDbEntity
  8
A1
  6
CONTINUOUS
 62
7
100
AcDbCircle
 10
309.7583301614961
 20
89.55034291101023
 30
0.000000000000000
 40
2.250000000000000
100
AcDbArc
 50
90.00000000000000
 51
270.0000000000000
  0
ARC
  5
A3
100
AcDbEntity
  8
A1
  6
CONTINUOUS
 62
7
100
AcDbCircle
 10
170.8583301614962
 20
89.55034291101022
 30
0.000000000000000
 40
2.250000000000000
100
AcDbArc
 50
270.0000000000000
 51
450.0000000000000
  0
ARC
  5
A4
100
AcDbEntity
  8
A1
  6
CONTINUOUS
 62
7
100
AcDbCircle
 10
170.0583301614961
 20
89.55034291101025
 30
0.000000000000000
 40
2.250000000000000
100
AcDbArc
 50
90.00000000000000
 51
270.0000000000000
  0
ARC
  5
A5
100
AcDbEntity
  8
A1
  6
CONTINUOUS
 62
7
100
AcDbCircle
 10
378.1083301614960
 20
87.85034384977695
 30
0.000000000000000
 40
0.7000000000000000
100
AcDbArc
 50
121.2458335498480
 51
180.0000000000000
  0
ARC
  5
A6
100
AcDbEntity
  8
A1
  6
CONTINUOUS
 62
7
100
AcDbCircle
 10
382.1083301614962
 20
89.55034291101015
 30
0.000000000000000
 40
4.500000000000000
100
AcDbArc
 50
165.8308474967136
 51
194.1691525032854
  0
ARC
  5
A7
100
AcDbEntity
  8
A1
  6
CONTINUOUS
 62
7
100
AcDbCircle
 10
378.1083301614960
 20
91.25034197224343
 30
0.000000000000000
 40
0.7000000000000000
100
AcDbArc
 50
180.0000000000000
 51
238.7541664501544
  0
ARC
  5
A8
100
AcDbEntity
  8
A1
  6
CONTINUOUS
 62
7
100
AcDbCircle
 10
386.1083301614962
 20
91.25034197224355
 30
0.000000000000000
 40
0.7000000000000000
100
AcDbArc
 50
301.2458335498429
 51
360.0000000000000
  0
ARC
  5
A9
100
AcDbEntity
  8
A1
  6
CONTINUOUS
 62
7
100
AcDbCircle
 10
382.1083301614962
 20
89.55034291101015
 30
0.000000000000000
 40
4.500000000000000
100
AcDbArc
 50
345.8308474967133
 51
374.1691525032877
  0
ARC
  5
AA
100
AcDbEntity
  8
A1
  6
CONTINUOUS
 62
7
100
AcDbCircle
 10
386.1083301614962
 20
87.85034384977683
 30
0.000000000000000
 40
0.7000000000000000
100
AcDbArc
 50
0.000000000000000
 51
58.75416645015566
  0
LINE
  5
AB
100
AcDbEntity
  8
A1
  6
CONTINUOUS
 62
7
100
AcDbLine
 10
30.75833016149619
 20
73.06775839104105
 30
0.000000000000000
 11
30.75833016149619
 21
71.90034291101017
 31
0.000000000000000
  0
LINE
  5
AC
100
AcDbEntity
  8
A1
  6
CONTINUOUS
 62
7
100
AcDbLine
 10
30.75833016149619
 20
71.90034291101017
 30
0.000000000000000
 11
437.1583301614961
 21
71.90034291101021
 31
0.000000000000000
  0
LINE
  5
AD
100
AcDbEntity
  8
A1
  6
CONTINUOUS
 62
7
100
AcDbLine
 10
437.1583301614961
 20
71.90034291101023
 30
0.000000000000000
 11
437.1583301614961
 21
73.06775839104114
 31
0.000000000000000
  0
LINE
  5
AE
100
AcDbEntity
  8
A1
  6
CONTINUOUS
 62
7
100
AcDbLine
 10
437.1583301614961
 20
106.0329274309794
 30
0.000000000000000
 11
437.1583301614961
 21
107.2003429110104
 31
0.000000000000000
  0
LINE
  5
AF
100
AcDbEntity
  8
A1
  6
CONTINUOUS
 62
7
100
AcDbLine
 10
30.75833016149619
 20
106.0329274309794
 30
0.000000000000000
 11
30.75833016149619
 21
107.2003429110104
 31
0.000000000000000
  0
LINE
  5
B0
100
AcDbEntity
  8
A1
  6
CONTINUOUS
 62
7
100
AcDbLine
 10
437.1583301614961
 20
107.2003429110104
 30
0.000000000000000
 11
30.75833016149618
 21
107.2003429110104
 31
0.000000000000000
  0
LINE
  5
B1
100
AcDbEntity
  8
A1
  6
CONTINUOUS
 62
7
100
AcDbLine
 10
437.1583301614961
 20
81.65034291101006
 30
0.000000000000000
 11
437.1583301614961
 21
97.45034291101013
 31
0.000000000000000
  0
LINE
  5
B2
100
AcDbEntity
  8
A1
  6
CONTINUOUS
 62
7
100
AcDbLine
 10
384.3331897078631
 20
90.55034384962281
 30
0.000000000000000
 11
386.1067089498017
 21
90.55034384962278
 31
0.000000000000000
  0
LINE
  5
B3
100
AcDbEntity
  8
A1
  6
CONTINUOUS
 62
7
100
AcDbLine
 10
378.1099513731907
 20
90.55034384962265
 30
0.000000000000000
 11
379.8834706151312
 21
90.55034384962265
 31
0.000000000000000
  0
LINE
  5
B4
100
AcDbEntity
  8
A1
  6
CONTINUOUS
 62
7
100
AcDbLine
 10
379.8834706151301
 20
88.55034384977694
 30
0.000000000000000
 11
378.1083301614960
 21
88.55034384977695
 31
0.000000000000000
  0
LINE
  5
B5
100
AcDbEntity
  8
A1
  6
CONTINUOUS
 62
7
100
AcDbLine
 10
386.1083301614962
 20
88.55034384977687
 30
0.000000000000000
 11
384.3331897078631
 21
88.55034384977698
 31
0.000000000000000
  0
LINE
  5
B6
100
AcDbEntity
  8
A1
  6
CONTINUOUS
 62
7
100
AcDbLine
 10
437.1583301614961
 20
73.06775839104114
 30
0.000000000000000
 11
437.1583301614961
 21
75.06730910302313
 31
0.000000000000000
  0
LINE
  5
B7
100
AcDbEntity
  8
A1
  6
CONTINUOUS
 62
7
100
AcDbLine
 10
30.75833016149620
 20
74.80034291101023
 30
0.000000000000000
 11
31.13406127403059
 21
75.06730910302288
 31
0.000000000000000
  0
LINE
  5
B8
100
AcDbEntity
  8
A1
  6
CONTINUOUS
 62
7
100
AcDbLine
 10
30.75833016149618
 20
73.06775839104107
 30
0.000000000000000
 11
437.1583301614961
 21
73.06775839104114
 31
0.000000000000000
  0
LINE
  5
B9
100
AcDbEntity
  8
A1
  6
CONTINUOUS
 62
7
100
AcDbLine
 10
30.75833016149619
 20
73.06775839104108
 30
0.000000000000000
 11
30.75833016149619
 21
74.80034291101020
 31
0.000000000000000
  0
LINE
  5
BA
100
AcDbEntity
  8
A1
  6
CONTINUOUS
 62
7
100
AcDbLine
 10
437.1583301614961
 20
104.0333767189976
 30
0.000000000000000
 11
437.1583301614961
 21
106.0329274309795
 31
0.000000000000000
  0
LINE
  5
BB
100
AcDbEntity
  8
A1
  6
CONTINUOUS
 62
7
100
AcDbLine
 10
31.13406127403060
 20
104.0333767189975
 30
0.000000000000000
 11
30.75833016149619
 21
104.3003429110102
 31
0.000000000000000
  0
LINE
  5
BC
100
AcDbEntity
  8
A1
  6
CONTINUOUS
 62
7
100
AcDbLine
 10
30.75833016149620
 20
106.0329274309794
 30
0.000000000000000
 11
437.1583301614960
 21
106.0329274309795
 31
0.000000000000000
  0
LINE
  5
BD
100
AcDbEntity
  8
A1
  6
CONTINUOUS
 62
7
100
AcDbLine
 10
30.75833016149619
 20
106.0329274309794
 30
0.000000000000000
 11
30.75833016149619
 21
104.3003429110102
 31
0.000000000000000
  0
LINE
  5
BE
100
AcDbEntity
  8
A1
  6
CONTINUOUS
 62
7
100
AcDbLine
 10
437.1583301614961
 20
80.18968273923022
 30
0.000000000000000
 11
437.1583301614961
 21
81.65034291101006
 31
0.000000000000000
  0
LINE
  5
BF
100
AcDbEntity
  8
A1
  6
CONTINUOUS
 62
7
100
AcDbLine
 10
437.1583301614961
 20
81.65034291101006
 30
0.000000000000000
 11
433.3583301614961
 21
81.65034291101006
 31
0.000000000000000
  0
LINE
  5
C0
100
AcDbEntity
  8
A1
  6
CONTINUOUS
 62
7
100
AcDbLine
 10
437.1583301614961
 20
97.45034291101013
 30
0.000000000000000
 11
437.1583301614961
 21
98.91100308279019
 31
0.000000000000000
  0
LINE
  5
C1
100
AcDbEntity
  8
A1
  6
CONTINUOUS
 62
7
100
AcDbLine
 10
437.1583301614961
 20
97.45034291101013
 30
0.000000000000000
 11
433.3583301614961
 21
97.45034291101013
 31
0.000000000000000
  0
LINE
  5
C2
100
AcDbEntity
  8
A1
  6
CONTINUOUS
 62
7
100
AcDbLine
 10
437.1583301614961
 20
79.12902256745039
 30
0.000000000000000
 11
437.1583301614961
 21
80.18968273923022
 31
0.000000000000000
  0
LINE
  5
C3
100
AcDbEntity
  8
A1
  6
CONTINUOUS
 62
7
100
AcDbLine
 10
437.1583301614961
 20
80.18968273923022
 30
0.000000000000000
 11
433.3583301614961
 21
80.18968273923022
 31
0.000000000000000
  0
LINE
  5
C4
100
AcDbEntity
  8
A1
  6
CONTINUOUS
 62
7
100
AcDbLine
 10
437.1583301614961
 20
75.06730910302306
 30
0.000000000000000
 11
437.1583301614961
 21
76.20034291101058
 31
0.000000000000000
  0
LINE
  5
C5
100
AcDbEntity
  8
A1
  6
CONTINUOUS
 62
7
100
AcDbLine
 10
31.13406127403059
 20
75.06730910302285
 30
0.000000000000000
 11
437.1583301614961
 21
75.06730910302313
 31
0.000000000000000
  0
LINE
  5
C6
100
AcDbEntity
  8
A1
  6
CONTINUOUS
 62
7
100
AcDbLine
 10
32.01129821300908
 20
75.69060751318699
 30
0.000000000000000
 11
31.13406127403061
 21
75.06730910302288
 31
0.000000000000000
  0
LINE
  5
C7
100
AcDbEntity
  8
A1
  6
CONTINUOUS
 62
7
100
AcDbLine
 10
437.1583301614961
 20
98.91100308279027
 30
0.000000000000000
 11
437.1583301614961
 21
99.97166325456996
 31
0.000000000000000
  0
LINE
  5
C8
100
AcDbEntity
  8
A1
  6
CONTINUOUS
 62
7
100
AcDbLine
 10
437.1583301614961
 20
98.91100308279019
 30
0.000000000000000
 11
433.3583301614961
 21
98.91100308279019
 31
0.000000000000000
  0
LINE
  5
C9
100
AcDbEntity
  8
A1
  6
CONTINUOUS
 62
7
100
AcDbLine
 10
30.75833016149619
 20
101.0503429110102
 30
0.000000000000000
 11
31.25833016149560
 21
101.0503429110101
 31
0.000000000000000
  0
LINE
  5
CA
100
AcDbEntity
  8
A1
  6
CONTINUOUS
 62
7
100
AcDbLine
 10
30.75833016149619
 20
78.05034291101038
 30
0.000000000000000
 11
30.75833016149619
 21
101.0503429110101
 31
0.000000000000000
  0
LINE
  5
CB
100
AcDbEntity
  8
A1
  6
CONTINUOUS
 62
7
100
AcDbLine
 10
31.25833016149560
 20
78.05034291101073
 30
0.000000000000000
 11
30.75833016149619
 21
78.05034291101056
 31
0.000000000000000
  0
LINE
  5
CC
100
AcDbEntity
  8
A1
  6
CONTINUOUS
 62
7
100
AcDbLine
 10
437.1583301614961
 20
102.9003429110099
 30
0.000000000000000
 11
437.1583301614961
 21
104.0333767189976
 31
0.000000000000000
  0
LINE
  5
CD
100
AcDbEntity
  8
A1
  6
CONTINUOUS
 62
7
100
AcDbLine
 10
31.13406127403060
 20
104.0333767189975
 30
0.000000000000000
 11
437.1583301614961
 21
104.0333767189976
 31
0.000000000000000
  0
LINE
  5
CE
100
AcDbEntity
  8
A1
  6
CONTINUOUS
 62
7
100
AcDbLine
 10
31.13406127403058
 20
104.0333767189975
 30
0.000000000000000
 11
32.01129821300907
 21
103.4100783088334
 31
0.000000000000000
  0
LINE
  5
CF
100
AcDbEntity
  8
A1
  6
CONTINUOUS
 62
7
100
AcDbLine
 10
437.1583301614961
 20
99.97166325456996
 30
0.000000000000000
 11
437.1583301614961
 21
102.9003429110099
 31
0.000000000000000
  0
LINE
  5
D0
100
AcDbEntity
  8
A1
  6
CONTINUOUS
 62
7
100
AcDbLine
 10
437.1583301614961
 20
76.20034291101058
 30
0.000000000000000
 11
437.1583301614961
 21
79.12902256745039
 31
0.000000000000000
  0
LINE
  5
D1
100
AcDbEntity
  8
A1
  6
CONTINUOUS
 62
7
100
AcDbLine
 10
32.43625206043467
 20
76.20034291101055
 30
0.000000000000000
 11
437.1583301614961
 21
76.20034291101057
 31
0.000000000000000
  0
LINE
  5
D2
100
AcDbEntity
  8
A1
  6
CONTINUOUS
 62
7
100
AcDbLine
 10
437.1583301614961
 20
79.12902256745039
 30
0.000000000000000
 11
433.3583301614961
 21
79.12902256745039
 31
0.000000000000000
  0
LINE
  5
D3
100
AcDbEntity
  8
A1
  6
CONTINUOUS
 62
7
100
AcDbLine
 10
433.3583301614961
 20
79.12902256745039
 30
0.000000000000000
 11
433.3583301614961
 21
99.97166325456996
 31
0.000000000000000
  0
LINE
  5
D4
100
AcDbEntity
  8
A1
  6
CONTINUOUS
 62
7
100
AcDbLine
 10
437.1583301614961
 20
99.97166325456996
 30
0.000000000000000
 11
433.3583301614961
 21
99.97166325456996
 31
0.000000000000000
  0
LINE
  5
D5
100
AcDbEntity
  8
A1
  6
CONTINUOUS
 62
7
100
AcDbLine
 10
32.43625206043468
 20
102.9003429110098
 30
0.000000000000000
 11
437.1583301614961
 21
102.9003429110099
 31
0.000000000000000
  0
LINE
  5
D6
100
AcDbEntity
  8
A1
  6
CONTINUOUS
 62
7
100
AcDbLine
 10
32.35833016149618
 20
101.6575225879834
 30
0.000000000000000
 11
32.35833016149618
 21
77.44316323403700
 31
0.000000000000000
  0
LINE
  5
D7
100
AcDbEntity
  8
A1
  6
CONTINUOUS
 62
7
100
AcDbLine
 10
419.0083301614962
 20
89.15034291101026
 30
0.000000000000000
 11
419.0083301614962
 21
89.95034291101024
 31
0.000000000000000
  0
LINE
  5
D8
100
AcDbEntity
  8
A1
  6
CONTINUOUS
 62
7
100
AcDbLine
 10
423.5083301614962
 20
89.95034291101024
 30
0.000000000000000
 11
423.5083301614962
 21
89.15034291101026
 31
0.000000000000000
  0
LINE
  5
D9
100
AcDbEntity
  8
A1
  6
CONTINUOUS
 62
7
100
AcDbLine
 10
406.3083301614962
 20
89.15034291101023
 30
0.000000000000000
 11
406.3083301614962
 21
89.95034291101024
 31
0.000000000000000
  0
LINE
  5
DA
100
AcDbEntity
  8
A1
  6
CONTINUOUS
 62
7
100
AcDbLine
 10
410.8083301614962
 20
89.95034291101024
 30
0.000000000000000
 11
410.8083301614962
 21
89.15034291101026
 31
0.000000000000000
  0
LINE
  5
DB
100
AcDbEntity
  8
A1
  6
CONTINUOUS
 62
7
100
AcDbLine
 10
57.10833016149608
 20
89.15034291101028
 30
0.000000000000000
 11
57.10833016149608
 21
89.95034291101021
 31
0.000000000000000
  0
LINE
  5
DC
100
AcDbEntity
  8
A1
  6
CONTINUOUS
 62
7
100
AcDbLine
 10
61.60833016149618
 20
89.95034291101027
 30
0.000000000000000
 11
61.60833016149618
 21
89.15034291101011
 31
0.000000000000000
  0
LINE
  5
DD
100
AcDbEntity
  8
A1
  6
CONTINUOUS
 62
7
100
AcDbLine
 10
44.40833016149608
 20
89.15034291101028
 30
0.000000000000000
 11
44.40833016149608
 21
89.95034291101021
 31
0.000000000000000
  0
LINE
  5
DE
100
AcDbEntity
  8
A1
  6
CONTINUOUS
 62
7
100
AcDbLine
 10
48.90833016149618
 20
89.95034291101027
 30
0.000000000000000
 11
48.90833016149618
 21
89.15034291101011
 31
0.000000000000000
  0
LINE
  5
DF
100
AcDbEntity
  8
A1
  6
CONTINUOUS
 62
7
100
AcDbLine
 10
395.4583301614961
 20
91.80034291101023
 30
0.000000000000000
 11
396.2583301614962
 21
91.80034291101023
 31
0.000000000000000
  0
LINE
  5
E0
100
AcDbEntity
  8
A1
  6
CONTINUOUS
 62
7
100
AcDbLine
 10
396.2583301614962
 20
87.30034291101023
 30
0.000000000000000
 11
395.4583301614961
 21
87.30034291101023
 31
0.000000000000000
  0
LINE
  5
E1
100
AcDbEntity
  8
A1
  6
CONTINUOUS
 62
7
100
AcDbLine
 10
309.7583301614961
 20
91.80034291101023
 30
0.000000000000000
 11
310.5583301614962
 21
91.80034291101023
 31
0.000000000000000
  0
LINE
  5
E2
100
AcDbEntity
  8
A1
  6
CONTINUOUS
 62
7
100
AcDbLine
 10
310.5583301614962
 20
87.30034291101023
 30
0.000000000000000
 11
309.7583301614961
 21
87.30034291101023
 31
0.000000000000000
  0
LINE
  5
E3
100
AcDbEntity
  8
A1
  6
CONTINUOUS
 62
7
100
AcDbLine
 10
170.0583301614961
 20
91.80034291101018
 30
0.000000000000000
 11
170.8583301614962
 21
91.80034291101018
 31
0.000000000000000
  0
LINE
  5
E4
100
AcDbEntity
  8
A1
  6
CONTINUOUS
 62
7
100
AcDbLine
 10
170.8583301614962
 20
87.30034291101018
 30
0.000000000000000
 11
170.0583301614961
 21
87.30034291101018
 31
0.000000000000000
  0
LINE
  5
E5
100
AcDbEntity
  8
A1
  6
CONTINUOUS
 62
7
100
AcDbLine
 10
384.9950820495310
 20
84.55034291101015
 30
0.000000000000000
 11
379.2215782734582
 21
84.55034291101043
 31
0.000000000000000
  0
LINE
  5
E6
100
AcDbEntity
  8
A1
  6
CONTINUOUS
 62
7
100
AcDbLine
 10
379.2215782734581
 20
84.55034291101043
 30
0.000000000000000
 11
377.4083301614930
 21
87.69098076766163
 31
0.000000000000000
  0
LINE
  5
E7
100
AcDbEntity
  8
A1
  6
CONTINUOUS
 62
7
100
AcDbLine
 10
377.4083301614931
 20
87.69098076766164
 30
0.000000000000000
 11
377.4083301614961
 21
87.85034384977693
 31
0.000000000000000
  0
LINE
  5
E8
100
AcDbEntity
  8
A1
  6
CONTINUOUS
 62
7
100
AcDbLine
 10
377.4083301614961
 20
91.25034197224343
 30
0.000000000000000
 11
377.4083301614961
 21
91.40970505436465
 31
0.000000000000000
  0
LINE
  5
E9
100
AcDbEntity
  8
A1
  6
CONTINUOUS
 62
7
100
AcDbLine
 10
377.4083301614961
 20
91.40970505436471
 30
0.000000000000000
 11
379.2215782734581
 21
94.55034291100995
 31
0.000000000000000
  0
LINE
  5
EA
100
AcDbEntity
  8
A1
  6
CONTINUOUS
 62
7
100
AcDbLine
 10
379.2215782734582
 20
94.55034291100995
 30
0.000000000000000
 11
384.9950820495311
 21
94.55034291101015
 31
0.000000000000000
  0
LINE
  5
EB
100
AcDbEntity
  8
A1
  6
CONTINUOUS
 62
7
100
AcDbLine
 10
384.9950820495309
 20
94.55034291101009
 30
0.000000000000000
 11
386.8083301614970
 21
91.40970505435858
 31
0.000000000000000
  0
LINE
  5
EC
100
AcDbEntity
  8
A1
  6
CONTINUOUS
 62
7
100
AcDbLine
 10
386.8083301614971
 20
91.40970505435865
 30
0.000000000000000
 11
386.8083301614971
 21
91.25034197224355
 31
0.000000000000000
  0
LINE
  5
ED
100
AcDbEntity
  8
A1
  6
CONTINUOUS
 62
7
100
AcDbLine
 10
386.8083301614962
 20
87.85034384977683
 30
0.000000000000000
 11
386.8083301614971
 21
87.69098076766176
 31
0.000000000000000
  0
LINE
  5
EE
100
AcDbEntity
  8
A1
  6
CONTINUOUS
 62
7
100
AcDbLine
 10
386.8083301614971
 20
87.69098076766178
 30
0.000000000000000
 11
384.9950820495310
 21
84.55034291101015
 31
0.000000000000000
  0
ARC
  5
EF
100
AcDbEntity
  8
A1
  6
CONTINUOUS
 62
7
100
AcDbCircle
 10
475.0083301614972
 20
89.55034291101032
 30
0.000000000000000
 40
4.750000000000000
100
AcDbArc
 50
270.0000000000000
 51
450.0000000000000
  0
ARC
  5
F0
100
AcDbEntity
  8
A1
  6
CONTINUOUS
 62
7
100
AcDbCircle
 10
471.8083301614972
 20
89.55034291101035
 30
0.000000000000000
 40
4.750000000000000
100
AcDbArc
 50
90.00000000000000
 51
270.0000000000000
  0
LINE
  5
F1
100
AcDbEntity
  8
A1
  6
CONTINUOUS
 62
7
100
AcDbLine
 10
651.1583301614960
 20
79.85034291101016
 30
0.000000000000000
 11
651.1583301614960
 21
99.25034291100795
 31
0.000000000000000
  0
LINE
  5
F2
100
AcDbEntity
  8
A1
  6
CONTINUOUS
 62
7
100
AcDbLine
 10
471.8083301614972
 20
94.30034291101035
 30
0.000000000000000
 11
475.0083301614972
 21
94.30034291101030
 31
0.000000000000000
  0
LINE
  5
F3
100
AcDbEntity
  8
A1
  6
CONTINUOUS
 62
7
100
AcDbLine
 10
475.0083301614972
 20
84.80034291101030
 30
0.000000000000000
 11
471.8083301614972
 21
84.80034291101035
 31
0.000000000000000
  0
LINE
  5
F4
100
AcDbEntity
  8
A1
  6
CONTINUOUS
 62
7
100
AcDbLine
 10
651.1583301614960
 20
77.77886142880271
 30
0.000000000000000
 11
651.1583301614960
 21
77.42525031714742
 31
0.000000000000000
  0
LINE
  5
F5
100
AcDbEntity
  8
A1
  6
CONTINUOUS
 62
7
100
AcDbLine
 10
437.1583301614961
 20
77.42525031714888
 30
0.000000000000000
 11
651.1583301614961
 21
77.42525031714742
 31
0.000000000000000
  0
LINE
  5
F6
100
AcDbEntity
  8
A1
  6
CONTINUOUS
 62
7
100
AcDbLine
 10
651.1583301614960
 20
101.3218243932154
 30
0.000000000000000
 11
651.1583301614960
 21
101.6754355048707
 31
0.000000000000000
  0
LINE
  5
F7
100
AcDbEntity
  8
A1
  6
CONTINUOUS
 62
7
100
AcDbLine
 10
651.1583301614960
 20
101.6754355048707
 30
0.000000000000000
 11
437.1583301614961
 21
101.6754355048722
 31
0.000000000000000
  0
LINE
  5
F8
100
AcDbEntity
  8
A1
  6
CONTINUOUS
 62
7
100
AcDbLine
 10
651.1583301614960
 20
77.81391109164414
 30
0.000000000000000
 11
651.1583301614960
 21
77.77886142880273
 31
0.000000000000000
  0
LINE
  5
F9
100
AcDbEntity
  8
A1
  6
CONTINUOUS
 62
7
100
AcDbLine
 10
437.1583301614961
 20
77.77886142880421
 30
0.000000000000000
 11
651.1583301614961
 21
77.77886142880271
 31
0.000000000000000
  0
LINE
  5
FA
100
AcDbEntity
  8
A1
  6
CONTINUOUS
 62
7
100
AcDbLine
 10
651.1583301614960
 20
101.2867747303739
 30
0.000000000000000
 11
651.1583301614960
 21
101.3218243932154
 31
0.000000000000000
  0
LINE
  5
FB
100
AcDbEntity
  8
A1
  6
CONTINUOUS
 62
7
100
AcDbLine
 10
437.1583301614961
 20
101.3218243932169
 30
0.000000000000000
 11
651.1583301614960
 21
101.3218243932154
 31
0.000000000000000
  0
LINE
  5
FC
100
AcDbEntity
  8
A1
  6
CONTINUOUS
 62
7
100
AcDbLine
 10
651.1583301614961
 20
79.85034291101013
 30
0.000000000000000
 11
437.1583301614961
 21
79.85034291101161
 31
0.000000000000000
  0
LINE
  5
FD
100
AcDbEntity
  8
A1
  6
CONTINUOUS
 62
7
100
AcDbLine
 10
651.1583301614960
 20
79.85034291101016
 30
0.000000000000000
 11
651.1583301614960
 21
79.12295654540063
 31
0.000000000000000
  0
LINE
  5
FE
100
AcDbEntity
  8
A1
  6
CONTINUOUS
 62
7
100
AcDbLine
 10
651.1583301614960
 20
77.81391109164417
 30
0.000000000000000
 11
651.1583301614960
 21
79.12295654540060
 31
0.000000000000000
  0
LINE
  5
FF
100
AcDbEntity
  8
A1
  6
CONTINUOUS
 62
7
100
AcDbLine
 10
437.1583301614961
 20
79.12295654540208
 30
0.000000000000000
 11
651.1583301614961
 21
79.12295654540061
 31
0.000000000000000
  0
LINE
  5
100
100
AcDbEntity
  8
A1
  6
CONTINUOUS
 62
7
100
AcDbLine
 10
437.1583301614961
 20
77.81391109164564
 30
0.000000000000000
 11
651.1583301614961
 21
77.81391109164417
 31
0.000000000000000
  0
LINE
  5
101
100
AcDbEntity
  8
A1
  6
CONTINUOUS
 62
7
100
AcDbLine
 10
437.1583301614961
 20
99.25034291100945
 30
0.000000000000000
 11
651.1583301614960
 21
99.25034291100798
 31
0.000000000000000
  0
LINE
  5
102
100
AcDbEntity
  8
A1
  6
CONTINUOUS
 62
7
100
AcDbLine
 10
651.1583301614960
 20
99.25034291100795
 30
0.000000000000000
 11
651.1583301614960
 21
99.97772927661748
 31
0.000000000000000
  0
LINE
  5
103
100
AcDbEntity
  8
A1
  6
CONTINUOUS
 62
7
100
AcDbLine
 10
651.1583301614960
 20
101.2867747303739
 30
0.000000000000000
 11
651.1583301614960
 21
99.97772927661748
 31
0.000000000000000
  0
LINE
  5
104
100
AcDbEntity
  8
A1
  6
CONTINUOUS
 62
7
100
AcDbLine
 10
437.1583301614961
 20
101.2867747303754
 30
0.000000000000000
 11
651.1583301614960
 21
101.2867747303739
 31
0.000000000000000
  0
LINE
  5
105
100
AcDbEntity
  8
A1
  6
CONTINUOUS
 62
7
100
AcDbLine
 10
437.1583301614961
 20
99.97772927661896
 30
0.000000000000000
 11
651.1583301614960
 21
99.97772927661750
 31
0.000000000000000
  0
SPLINE
  5
106
100
AcDbEntity
  8
A1
  6
CONTINUOUS
 62
7
100
AcDbSpline
210
0.000000000000000
220
0.000000000000000
230
1.000000000000000
 70
     8
 71
     3
 72
    10
 73
     6
 74
     0
 42
1.000000000000000e-07
 43
1.000000000000000e-07
 12
0.9693677461788184
 22
-0.2456138690504304
 32
0.000000000000000
 13
0.9976299186259894
 23
-0.06880803340709463
 33
0.000000000000000
 40
0.000000000000000
 40
0.000000000000000
 40
0.000000000000000
 40
0.000000000000000
 40
0.1593552073508852
 40
0.2995991515668449
 40
0.4336349660034112
 40
0.4336349660034112
 40
0.4336349660034112
 40
0.4336349660034112
 10
32.01129821300913
 20
165.2282702545638
 30
0.000000000000000
 10
32.06278947907299
 20
165.2152236382202
 30
0.000000000000000
 10
32.16002967773386
 20
165.1926138594043
 30
0.000000000000000
 10
32.30053075345143
 20
165.1579802400906
 30
0.000000000000000
 10
32.39167934755153
 20
165.1479755786557
 30
0.000000000000000
 10
32.43625206043464
 20
165.1449013317232
 30
0.000000000000000
  0
SPLINE
  5
107
100
AcDbEntity
  8
A1
  6
CONTINUOUS
 62
7
100
AcDbSpline
210
0.000000000000000
220
0.000000000000000
230
1.000000000000000
 70
     8
 71
     3
 72
    17
 73
    13
 74
     0
 42
1.000000000000000e-07
 43
1.000000000000000e-07
 12
0.01297619499837310
 22
0.9999158056366468
 32
0.000000000000000
 13
-0.9999943034108583
 23
-0.003375373451035557
 33
0.000000000000000
 40
0.000000000000000
 40
0.000000000000000
 40
0.000000000000000
 40
0.000000000000000
 40
0.3665938535936362
 40
0.7277380964931692
 40
1.066963995356137
 40
1.410431768882720
 40
1.718141130059607
 40
2.043415589480082
 40
2.378062680964342
 40
2.735812780474506
 40
3.141763377117884
 40
3.569270663111624
 40
3.569270663111624
 40
3.569270663111624
 40
3.569270663111624
 10
437.1583301614963
 20
171.7285827850681
 30
0.000000000000000
 10
437.1599158259395
 20
171.8507704478873
 30
0.000000000000000
 10
437.1444677754245
 20
172.0937360916530
 30
0.000000000000000
 10
437.0741091744493
 20
172.4438682654804
 30
0.000000000000000
 10
436.9417331563883
 20
172.7682548734087
 30
0.000000000000000
 10
436.7525282134394
 20
173.0423198009812
 30
0.000000000000000
 10
436.5131629003664
 20
173.2658973536928
 30
0.000000000000000
 10
436.2389799841893
 20
173.4389867341647
 30
0.000000000000000
 10
435.9257667472554
 20
173.5722535752409
 30
0.000000000000000
 10
435.5720125488923
 20
173.6700844788492
 30
0.000000000000000
 10
435.1788720358073
 20
173.7308555143957
 30
0.000000000000000
 10
434.9008317783833
 20
173.7453823306375
 30
0.000000000000000
 10
434.7583301614965
 20
173.7449013317231
 30
0.000000000000000
  0
ELLIPSE
  5
108
100
AcDbEntity
  8
A1
  6
CONTINUOUS
 62
7
100
AcDbEllipse
 10
32.72870533740354
 20
166.7449013317233
 30
0.000000000000000
 11
2.251857343893573
 21
0.000000000000000
 31
0.000000000000000
210
0.000000000000000
220
0.000000000000000
230
1.000000000000000
 40
0.7105245828910332
 41
3.925519873442434
 42
4.388153047842748
  0
ARC
  5
109
100
AcDbEntity
  8
A1
  6
CONTINUOUS
 62
7
100
AcDbCircle
 10
32.35833016149593
 20
166.7449013317229
 30
0.000000000000000
 40
1.599999999999726
100
AcDbArc
 50
235.5158900442070
 51
270.0000000000041
  0
LINE
  5
10A
100
AcDbEntity
  8
A1
  6
CONTINUOUS
 62
7
100
AcDbLine
 10
32.35833016149661
 20
165.1449013317232
 30
0.000000000000000
 11
32.43625206043464
 21
165.1449013317232
 31
0.000000000000000
  0
LINE
  5
10B
100
AcDbEntity
  8
A1
  6
CONTINUOUS
 62
7
100
AcDbLine
 10
437.1583301614963
 20
165.1449013317231
 30
0.000000000000000
 11
437.1583301614963
 21
165.6151958878321
 31
0.000000000000000
  0
LINE
  5
10C
100
AcDbEntity
  8
A1
  6
CONTINUOUS
 62
7
100
AcDbLine
 10
30.75833016149613
 20
167.6206377219956
 30
0.000000000000000
 11
30.75833016149613
 21
165.8829486217646
 31
0.000000000000000
  0
LINE
  5
10D
100
AcDbEntity
  8
A1
  6
CONTINUOUS
 62
7
100
AcDbLine
 10
437.1583301614963
 20
165.6151958878320
 30
0.000000000000000
 11
437.1583301614963
 21
167.6206377219954
 31
0.000000000000000
  0
LINE
  5
10E
100
AcDbEntity
  8
A1
  6
CONTINUOUS
 62
7
100
AcDbLine
 10
31.13406127403062
 20
165.6151958878322
 30
0.000000000000000
 11
437.1583301614963
 21
165.6151958878320
 31
0.000000000000000
  0
LINE
  5
10F
100
AcDbEntity
  8
A1
  6
CONTINUOUS
 62
7
100
AcDbLine
 10
31.13406127403075
 20
165.6151958878322
 30
0.000000000000000
 11
30.75833016149623
 21
165.8829486217646
 31
0.000000000000000
  0
LINE
  5
110
100
AcDbEntity
  8
A1
  6
CONTINUOUS
 62
7
100
AcDbLine
 10
30.75833016149613
 20
167.6206377219955
 30
0.000000000000000
 11
30.75833016149613
 21
173.7449013317231
 31
0.000000000000000
  0
LINE
  5
111
100
AcDbEntity
  8
A1
  6
CONTINUOUS
 62
7
100
AcDbLine
 10
437.1583301614963
 20
167.6206377219955
 30
0.000000000000000
 11
437.1583301614963
 21
171.7285827850681
 31
0.000000000000000
  0
LINE
  5
112
100
AcDbEntity
  8
A1
  6
CONTINUOUS
 62
7
100
AcDbLine
 10
30.75833016149613
 20
173.7449013317231
 30
0.000000000000000
 11
434.7583301614965
 21
173.7449013317231
 31
0.000000000000000
  0
LINE
  5
113
100
AcDbEntity
  8
A1
  6
CONTINUOUS
 62
7
100
AcDbLine
 10
30.75833016149614
 20
167.6206377219955
 30
0.000000000000000
 11
437.1583301614963
 21
167.6206377219953
 31
0.000000000000000
  0
SPLINE
  5
114
100
AcDbEntity
  8
A1
  6
CONTINUOUS
 62
7
100
AcDbSpline
210
0.000000000000000
220
0.000000000000000
230
1.000000000000000
 70
     8
 71
     3
 72
    10
 73
     6
 74
     0
 42
1.000000000000000e-07
 43
1.000000000000000e-07
 12
-0.9693677461837069
 22
0.2456138690508851
 32
0.000000000000000
 13
-0.9976299186200777
 23
0.06880803340663988
 33
0.000000000000000
 40
0.000000000000000
 40
0.000000000000000
 40
0.000000000000000
 40
0.000000000000000
 40
0.1593552073506651
 40
0.2995991515669563
 40
0.4336349660034092
 40
0.4336349660034092
 40
0.4336349660034092
 40
0.4336349660034092
 10
863.9053621099835
 20
184.2615324088826
 30
0.000000000000000
 10
863.8538708439195
 20
184.2745790252262
 30
0.000000000000000
 10
863.7566306452585
 20
184.2971888040422
 30
0.000000000000000
 10
863.6161295695414
 20
184.3318224233557
 30
0.000000000000000
 10
863.5249809754404
 20
184.3418270847907
 30
0.000000000000000
 10
863.4804082625575
 20
184.3449013317232
 30
0.000000000000000
  0
SPLINE
  5
115
100
AcDbEntity
  8
A1
  6
CONTINUOUS
 62
7
100
AcDbSpline
210
0.000000000000000
220
0.000000000000000
230
1.000000000000000
 70
     8
 71
     3
 72
    17
 73
    13
 74
     0
 42
1.000000000000000e-07
 43
1.000000000000000e-07
 12
-0.01297619500610381
 22
-0.9999158056380111
 32
0.000000000000000
 13
0.9999943034113130
 23
0.003375373451035557
 33
0.000000000000000
 40
0.000000000000000
 40
0.000000000000000
 40
0.000000000000000
 40
0.000000000000000
 40
0.3665938535936362
 40
0.7277380964931727
 40
1.066963995356228
 40
1.410431768882814
 40
1.718141130059538
 40
2.043415589480204
 40
2.378062680964256
 40
2.735812780474421
 40
3.141763377118024
 40
3.569270663111536
 40
3.569270663111536
 40
3.569270663111536
 40
3.569270663111536
 10
458.7583301614965
 20
177.7612198783784
 30
0.000000000000000
 10
458.7567444970524
 20
177.6390322155591
 30
0.000000000000000
 10
458.7721925475684
 20
177.3960665717935
 30
0.000000000000000
 10
458.8425511485424
 20
177.0459343979660
 30
0.000000000000000
 10
458.9749271666034
 20
176.7215477900378
 30
0.000000000000000
 10
459.1641321095525
 20
176.4474828624653
 30
0.000000000000000
 10
459.4034974226255
 20
176.2239053097535
 30
0.000000000000000
 10
459.6776803388035
 20
176.0508159292819
 30
0.000000000000000
 10
459.9908935757363
 20
175.9175490882055
 30
0.000000000000000
 10
460.3446477741003
 20
175.8197181845973
 30
0.000000000000000
 10
460.7377882871843
 20
175.7589471490508
 30
0.000000000000000
 10
461.0158285446095
 20
175.7444203328089
 30
0.000000000000000
 10
461.1583301614963
 20
175.7449013317233
 30
0.000000000000000
  0
ELLIPSE
  5
116
100
AcDbEntity
  8
A1
  6
CONTINUOUS
 62
7
100
AcDbEllipse
 10
863.1879549855884
 20
182.7449013317231
 30
0.000000000000000
 11
2.251857343893573
 21
0.000000000000000
 31
0.000000000000000
210
0.000000000000000
220
0.000000000000000
230
1.000000000000000
 40
0.7105245828910332
 41
0.7839272198526456
 42
1.246560394252961
  0
ARC
  5
117
100
AcDbEntity
  8
A1
  6
CONTINUOUS
 62
7
100
AcDbCircle
 10
863.5583301614964
 20
182.7449013317234
 30
0.000000000000000
 40
1.599999999999783
100
AcDbArc
 50
55.51589004421093
 51
90.00000000000405
  0
LINE
  5
118
100
AcDbEntity
  8
A1
  6
CONTINUOUS
 62
7
100
AcDbLine
 10
863.5583301614953
 20
184.3449013317231
 30
0.000000000000000
 11
863.4804082625575
 21
184.3449013317231
 31
0.000000000000000
  0
LINE
  5
119
100
AcDbEntity
  8
A1
  6
CONTINUOUS
 62
7
100
AcDbLine
 10
458.7583301614965
 20
184.3449013317233
 30
0.000000000000000
 11
458.7583301614965
 21
183.8746067756143
 31
0.000000000000000
  0
LINE
  5
11A
100
AcDbEntity
  8
A1
  6
CONTINUOUS
 62
7
100
AcDbLine
 10
863.4804082625575
 20
184.3449013317232
 30
0.000000000000000
 11
458.7583301614965
 21
184.3449013317233
 31
0.000000000000000
  0
LINE
  5
11B
100
AcDbEntity
  8
A1
  6
CONTINUOUS
 62
7
100
AcDbLine
 10
865.1583301614963
 20
181.8691649414509
 30
0.000000000000000
 11
865.1583301614963
 21
183.6068540416818
 31
0.000000000000000
  0
LINE
  5
11C
100
AcDbEntity
  8
A1
  6
CONTINUOUS
 62
7
100
AcDbLine
 10
458.7583301614965
 20
183.8746067756144
 30
0.000000000000000
 11
458.7583301614965
 21
181.8691649414511
 31
0.000000000000000
  0
LINE
  5
11D
100
AcDbEntity
  8
A1
  6
CONTINUOUS
 62
7
100
AcDbLine
 10
864.7825990489613
 20
183.8746067756142
 30
0.000000000000000
 11
458.7583301614965
 21
183.8746067756144
 31
0.000000000000000
  0
LINE
  5
11E
100
AcDbEntity
  8
A1
  6
CONTINUOUS
 62
7
100
AcDbLine
 10
864.7825990489612
 20
183.8746067756142
 30
0.000000000000000
 11
865.1583301614962
 21
183.6068540416817
 31
0.000000000000000
  0
LINE
  5
11F
100
AcDbEntity
  8
A1
  6
CONTINUOUS
 62
7
100
AcDbLine
 10
458.7583301614965
 20
181.8691649414510
 30
0.000000000000000
 11
458.7583301614965
 21
177.7612198783784
 31
0.000000000000000
  0
LINE
  5
120
100
AcDbEntity
  8
A1
  6
CONTINUOUS
 62
7
100
AcDbLine
 10
865.1583301614963
 20
175.7449013317234
 30
0.000000000000000
 11
461.1583301614963
 21
175.7449013317233
 31
0.000000000000000
  0
LINE
  5
121
100
AcDbEntity
  8
A1
  6
CONTINUOUS
 62
7
100
AcDbLine
 10
865.1583301614963
 20
181.8691649414509
 30
0.000000000000000
 11
865.1583301614963
 21
175.7449013317233
 31
0.000000000000000
  0
LINE
  5
122
100
AcDbEntity
  8
A1
  6
CONTINUOUS
 62
7
100
AcDbLine
 10
865.1583301614963
 20
181.8691649414509
 30
0.000000000000000
 11
458.7583301614965
 21
181.8691649414511
 31
0.000000000000000
  0
LINE
  5
123
100
AcDbEntity
  8
A1
  6
CONTINUOUS
 62
7
100
AcDbLine
 10
247.9583301614961
 20
174.7449013317231
 30
0.000000000000000
 11
246.3583301614962
 21
174.7449013317231
 31
0.000000000000000
  0
LINE
  5
124
100
AcDbEntity
  8
A1
  6
CONTINUOUS
 62
7
100
AcDbLine
 10
649.5583301614964
 20
174.7449013317231
 30
0.000000000000000
 11
647.9583301614963
 21
174.7449013317231
 31
0.000000000000000
  0
LINE
  5
125
100
AcDbEntity
  8
A1
  6
CONTINUOUS
 62
7
100
AcDbLine
 10
424.1583301614963
 20
174.7449013317231
 30
0.000000000000000
 11
420.9583301614963
 21
174.7449013317231
 31
0.000000000000000
  0
LINE
  5
126
100
AcDbEntity
  8
A1
  6
CONTINUOUS
 62
7
100
AcDbLine
 10
474.9583301614963
 20
174.7449013317231
 30
0.000000000000000
 11
471.7583301614965
 21
174.7449013317231
 31
0.000000000000000
  0
LINE
  5
127
100
AcDbEntity
  8
A1
  6
CONTINUOUS
 62
7
100
AcDbLine
 10
651.1583301614963
 20
169.0649013317237
 30
0.000000000000000
 11
651.1583301614963
 21
168.1449013317234
 31
0.000000000000000
  0
LINE
  5
128
100
AcDbEntity
  8
A1
  6
CONTINUOUS
 62
7
100
AcDbLine
 10
437.1583301614963
 20
168.1449013317234
 30
0.000000000000000
 11
651.1583301614963
 21
168.1449013317234
 31
0.000000000000000
  0
LINE
  5
129
100
AcDbEntity
  8
A1
  6
CONTINUOUS
 62
7
100
AcDbLine
 10
244.7583301614961
 20
180.4249013317227
 30
0.000000000000000
 11
244.7583301614961
 21
181.3449013317229
 31
0.000000000000000
  0
LINE
  5
12A
100
AcDbEntity
  8
A1
  6
CONTINUOUS
 62
7
100
AcDbLine
 10
458.7583301614965
 20
181.3449013317229
 30
0.000000000000000
 11
244.7583301614961
 21
181.3449013317229
 31
0.000000000000000
  0
LINE
  5
12B
100
AcDbEntity
  8
A1
  6
CONTINUOUS
 62
7
100
AcDbLine
 10
651.1583301614963
 20
169.0649013317237
 30
0.000000000000000
 11
651.1583301614963
 21
171.8734727602951
 31
0.000000000000000
  0
LINE
  5
12C
100
AcDbEntity
  8
A1
  6
CONTINUOUS
 62
7
100
AcDbLine
 10
437.1583301614963
 20
169.0649013317237
 30
0.000000000000000
 11
651.1583301614963
 21
169.0649013317237
 31
0.000000000000000
  0
LINE
  5
12D
100
AcDbEntity
  8
A1
  6
CONTINUOUS
 62
7
100
AcDbLine
 10
244.7583301614962
 20
180.4249013317227
 30
0.000000000000000
 11
244.7583301614962
 21
177.6163299031512
 31
0.000000000000000
  0
LINE
  5
12E
100
AcDbEntity
  8
A1
  6
CONTINUOUS
 62
7
100
AcDbLine
 10
458.7583301614965
 20
180.4249013317227
 30
0.000000000000000
 11
244.7583301614961
 21
180.4249013317227
 31
0.000000000000000
  0
LINE
  5
12F
100
AcDbEntity
  8
A1
  6
CONTINUOUS
 62
7
100
AcDbLine
 10
651.1583301614963
 20
171.8734727602951
 30
0.000000000000000
 11
651.1583301614963
 21
174.7449013317231
 31
0.000000000000000
  0
LINE
  5
130
100
AcDbEntity
  8
A1
  6
CONTINUOUS
 62
7
100
AcDbLine
 10
246.3583301614962
 20
173.7449013317231
 30
0.000000000000000
 11
246.3583301614962
 21
174.7449013317231
 31
0.000000000000000
  0
LINE
  5
131
100
AcDbEntity
  8
A1
  6
CONTINUOUS
 62
7
100
AcDbLine
 10
649.5583301614964
 20
174.7449013317231
 30
0.000000000000000
 11
651.1583301614963
 21
174.7449013317231
 31
0.000000000000000
  0
LINE
  5
132
100
AcDbEntity
  8
A1
  6
CONTINUOUS
 62
7
100
AcDbLine
 10
437.1495259919194
 20
171.8734727602951
 30
0.000000000000000
 11
651.1583301614963
 21
171.8734727602951
 31
0.000000000000000
  0
LINE
  5
133
100
AcDbEntity
  8
A1
  6
CONTINUOUS
 62
7
100
AcDbLine
 10
649.5583301614964
 20
175.7449013317229
 30
0.000000000000000
 11
649.5583301614964
 21
174.7449013317232
 31
0.000000000000000
  0
LINE
  5
134
100
AcDbEntity
  8
A1
  6
CONTINUOUS
 62
7
100
AcDbLine
 10
244.7583301614962
 20
177.6163299031512
 30
0.000000000000000
 11
244.7583301614962
 21
174.7449013317232
 31
0.000000000000000
  0
LINE
  5
135
100
AcDbEntity
  8
A1
  6
CONTINUOUS
 62
7
100
AcDbLine
 10
246.3583301614962
 20
174.7449013317231
 30
0.000000000000000
 11
244.7583301614961
 21
174.7449013317231
 31
0.000000000000000
  0
LINE
  5
136
100
AcDbEntity
  8
A1
  6
CONTINUOUS
 62
7
100
AcDbLine
 10
246.3583301614962
 20
174.7449013317231
 30
0.000000000000000
 11
649.5583301614964
 21
174.7449013317231
 31
0.000000000000000
  0
LINE
  5
137
100
AcDbEntity
  8
A1
  6
CONTINUOUS
 62
7
100
AcDbLine
 10
458.7671343310734
 20
177.6163299031513
 30
0.000000000000000
 11
244.7583301614961
 21
177.6163299031512
 31
0.000000000000000
  0
ARC
  5
138
100
AcDbEntity
  8
A3
  6
DASHED
 62
2
100
AcDbCircle
 10
424.1083301614964
 20
89.55034291101012
 30
0.000000000000000
 40
4.750000000000000
100
AcDbArc
 50
270.0000000000000
 51
450.0000000000000
  0
ARC
  5
139
100
AcDbEntity
  8
A3
  6
DASHED
 62
2
100
AcDbCircle
 10
420.9083301614964
 20
89.55034291101012
 30
0.000000000000000
 40
4.750000000000000
100
AcDbArc
 50
90.00000000000000
 51
270.0000000000000
  0
LINE
  5
13A
100
AcDbEntity
  8
A3
  6
DASHED
 62
2
100
AcDbLine
 10
424.1083301614964
 20
84.80034291101015
 30
0.000000000000000
 11
420.9083301614964
 21
84.80034291101015
 31
0.000000000000000
  0
LINE
  5
13B
100
AcDbEntity
  8
A3
  6
DASHED
 62
2
100
AcDbLine
 10
420.9083301614964
 20
94.30034291101015
 30
0.000000000000000
 11
424.1083301614964
 21
94.30034291101015
 31
0.000000000000000
  0
ARC
  5
13C
100
AcDbEntity
  8
A3
  6
DASHED
 62
2
100
AcDbCircle
 10
487.3583301614962
 20
89.15034291101047
 30
0.000000000000000
 40
2.250000000000000
100
AcDbArc
 50
180.0000000000000
 51
360.0000000000000
  0
ARC
  5
13D
100
AcDbEntity
  8
A3
  6
DASHED
 62
2
100
AcDbCircle
 10
487.3583301614962
 20
89.95034291101047
 30
0.000000000000000
 40
2.250000000000000
100
AcDbArc
 50
0.000000000000000
 51
180.0000000000000
  0
ARC
  5
13E
100
AcDbEntity
  8
A3
  6
DASHED
 62
2
100
AcDbCircle
 10
499.6583301614961
 20
89.55034291101046
 30
0.000000000000000
 40
2.250000000000000
100
AcDbArc
 50
90.00000000000000
 51
270.0000000000000
  0
ARC
  5
13F
100
AcDbEntity
  8
A3
  6
DASHED
 62
2
100
AcDbCircle
 10
500.4583301614961
 20
89.55034291101046
 30
0.000000000000000
 40
2.250000000000000
100
AcDbArc
 50
270.0000000000000
 51
450.0000000000000
  0
ARC
  5
140
100
AcDbEntity
  8
A3
  6
DASHED
 62
2
100
AcDbCircle
 10
585.3583301614962
 20
89.55034291101046
 30
0.000000000000000
 40
2.250000000000000
100
AcDbArc
 50
90.00000000000000
 51
270.0000000000000
  0
ARC
  5
141
100
AcDbEntity
  8
A3
  6
DASHED
 62
2
100
AcDbCircle
 10
586.1583301614962
 20
89.55034291101046
 30
0.000000000000000
 40
2.250000000000000
100
AcDbArc
 50
270.0000000000000
 51
450.0000000000000
  0
LINE
  5
142
100
AcDbEntity
  8
A3
  6
DASHED
 62
2
100
AcDbLine
 10
489.6083301614962
 20
89.95034291101047
 30
0.000000000000000
 11
489.6083301614962
 21
89.15034291101047
 31
0.000000000000000
  0
LINE
  5
143
100
AcDbEntity
  8
A3
  6
DASHED
 62
2
100
AcDbLine
 10
485.1083301614962
 20
89.15034291101047
 30
0.000000000000000
 11
485.1083301614962
 21
89.95034291101047
 31
0.000000000000000
  0
LINE
  5
144
100
AcDbEntity
  8
A3
  6
DASHED
 62
2
100
AcDbLine
 10
500.4583301614961
 20
87.30034291101046
 30
0.000000000000000
 11
499.6583301614961
 21
87.30034291101046
 31
0.000000000000000
  0
LINE
  5
145
100
AcDbEntity
  8
A3
  6
DASHED
 62
2
100
AcDbLine
 10
499.6583301614961
 20
91.80034291101046
 30
0.000000000000000
 11
500.4583301614961
 21
91.80034291101046
 31
0.000000000000000
  0
LINE
  5
146
100
AcDbEntity
  8
A3
  6
DASHED
 62
2
100
AcDbLine
 10
586.1583301614962
 20
87.30034291101046
 30
0.000000000000000
 11
585.3583301614962
 21
87.30034291101046
 31
0.000000000000000
  0
LINE
  5
147
100
AcDbEntity
  8
A3
  6
DASHED
 62
2
100
AcDbLine
 10
585.3583301614962
 20
91.80034291101046
 30
0.000000000000000
 11
586.1583301614962
 21
91.80034291101046
 31
0.000000000000000
  0
LINE
  5
148
100
AcDbEntity
  8
A4
  6
CENTER
 62
1
100
AcDbLine
 10
849.2583301614961
 20
85.40034291101057
 30
0.000000000000000
 11
849.2583301614961
 21
93.70034291101058
 31
0.000000000000000
  0
LINE
  5
149
100
AcDbEntity
  8
A4
  6
CENTER
 62
1
100
AcDbLine
 10
836.5583301614961
 20
85.40034291101060
 30
0.000000000000000
 11
836.5583301614961
 21
93.70034291101055
 31
0.000000000000000
  0
LINE
  5
14A
100
AcDbEntity
  8
A4
  6
CENTER
 62
1
100
AcDbLine
 10
725.4583301614962
 20
93.30034291101055
 30
0.000000000000000
 11
725.4583301614962
 21
85.80034291101055
 31
0.000000000000000
  0
LINE
  5
14B
100
AcDbEntity
  8
A4
  6
CENTER
 62
1
100
AcDbLine
 10
585.7583301614961
 20
85.80034291101055
 30
0.000000000000000
 11
585.7583301614961
 21
93.30034291101055
 31
0.000000000000000
  0
LINE
  5
14C
100
AcDbEntity
  8
A4
  6
CENTER
 62
1
100
AcDbLine
 10
500.0583301614961
 20
93.30034291101055
 30
0.000000000000000
 11
500.0583301614961
 21
85.80034291101055
 31
0.000000000000000
  0
LINE
  5
14D
100
AcDbEntity
  8
A4
  6
CENTER
 62
1
100
AcDbLine
 10
487.3583301614962
 20
85.40034291101047
 30
0.000000000000000
 11
487.3583301614962
 21
93.70034291101047
 31
0.000000000000000
  0
LINE
  5
14E
100
AcDbEntity
  8
A4
  6
CENTER
 62
1
100
AcDbLine
 10
474.6583301614961
 20
85.40034291101047
 30
0.000000000000000
 11
474.6583301614961
 21
93.70034291101047
 31
0.000000000000000
  0
LINE
  5
14F
100
AcDbEntity
  8
A4
  6
CENTER
 62
1
100
AcDbLine
 10
421.2583301614962
 20
93.70034291101024
 30
0.000000000000000
 11
421.2583301614962
 21
88.45034291101024
 31
0.000000000000000
  0
LINE
  5
150
100
AcDbEntity
  8
A4
  6
CENTER
 62
1
100
AcDbLine
 10
421.2583301614962
 20
90.65034291101026
 30
0.000000000000000
 11
421.2583301614962
 21
85.40034291101026
 31
0.000000000000000
  0
LINE
  5
151
100
AcDbEntity
  8
A4
  6
CENTER
 62
1
100
AcDbLine
 10
408.5583301614962
 20
90.65034291101023
 30
0.000000000000000
 11
408.5583301614962
 21
85.40034291101023
 31
0.000000000000000
  0
LINE
  5
152
100
AcDbEntity
  8
A4
  6
CENTER
 62
1
100
AcDbLine
 10
408.5583301614962
 20
93.70034291101024
 30
0.000000000000000
 11
408.5583301614962
 21
88.45034291101024
 31
0.000000000000000
  0
LINE
  5
153
100
AcDbEntity
  8
A4
  6
CENTER
 62
1
100
AcDbLine
 10
395.8583301614962
 20
93.30034291101055
 30
0.000000000000000
 11
395.8583301614962
 21
85.80034291101055
 31
0.000000000000000
  0
LINE
  5
154
100
AcDbEntity
  8
A4
  6
CENTER
 62
1
100
AcDbLine
 10
310.1583301614961
 20
93.30034291101055
 30
0.000000000000000
 11
310.1583301614961
 21
85.80034291101055
 31
0.000000000000000
  0
LINE
  5
155
100
AcDbEntity
  8
A4
  6
CENTER
 62
1
100
AcDbLine
 10
170.4583301614961
 20
93.30034291101055
 30
0.000000000000000
 11
170.4583301614961
 21
85.80034291101055
 31
0.000000000000000
  0
LINE
  5
156
100
AcDbEntity
  8
A4
  6
CENTER
 62
1
100
AcDbLine
 10
46.65833016149608
 20
85.40034291101026
 30
0.000000000000000
 11
46.65833016149608
 21
93.70034291101024
 31
0.000000000000000
  0
LINE
  5
157
100
AcDbEntity
  8
A4
  6
CENTER
 62
1
100
AcDbLine
 10
59.35833016149608
 20
85.40034291101028
 30
0.000000000000000
 11
59.35833016149608
 21
93.70034291101021
 31
0.000000000000000
  0
LINE
  5
158
100
AcDbEntity
  8
A4
  6
CENTER
 62
1
100
AcDbLine
 10
29.25833016149619
 20
89.55034291101029
 30
0.000000000000000
 11
866.6583301614961
 21
89.55034291101049
 31
0.000000000000000
  0
LINE
  5
159
100
AcDbEntity
  8
A4
  6
CENTER
 62
1
100
AcDbLine
 10
836.5583301614961
 20
179.8449013317232
 30
0.000000000000000
 11
836.5583301614961
 21
187.7838122650712
 31
0.000000000000000
  0
LINE
  5
15A
100
AcDbEntity
  8
A4
  6
CENTER
 62
1
100
AcDbLine
 10
725.4583301614962
 20
179.8449013317232
 30
0.000000000000000
 11
725.4583301614962
 21
187.7838122650712
 31
0.000000000000000
  0
LINE
  5
15B
100
AcDbEntity
  8
A4
  6
CENTER
 62
1
100
AcDbLine
 10
585.7583301614961
 20
179.8449013317232
 30
0.000000000000000
 11
585.7583301614961
 21
187.7838122650712
 31
0.000000000000000
  0
LINE
  5
15C
100
AcDbEntity
  8
A4
  6
CENTER
 62
1
100
AcDbLine
 10
500.0583301614961
 20
179.8449013317232
 30
0.000000000000000
 11
500.0583301614961
 21
187.7838122650712
 31
0.000000000000000
  0
LINE
  5
15D
100
AcDbEntity
  8
A4
  6
CENTER
 62
1
100
AcDbLine
 10
487.3583301614962
 20
179.8449013317232
 30
0.000000000000000
 11
487.3583301614962
 21
187.7838122650712
 31
0.000000000000000
  0
LINE
  5
15E
100
AcDbEntity
  8
A4
  6
CENTER
 62
1
100
AcDbLine
 10
474.6583301614961
 20
179.8449013317232
 30
0.000000000000000
 11
474.6583301614961
 21
187.7838122650712
 31
0.000000000000000
  0
LINE
  5
15F
100
AcDbEntity
  8
A4
  6
CENTER
 62
1
100
AcDbLine
 10
408.5583301614969
 20
162.5509047782261
 30
0.000000000000000
 11
408.5583301614969
 21
169.1206377219955
 31
0.000000000000000
  0
LINE
  5
160
100
AcDbEntity
  8
A4
  6
CENTER
 62
1
100
AcDbLine
 10
395.8583301617374
 20
162.5509047782703
 30
0.000000000000000
 11
395.8583301617603
 21
169.1206377220397
 31
0.000000000000000
  0
LINE
  5
161
100
AcDbEntity
  8
A4
  6
CENTER
 62
1
100
AcDbLine
 10
310.1583301615837
 20
162.5509047783787
 30
0.000000000000000
 11
310.1583301615920
 21
169.1206377221481
 31
0.000000000000000
  0
LINE
  5
162
100
AcDbEntity
  8
A4
  6
CENTER
 62
1
100
AcDbLine
 10
170.4583301616171
 20
162.5509047786228
 30
0.000000000000000
 11
170.4583301616286
 21
169.1206377223922
 31
0.000000000000000
  0
LINE
  5
163
100
AcDbEntity
  8
A4
  6
CENTER
 62
1
100
AcDbLine
 10
59.35833016148685
 20
162.5509047786079
 30
0.000000000000000
 11
59.35833016148597
 21
169.1206377223773
 31
0.000000000000000
  0
LINE
  5
164
100
AcDbEntity
  8
A4
  6
CENTER
 62
1
100
AcDbLine
 10
46.65833016147684
 20
162.5509047785882
 30
0.000000000000000
 11
46.65833016147501
 21
169.1206377223576
 31
0.000000000000000
  0
LINE
  5
165
100
AcDbEntity
  8
A4
  6
CENTER
 62
1
100
AcDbLine
 10
849.2583301614961
 20
179.8449013317232
 30
0.000000000000000
 11
849.2583301614961
 21
187.7838122650712
 31
0.000000000000000
  0
LINE
  5
166
100
AcDbEntity
  8
A1
  6
CONTINUOUS
 62
7
100
AcDbLine
 10
419.7583301614962
 20
93.70034291101373
 30
0.000000000000000
 11
419.7583301615277
 21
107.2003429110104
 31
0.000000000000000
  0
LINE
  5
167
100
AcDbEntity
  8
A4
  6
CENTER
 62
1
100
AcDbLine
 10
421.2583301616660
 20
162.5509047782260
 30
0.000000000000000
 11
421.2583301616660
 21
169.1206377219954
 31
0.000000000000000
  0
LINE
  5
168
100
AcDbEntity
  8
A3
  6
DASHED
 62
2
100
AcDbLine
 10
458.7583301614965
 20
181.3449013317229
 30
0.000000000000000
 11
649.5583301614964
 21
181.3449013317229
 31
0.000000000000000
  0
LINE
  5
169
100
AcDbEntity
  8
A3
  6
DASHED
 62
2
100
AcDbLine
 10
649.5583301614964
 20
181.3449013317229
 30
0.000000000000000
 11
649.5583301614964
 21
175.7449013317229
 31
0.000000000000000
  0
LINE
  5
16A
100
AcDbEntity
  8
A3
  6
DASHED
 62
2
100
AcDbLine
 10
437.1583301614963
 20
168.1449013317234
 30
0.000000000000000
 11
246.3583301614962
 21
168.1449013317234
 31
0.000000000000000
  0
LINE
  5
16B
100
AcDbEntity
  8
A3
  6
DASHED
 62
2
100
AcDbLine
 10
246.3583301614962
 20
168.1449013317234
 30
0.000000000000000
 11
246.3583301614962
 21
173.7449013317231
 31
0.000000000000000
  0
LINE
  5
16C
100
AcDbEntity
  8
A1
  6
CONTINUOUS
 62
7
100
AcDbLine
 10
32.43625206043464
 20
165.1449013317232
 30
0.000000000000000
 11
437.1583301614963
 21
165.1449013317232
 31
0.000000000000000
  0
LINE
  5
16D
100
AcDbEntity
  8
A3
  6
DASHED
 62
2
100
AcDbLine
 10
458.7583301614962
 20
101.6754355048721
 30
0.000000000000000
 11
458.7583301614962
 21
77.42525031714882
 31
0.000000000000000
  0
ARC
  5
16E
100
AcDbEntity
  8
A1
  6
CONTINUOUS
 62
7
100
AcDbCircle
 10
474.6583301614961
 20
89.15034291101026
 30
0.000000000000000
 40
2.250000000000000
100
AcDbArc
 50
180.0000000000000
 51
360.0000000000000
  0
LINE
  5
16F
100
AcDbEntity
  8
A1
  6
CONTINUOUS
 62
7
100
AcDbLine
 10
476.9083301614961
 20
89.95034291101024
 30
0.000000000000000
 11
476.9083301614961
 21
89.15034291101026
 31
0.000000000000000
  0
LINE
  5
170
100
AcDbEntity
  8
A1
  6
CONTINUOUS
 62
7
100
AcDbLine
 10
472.4083301614961
 20
89.15034291101026
 30
0.000000000000000
 11
472.4083301614961
 21
89.95034291101024
 31
0.000000000000000
  0
ARC
  5
171
100
AcDbEntity
  8
A1
  6
CONTINUOUS
 62
7
100
AcDbCircle
 10
474.6583301614961
 20
89.95034291101024
 30
0.000000000000000
 40
2.250000000000000
100
AcDbArc
 50
0.000000000000000
 51
180.0000000000000
  0
ENDSEC
  0
SECTION
  2
OBJECTS
  0
DICTIONARY
  5
1A3
100
AcDbDictionary
  3
ACAD_GROUP
350
1A4
  3
ACAD_LAYOUT
350
1A5
  3
ACAD_MLINESTYLE
350
1A6
  0
DICTIONARY
  5
1A4
102
{ACAD_REACTORS
330
1A3
102
}
330
1A3
100
AcDbDictionary
  0
DICTIONARY
  5
1A5
102
{ACAD_REACTORS
330
1A3
102
}
330
1A3
100
AcDbDictionary
  3
Model
350
1A7
  3
ﾚｲｱｳﾄ1
350
1A8
  3
ﾚｲｱｳﾄ2
350
1A9
  0
DICTIONARY
  5
1A6
102
{ACAD_REACTORS
330
1A3
102
}
330
1A3
100
AcDbDictionary
  3
STANDARD
350
1AA
  0
LAYOUT
  5
1A7
102
{ACAD_REACTORS
330
1A5
102
}
330
1A5
100
AcDbPlotSettings
 70
11952
  4
A3
 44
297.000000
 45
420.000000
 73
  1
 72
  1
100
AcDbLayout
  1
Model
 71
0
330
19A
  0
LAYOUT
  5
1A8
102
{ACAD_REACTORS
330
1A5
102
}
330
1A5
100
AcDbPlotSettings
100
AcDbLayout
  1
ﾚｲｱｳﾄ1
 71
1
330
19B
  0
LAYOUT
  5
1A9
102
{ACAD_REACTORS
330
1A5
102
}
330
1A5
100
AcDbPlotSettings
100
AcDbLayout
  1
ﾚｲｱｳﾄ2
 71
2
330
19C
  0
MLINESTYLE
  5
1AA
102
{ACAD_REACTORS
330
1A6
102
}
330
1A6
100
AcDbMlineStyle
  2
STANDARD
 70
     0
  3

 62
   256
 51
90.00
 52
90.00
 71
     2
 49
0.50
 62
   256
  6
BYLAYER
 49
-0.50
 62
   256
  6
BYLAYER
  0
ENDSEC
  0
EOF
