  0
SECTION
  2
HEADER
  9
$ACADVER
  1
AC1027
  9
$DWGCODEPAGE
  3
ANSI_932
  9
$LTSCALE
 40
20.0
  9
$FILLMODE
 70
     1
  9
$CLAYER
  8
0
  9
$PDMODE
 70
     0
  9
$SPLFRAME
 70
     0
  9
$SPLINETYPE
 70
     6
  9
$SPLINESEGS
 70
     8
  9
$DIMASZ
 40
2.000000
  9
$DIMEXE
 40
1.500000
  9
$DIMEXO
 40
0.800000
  9
$DIMTAD
 70
     1
  9
$DIMTIH
 70
     0
  9
$DIMTOH
 70
     0
  9
$DIMTVP
 40
0.500000
  9
$DIMTXT
 40
3.100000
  9
$EXTMIN
 10
0.000000
 20
0.000000
 30
0.000000
  9
$EXTMAX
 10
297.000000
 20
420.000000
 30
0.000000
  9
$MEASUREMENT
 70
  1
  9
$LIMMIN
 10
0.000000
 20
0.000000
  9
$LIMMAX
 10
297.000000
 20
420.000000
  9
$HANDSEED
  5
1B7
  9
$LWDISPLAY
290
     0
  9
$DIMBLK
  1
_OPEN
  9
$DIMDEC
 70
     2
  9
$DIMADEC
 70
     2
  9
$DIMAUNIT
 70
     0
  9
$DIMZIN
 70
     8
  9
$DIMAZIN
 70
     2
  9
$DIMTOFL
 70
     1
  0
ENDSEC
  0
SECTION
  2
CLASSES
  0
ENDSEC
  0
SECTION
  2
TABLES
  0
TABLE
  2
VPORT
  5
17E
100
AcDbSymbolTable
 70
     1
  0
VPORT
  5
17F
100
AcDbSymbolTableRecord
100
AcDbViewportTableRecord
  2
*ACTIVE
 70
     0
 12
485.779997
 22
102.023115
 40
168.046229
 41
5.662489
  0
ENDTAB
  0
TABLE
  2
LTYPE
  5
180
100
AcDbSymbolTable
 70
     3
  0
LTYPE
  5
181
100
AcDbSymbolTableRecord
100
AcDbLinetypeTableRecord
  2
BYBLOCK
 70
     0
  3

 72
    65
 73
     0
 40
0.0
  0
LTYPE
  5
182
100
AcDbSymbolTableRecord
100
AcDbLinetypeTableRecord
  2
BYLAYER
 70
     0
  3

 72
    65
 73
     0
 40
0.0
  0
LTYPE
  5
183
100
AcDbSymbolTableRecord
100
AcDbLinetypeTableRecord
  2
CONTINUOUS
 70
     0
  3
Solid line (NEC CAE2D for Win R18.0 : 2026.03.12)
 72
    65
 73
     0
 40
0.0
  0
LTYPE
  5
184
100
AcDbSymbolTableRecord
100
AcDbLinetypeTableRecord
  2
DASHED
 70
     0
  3
__ __ __ __ __ __ __ __ __ __ __ __ __ _
 72
    65
 73
     2
 40
0.75
 49
0.5
 74
     0
 49
-0.25
 74
     0
  0
LTYPE
  5
185
100
AcDbSymbolTableRecord
100
AcDbLinetypeTableRecord
  2
CENTER
 70
     0
  3
____ _ ____ _ ____ _ ____ _ ____ _ ____
 72
    65
 73
     4
 40
2.0
 49
1.25
 74
     0
 49
-0.25
 74
     0
 49
0.25
 74
     0
 49
-0.25
 74
     0
  0
ENDTAB
  0
TABLE
  2
LAYER
  5
186
100
AcDbSymbolTable
 70
    18
  0
LAYER
  5
187
100
AcDbSymbolTableRecord
100
AcDbLayerTableRecord
  2
0
 70
     0
 62
     7
  6
CONTINUOUS
370
    -3
390

  0
LAYER
  5
188
100
AcDbSymbolTableRecord
100
AcDbLayerTableRecord
  2
DXF0
 70
     0
 62
     7
  6
CONTINUOUS
370
    -3
390

  0
LAYER
  5
189
100
AcDbSymbolTableRecord
100
AcDbLayerTableRecord
  2
A0
 70
     0
 62
     9
  6
CONTINUOUS
370
    -3
390

  0
LAYER
  5
18A
100
AcDbSymbolTableRecord
100
AcDbLayerTableRecord
  2
A1
 70
     0
 62
    12
  6
CONTINUOUS
370
    -3
390

  0
LAYER
  5
18B
100
AcDbSymbolTableRecord
100
AcDbLayerTableRecord
  2
A2
 70
     0
 62
     9
  6
CONTINUOUS
370
    -3
390

  0
LAYER
  5
18C
100
AcDbSymbolTableRecord
100
AcDbLayerTableRecord
  2
A3
 70
     0
 62
    12
  6
CONTINUOUS
370
    -3
390

  0
LAYER
  5
18D
100
AcDbSymbolTableRecord
100
AcDbLayerTableRecord
  2
A4
 70
     0
 62
     9
  6
CONTINUOUS
370
    -3
390

  0
LAYER
  5
18E
100
AcDbSymbolTableRecord
100
AcDbLayerTableRecord
  2
A5
 70
     0
 62
     8
  6
CONTINUOUS
370
    -3
390

  0
LAYER
  5
18F
100
AcDbSymbolTableRecord
100
AcDbLayerTableRecord
  2
A6
 70
     0
 62
    12
  6
CONTINUOUS
370
    -3
390

  0
LAYER
  5
190
100
AcDbSymbolTableRecord
100
AcDbLayerTableRecord
  2
A8
 70
     0
 62
    10
  6
CONTINUOUS
370
    -3
390

  0
LAYER
  5
191
100
AcDbSymbolTableRecord
100
AcDbLayerTableRecord
  2
A9
 70
     0
 62
     9
  6
CONTINUOUS
370
    -3
390

  0
LAYER
  5
192
100
AcDbSymbolTableRecord
100
AcDbLayerTableRecord
  2
A10
 70
     0
 62
     6
  6
CONTINUOUS
370
    -3
390

  0
LAYER
  5
193
100
AcDbSymbolTableRecord
100
AcDbLayerTableRecord
  2
A20
 70
     0
 62
     1
  6
CONTINUOUS
370
    -3
390

  0
LAYER
  5
194
100
AcDbSymbolTableRecord
100
AcDbLayerTableRecord
  2
A30
 70
     0
 62
     1
  6
CONTINUOUS
370
    -3
390

  0
LAYER
  5
195
100
AcDbSymbolTableRecord
100
AcDbLayerTableRecord
  2
A40
 70
     0
 62
     9
  6
CONTINUOUS
370
    -3
390

  0
LAYER
  5
196
100
AcDbSymbolTableRecord
100
AcDbLayerTableRecord
  2
A50
 70
     0
 62
    12
  6
CONTINUOUS
370
    -3
390

  0
LAYER
  5
197
100
AcDbSymbolTableRecord
100
AcDbLayerTableRecord
  2
A1023
 70
     0
 62
     8
  6
CONTINUOUS
370
    -3
390

  0
LAYER
  5
198
100
AcDbSymbolTableRecord
100
AcDbLayerTableRecord
  2
DXF1023
 70
     0
 62
    16
  6
CONTINUOUS
370
    -3
390

  0
ENDTAB
  0
TABLE
  2
STYLE
  5
199
100
AcDbSymbolTable
 70
     4
  0
STYLE
  5
19A
100
AcDbSymbolTableRecord
100
AcDbTextStyleTableRecord
  2
STANDARD
 70
    64
 40
0.0
 41
1.0
 50
0.0
 71
     0
 42
3.000000000000000
  3
TXT
  4

  0
STYLE
  5
19B
100
AcDbSymbolTableRecord
100
AcDbTextStyleTableRecord
  2
ANKTATE
 70
    68
 40
0.0
 41
1.0
 50
0.0
 71
     0
 42
3.000000000000000
  3
TXT
  4

  0
STYLE
  5
19C
100
AcDbSymbolTableRecord
100
AcDbTextStyleTableRecord
  2
KNJYOKO
 70
    64
 40
0.0
 41
1.0
 50
0.0
 71
     0
 42
3.000000000000000
  3
TXT
  4
BIGFONT
  0
STYLE
  5
19D
100
AcDbSymbolTableRecord
100
AcDbTextStyleTableRecord
  2
KNJTATE
 70
    68
 40
0.0
 41
1.0
 50
0.0
 71
     0
 42
3.000000000000000
  3
TXT
  4
BIGFONT
  0
ENDTAB
  0
TABLE
  2
VIEW
  5
19E
100
AcDbSymbolTable
 70
     0
  0
ENDTAB
  0
TABLE
  2
UCS
  5
19F
100
AcDbSymbolTable
 70
     0
  0
ENDTAB
  0
TABLE
  2
APPID
  5
1A0
100
AcDbSymbolTable
 70
     1
  0
APPID
  5
1A1
100
AcDbSymbolTableRecord
100
AcDbRegAppTableRecord
  2
ACAD
 70
     0
  0
ENDTAB
  0
TABLE
  2
DIMSTYLE
  5
1A2
100
AcDbSymbolTable
 70
     2
100
AcDbDimStyleTable
  0
DIMSTYLE
105
1A3
100
AcDbSymbolTableRecord
100
AcDbDimStyleTableRecord
  2
STANDARD
 70
     0
 41
2.000000
 44
1.500000
 42
0.800000
145
0.661290
140
3.100000
144
1.000000
146
0.645161
340
19A
  0
DIMSTYLE
105
1A4
100
AcDbSymbolTableRecord
100
AcDbDimStyleTableRecord
  2
DXF001
 70
     0
 41
2.000000
 44
1.500000
 42
0.800000
145
0.661290
140
3.100000
144
1.000000
146
0.645161
 77
     1
 73
     0
 74
     0
271
     2
179
     2
275
     0
 78
     8
 79
     2
172
     1
340
19A
  0
ENDTAB
  0
TABLE
  2
BLOCK_RECORD
  5
1A5
100
AcDbSymbolTable
 70
    12
  0
BLOCK_RECORD
  5
1A6
100
AcDbSymbolTableRecord
100
AcDbBlockTableRecord
  2
*MODEL_SPACE
  0
BLOCK_RECORD
  5
1A7
100
AcDbSymbolTableRecord
100
AcDbBlockTableRecord
  2
*PAPER_SPACE
  0
BLOCK_RECORD
  5
1A8
100
AcDbSymbolTableRecord
100
AcDbBlockTableRecord
  2
*PAPER_SPACE0
  0
BLOCK_RECORD
  5
1
100
AcDbSymbolTableRecord
100
AcDbBlockTableRecord
  2
_NONE
  0
BLOCK_RECORD
  5
4
100
AcDbSymbolTableRecord
100
AcDbBlockTableRecord
  2
_CLOSED
  0
BLOCK_RECORD
  5
B
100
AcDbSymbolTableRecord
100
AcDbBlockTableRecord
  2
_DOT
  0
BLOCK_RECORD
  5
13
100
AcDbSymbolTableRecord
100
AcDbBlockTableRecord
  2
_OPEN
  0
BLOCK_RECORD
  5
19
100
AcDbSymbolTableRecord
100
AcDbBlockTableRecord
  2
_ORIGIN
  0
BLOCK_RECORD
  5
1E
100
AcDbSymbolTableRecord
100
AcDbBlockTableRecord
  2
_OPEN30
  0
BLOCK_RECORD
  5
24
100
AcDbSymbolTableRecord
100
AcDbBlockTableRecord
  2
_BOXFILLED
  0
BLOCK_RECORD
  5
29
100
AcDbSymbolTableRecord
100
AcDbBlockTableRecord
  2
_BOXBLANK
  0
BLOCK_RECORD
  5
31
100
AcDbSymbolTableRecord
100
AcDbBlockTableRecord
  2
_OBLIQUE
  0
BLOCK_RECORD
  5
35
100
AcDbSymbolTableRecord
100
AcDbBlockTableRecord
  2
_OPEN90
  0
BLOCK_RECORD
  5
3B
100
AcDbSymbolTableRecord
100
AcDbBlockTableRecord
  2
_CLOSEDBLANK
  0
BLOCK_RECORD
  5
41
100
AcDbSymbolTableRecord
100
AcDbBlockTableRecord
  2
_DOTBLANK
  0
ENDTAB
  0
ENDSEC
  0
SECTION
  2
BLOCKS
  0
BLOCK
  5
1A9
100
AcDbEntity
  8
0
100
AcDbBlockBegin
  2
*MODEL_SPACE
 70
     0
 10
0.0
 20
0.0
 30
0.0
  3
*MODEL_SPACE
  1

  0
ENDBLK
  5
1AA
100
AcDbEntity
  8
0
100
AcDbBlockEnd
  0
BLOCK
  5
1AB
100
AcDbEntity
  8
0
100
AcDbBlockBegin
  2
*PAPER_SPACE
 70
     0
 10
0.0
 20
0.0
 30
0.0
  3
*PAPER_SPACE
  1

  0
ENDBLK
  5
1AC
100
AcDbEntity
  8
0
100
AcDbBlockEnd
  0
BLOCK
  5
1AD
100
AcDbEntity
  8
0
100
AcDbBlockBegin
  2
*PAPER_SPACE0
 70
     0
 10
0.0
 20
0.0
 30
0.0
  3
*PAPER_SPACE0
  1

  0
ENDBLK
  5
1AE
100
AcDbEntity
  8
0
100
AcDbBlockEnd
  0
BLOCK
  5
2
330
1
100
AcDbEntity
  8
0
100
AcDbBlockBegin
  2
_NONE
 70
     0
 10
0.0
 20
0.0
 30
0.0
  3
_NONE
  1

  0
ENDBLK
  5
3
330
1
100
AcDbEntity
  8
0
100
AcDbBlockEnd
  0
BLOCK
  5
5
330
4
100
AcDbEntity
  8
0
100
AcDbBlockBegin
  2
_CLOSED
 70
     0
 10
0.0
 20
0.0
 30
0.0
  3
_CLOSED
  1

  0
LINE
  5
6
330
4
100
AcDbEntity
  8
0
  6
BYBLOCK
 62
     0
370
    -2
100
AcDbLine
 10
-1.0
 20
0.166667
 30
0.0
 11
0.0
 21
0.0
 31
0.0
  0
LINE
  5
7
330
4
100
AcDbEntity
  8
0
  6
BYBLOCK
 62
     0
370
    -2
100
AcDbLine
 10
0.0
 20
0.0
 30
0.0
 11
-1.0
 21
-0.166667
 31
0.0
  0
LINE
  5
8
330
4
100
AcDbEntity
  8
0
  6
BYBLOCK
 62
     0
370
    -2
100
AcDbLine
 10
-1.0
 20
0.166667
 30
0.0
 11
-1.0
 21
-0.166667
 31
0.0
  0
LINE
  5
9
330
4
100
AcDbEntity
  8
0
  6
BYBLOCK
 62
     0
370
    -2
100
AcDbLine
 10
0.0
 20
0.0
 30
0.0
 11
-1.0
 21
0.0
 31
0.0
  0
ENDBLK
  5
A
330
4
100
AcDbEntity
  8
0
100
AcDbBlockEnd
  0
BLOCK
  5
C
330
B
100
AcDbEntity
  8
0
100
AcDbBlockBegin
  2
_DOT
 70
     0
 10
0.0
 20
0.0
 30
0.0
  3
_DOT
  1

  0
POLYLINE
  5
D
330
B
100
AcDbEntity
  8
0
  6
BYBLOCK
 62
     0
370
    -2
100
AcDb2dPolyline
 66
     1
 10
0.0
 20
0.0
 30
0.0
 70
     1
 40
0.5
 41
0.5
  0
VERTEX
  5
E
330
B
100
AcDbEntity
  8
0
  6
BYBLOCK
 62
     0
370
    -2
100
AcDbVertex
100
AcDb2dVertex
 10
-0.25
 20
0.0
 30
0.0
 42
1.0
  0
VERTEX
  5
F
330
B
100
AcDbEntity
  8
0
  6
BYBLOCK
 62
     0
370
    -2
100
AcDbVertex
100
AcDb2dVertex
 10
0.25
 20
0.0
 30
0.0
 42
1.0
  0
SEQEND
  5
10
330
B
100
AcDbEntity
  8
0
  6
BYBLOCK
 62
     0
370
    -2
  0
LINE
  5
11
330
B
100
AcDbEntity
  8
0
  6
BYBLOCK
 62
     0
370
    -2
100
AcDbLine
 10
-0.5
 20
0.0
 30
0.0
 11
-1.0
 21
0.0
 31
0.0
  0
ENDBLK
  5
12
330
B
100
AcDbEntity
  8
0
100
AcDbBlockEnd
  0
BLOCK
  5
14
330
13
100
AcDbEntity
  8
0
100
AcDbBlockBegin
  2
_OPEN
 70
     0
 10
0.0
 20
0.0
 30
0.0
  3
_OPEN
  1

  0
LINE
  5
15
330
13
100
AcDbEntity
  8
0
  6
BYBLOCK
 62
     0
370
    -2
100
AcDbLine
 10
-1.0
 20
0.166667
 30
0.0
 11
0.0
 21
0.0
 31
0.0
  0
LINE
  5
16
330
13
100
AcDbEntity
  8
0
  6
BYBLOCK
 62
     0
370
    -2
100
AcDbLine
 10
0.0
 20
0.0
 30
0.0
 11
-1.0
 21
-0.166667
 31
0.0
  0
LINE
  5
17
330
13
100
AcDbEntity
  8
0
  6
BYBLOCK
 62
     0
370
    -2
100
AcDbLine
 10
0.0
 20
0.0
 30
0.0
 11
-1.0
 21
0.0
 31
0.0
  0
ENDBLK
  5
18
330
13
100
AcDbEntity
  8
0
100
AcDbBlockEnd
  0
BLOCK
  5
1A
330
19
100
AcDbEntity
  8
0
100
AcDbBlockBegin
  2
_ORIGIN
 70
     0
 10
0.0
 20
0.0
 30
0.0
  3
_ORIGIN
  1

  0
CIRCLE
  5
1B
330
19
100
AcDbEntity
  8
0
  6
BYBLOCK
 62
     0
370
    -2
100
AcDbCircle
 10
0.0
 20
0.0
 30
0.0
 40
0.5
  0
LINE
  5
1C
330
19
100
AcDbEntity
  8
0
  6
BYBLOCK
 62
     0
370
    -2
100
AcDbLine
 10
0.0
 20
0.0
 30
0.0
 11
-1.0
 21
0.0
 31
0.0
  0
ENDBLK
  5
1D
330
19
100
AcDbEntity
  8
0
100
AcDbBlockEnd
  0
BLOCK
  5
1F
330
1E
100
AcDbEntity
  8
0
100
AcDbBlockBegin
  2
_OPEN30
 70
     0
 10
0.0
 20
0.0
 30
0.0
  3
_OPEN30
  1

  0
LINE
  5
20
330
1E
100
AcDbEntity
  8
0
  6
BYBLOCK
 62
     0
370
    -2
100
AcDbLine
 10
-1.0
 20
0.267949
 30
0.0
 11
0.0
 21
0.0
 31
0.0
  0
LINE
  5
21
330
1E
100
AcDbEntity
  8
0
  6
BYBLOCK
 62
     0
370
    -2
100
AcDbLine
 10
0.0
 20
0.0
 30
0.0
 11
-1.0
 21
-0.267949
 31
0.0
  0
LINE
  5
22
330
1E
100
AcDbEntity
  8
0
  6
BYBLOCK
 62
     0
370
    -2
100
AcDbLine
 10
0.0
 20
0.0
 30
0.0
 11
-1.0
 21
0.0
 31
0.0
  0
ENDBLK
  5
23
330
1E
100
AcDbEntity
  8
0
100
AcDbBlockEnd
  0
BLOCK
  5
25
330
24
100
AcDbEntity
  8
0
100
AcDbBlockBegin
  2
_BOXFILLED
 70
     0
 10
0.0
 20
0.0
 30
0.0
  3
_BOXFILLED
  1

  0
SOLID
  5
26
330
24
100
AcDbEntity
  8
0
  6
BYBLOCK
 62
     0
370
    -2
100
AcDbTrace
 10
-0.5
 20
0.5
 30
0.0
 11
0.5
 21
0.5
 31
0.0
 12
-0.5
 22
-0.5
 32
0.0
 13
0.5
 23
-0.5
 33
0.0
  0
LINE
  5
27
330
24
100
AcDbEntity
  8
0
  6
BYBLOCK
 62
     0
370
    -2
100
AcDbLine
 10
-0.5
 20
0.0
 30
0.0
 11
-1.0
 21
0.0
 31
0.0
  0
ENDBLK
  5
28
330
24
100
AcDbEntity
  8
0
100
AcDbBlockEnd
  0
BLOCK
  5
2A
330
29
100
AcDbEntity
  8
0
100
AcDbBlockBegin
  2
_BOXBLANK
 70
     0
 10
0.0
 20
0.0
 30
0.0
  3
_BOXBLANK
  1

  0
LINE
  5
2B
330
29
100
AcDbEntity
  8
0
  6
BYBLOCK
 62
     0
370
    -2
100
AcDbLine
 10
-0.5
 20
-0.5
 30
0.0
 11
0.5
 21
-0.5
 31
0.0
  0
LINE
  5
2C
330
29
100
AcDbEntity
  8
0
  6
BYBLOCK
 62
     0
370
    -2
100
AcDbLine
 10
0.5
 20
-0.5
 30
0.0
 11
0.5
 21
0.5
 31
0.0
  0
LINE
  5
2D
330
29
100
AcDbEntity
  8
0
  6
BYBLOCK
 62
     0
370
    -2
100
AcDbLine
 10
0.5
 20
0.5
 30
0.0
 11
-0.5
 21
0.5
 31
0.0
  0
LINE
  5
2E
330
29
100
AcDbEntity
  8
0
  6
BYBLOCK
 62
     0
370
    -2
100
AcDbLine
 10
-0.5
 20
0.5
 30
0.0
 11
-0.5
 21
-0.5
 31
0.0
  0
LINE
  5
2F
330
29
100
AcDbEntity
  8
0
  6
BYBLOCK
 62
     0
370
    -2
100
AcDbLine
 10
-0.5
 20
0.0
 30
0.0
 11
-1.0
 21
0.0
 31
0.0
  0
ENDBLK
  5
30
330
29
100
AcDbEntity
  8
0
100
AcDbBlockEnd
  0
BLOCK
  5
32
330
31
100
AcDbEntity
  8
0
100
AcDbBlockBegin
  2
_OBLIQUE
 70
     0
 10
0.0
 20
0.0
 30
0.0
  3
_OBLIQUE
  1

  0
LINE
  5
33
330
31
100
AcDbEntity
  8
0
  6
BYBLOCK
 62
     0
370
    -2
100
AcDbLine
 10
-0.5
 20
-0.5
 30
0.0
 11
0.5
 21
0.5
 31
0.0
  0
ENDBLK
  5
34
330
31
100
AcDbEntity
  8
0
100
AcDbBlockEnd
  0
BLOCK
  5
36
330
35
100
AcDbEntity
  8
0
100
AcDbBlockBegin
  2
_OPEN90
 70
     0
 10
0.0
 20
0.0
 30
0.0
  3
_OPEN90
  1

  0
LINE
  5
37
330
35
100
AcDbEntity
  8
0
  6
BYBLOCK
 62
     0
370
    -2
100
AcDbLine
 10
-0.5
 20
0.5
 30
0.0
 11
0.0
 21
0.0
 31
0.0
  0
LINE
  5
38
330
35
100
AcDbEntity
  8
0
  6
BYBLOCK
 62
     0
370
    -2
100
AcDbLine
 10
0.0
 20
0.0
 30
0.0
 11
-0.5
 21
-0.5
 31
0.0
  0
LINE
  5
39
330
35
100
AcDbEntity
  8
0
  6
BYBLOCK
 62
     0
370
    -2
100
AcDbLine
 10
0.0
 20
0.0
 30
0.0
 11
-1.0
 21
0.0
 31
0.0
  0
ENDBLK
  5
3A
330
35
100
AcDbEntity
  8
0
100
AcDbBlockEnd
  0
BLOCK
  5
3C
330
3B
100
AcDbEntity
  8
0
100
AcDbBlockBegin
  2
_CLOSEDBLANK
 70
     0
 10
0.0
 20
0.0
 30
0.0
  3
_CLOSEDBLANK
  1

  0
LINE
  5
3D
330
3B
100
AcDbEntity
  8
0
  6
BYBLOCK
 62
     0
370
    -2
100
AcDbLine
 10
-1.0
 20
0.1666666666666666
 30
0.0
 11
0.0
 21
0.0
 31
0.0
  0
LINE
  5
3E
330
3B
100
AcDbEntity
  8
0
  6
BYBLOCK
 62
     0
370
    -2
100
AcDbLine
 10
0.0
 20
0.0
 30
0.0
 11
-1.0
 21
-0.1666666666666666
 31
0.0
  0
LINE
  5
3F
330
3B
100
AcDbEntity
  8
0
  6
BYBLOCK
 62
     0
370
    -2
100
AcDbLine
 10
-1.0
 20
0.1666666666666666
 30
0.0
 11
-1.0
 21
-0.1666666666666666
 31
0.0
  0
ENDBLK
  5
40
330
3B
100
AcDbEntity
  8
0
100
AcDbBlockEnd
  0
BLOCK
  5
42
330
41
100
AcDbEntity
  8
0
100
AcDbBlockBegin
  2
_DOTBLANK
 70
     0
 10
0.0
 20
0.0
 30
0.0
  3
_DOTBLANK
  1

  0
CIRCLE
  5
43
330
41
100
AcDbEntity
  8
0
  6
BYBLOCK
 62
     0
370
    -2
100
AcDbCircle
 10
0.0
 20
0.0
 30
0.0
 40
0.5
  0
LINE
  5
44
330
41
100
AcDbEntity
  8
0
  6
BYBLOCK
 62
     0
370
    -2
100
AcDbLine
 10
-0.5
 20
0.0
 30
0.0
 11
-1.0
 21
0.0
 31
0.0
  0
ENDBLK
  5
45
330
41
100
AcDbEntity
  8
0
100
AcDbBlockEnd
  0
ENDSEC
  0
SECTION
  2
ENTITIES
  0
MTEXT
  5
46
100
AcDbEntity
  8
A8
  6
CONTINUOUS
 62
3
100
AcDbMText
 10
9.999997526638502
 20
18.00000076076889
 30
0.000000000000000
 40
3.000000000000000
 41
0.000000000000000
 44
0.6739999771118164
 71
     7
 72
     1
  1
{\H0.94x;{TYPE No.TM-358-18}}
 11
1.000000000000000
 21
0.000000000000000
 31
0.000000000000000
  7
STANDARD
  0
POINT
  5
47
100
AcDbEntity
  8
A0
  6
CONTINUOUS
 62
3
100
AcDbPoint
 10
9.999997526638502
 20
18.00000076076889
 30
0.000000000000000
  0
POINT
  5
48
100
AcDbEntity
  8
A10
  6
CONTINUOUS
 62
3
100
AcDbPoint
 10
50.00000000000000
 20
50.00000000000000
 30
0.000000000000000
  0
SPLINE
  5
49
100
AcDbEntity
  8
A1
  6
CONTINUOUS
 62
7
100
AcDbSpline
210
0.000000000000000
220
0.000000000000000
230
1.000000000000000
 70
     8
 71
     3
 72
    11
 73
     7
 74
     0
 42
1.000000000000000e-07
 43
1.000000000000000e-07
 12
-0.8243239903895301
 22
-0.5661183258544042
 32
0.000000000000000
 13
0.01039795576980396
 23
-0.9999459397974988
 33
0.000000000000000
 40
0.000000000000000
 40
0.000000000000000
 40
0.000000000000000
 40
0.000000000000000
 40
0.03379741434395810
 40
0.1082274051015845
 40
0.2407267954020633
 40
0.4307723479019956
 40
0.4307723479019956
 40
0.4307723479019956
 40
0.4307723479019956
 10
502.8970344557630
 20
111.4973753005173
 30
0.000000000000000
 10
502.8877477826107
 20
111.4909975219751
 30
0.000000000000000
 10
502.8591773031881
 20
111.4653580186070
 30
0.000000000000000
 10
502.8657594961653
 20
111.3775720284336
 30
0.000000000000000
 10
502.8575881645853
 20
111.2497763302659
 30
0.000000000000000
 10
502.8593383449179
 20
111.1407203934400
 30
0.000000000000000
 10
502.8599970400009
 20
111.0773753005737
 30
0.000000000000000
  0
SPLINE
  5
4A
100
AcDbEntity
  8
A1
  6
CONTINUOUS
 62
7
100
AcDbSpline
210
0.000000000000000
220
0.000000000000000
230
1.000000000000000
 70
     8
 71
     3
 72
    19
 73
    15
 74
     0
 42
1.000000000000000e-07
 43
1.000000000000000e-07
 12
0.9771582112007309
 22
0.2125131297270855
 32
0.000000000000000
 13
0.9999990834721757
 23
0.001353904114353099
 33
0.000000000000000
 40
0.000000000000000
 40
0.000000000000000
 40
0.000000000000000
 40
0.000000000000000
 40
0.01987916097022160
 40
0.1081873548124123
 40
0.1803980812258053
 40
0.2720195744910130
 40
0.4629848704361588
 40
0.7050456709827349
 40
0.9581915100138034
 40
1.239982642070536
 40
1.559739519563005
 40
1.898168540833193
 40
2.267010472578601
 40
2.648452596355727
 40
2.648452596355727
 40
2.648452596355727
 40
2.648452596355727
 10
502.8970853520331
 20
79.39737535753794
 30
0.000000000000000
 10
502.9035603804910
 20
79.39878355177598
 30
0.000000000000000
 10
502.9387778471825
 20
79.40824184199758
 30
0.000000000000000
 10
502.9820193782262
 20
79.45432589497015
 30
0.000000000000000
 10
503.0445689274710
 20
79.50911866102291
 30
0.000000000000000
 10
503.1313057012767
 20
79.59005112259578
 30
0.000000000000000
 10
503.2635578355726
 20
79.70428181429871
 30
0.000000000000000
 10
503.4450463319538
 20
79.84390309099672
 30
0.000000000000000
 10
503.6614709125413
 20
79.98657002980238
 30
0.000000000000000
 10
503.9112329058511
 20
80.12433192966242
 30
0.000000000000000
 10
504.1987008091192
 20
80.25025210725596
 30
0.000000000000000
 10
504.5254415487624
 20
80.35465381128209
 30
0.000000000000000
 10
504.8824465583044
 20
80.42464965764752
 30
0.000000000000000
 10
505.1328497819428
 20
80.44088460856528
 30
0.000000000000000
 10
505.2599970400011
 20
80.44105675391887
 30
0.000000000000000
  0
SPLINE
  5
4B
100
AcDbEntity
  8
A1
  6
CONTINUOUS
 62
7
100
AcDbSpline
210
0.000000000000000
220
0.000000000000000
230
1.000000000000000
 70
     8
 71
     3
 72
    11
 73
     7
 74
     0
 42
1.000000000000000e-07
 43
1.000000000000000e-07
 12
-0.01266092020614451
 22
-0.9999198473376509
 32
0.000000000000000
 13
0.9150419199140742
 23
-0.4033587544327020
 33
0.000000000000000
 40
0.000000000000000
 40
0.000000000000000
 40
0.000000000000000
 40
0.000000000000000
 40
0.1956995530114275
 40
0.3354706351461918
 40
0.4090748976002403
 40
0.4318826814911102
 40
0.4318826814911102
 40
0.4318826814911102
 40
0.4318826814911102
 10
502.8599970400009
 20
79.81737530057406
 30
0.000000000000000
 10
502.8591711278592
 20
79.75214734485031
 30
0.000000000000000
 10
502.8572804325189
 20
79.63739495600910
 30
0.000000000000000
 10
502.8666255437414
 20
79.50969136093534
 30
0.000000000000000
 10
502.8605187183180
 20
79.41767613814238
 30
0.000000000000000
 10
502.8901286592462
 20
79.40044193063846
 30
0.000000000000000
 10
502.8970853520331
 20
79.39737535753794
 30
0.000000000000000
  0
SPLINE
  5
4C
100
AcDbEntity
  8
A1
  6
CONTINUOUS
 62
7
100
AcDbSpline
210
0.000000000000000
220
0.000000000000000
230
1.000000000000000
 70
     8
 71
     3
 72
    17
 73
    13
 74
     0
 42
1.000000000000000e-07
 43
1.000000000000000e-07
 12
-0.9999996484098119
 22
-0.0008385594563833365
 32
0.000000000000000
 13
-0.05245907460084709
 23
-0.9986230747849731
 33
0.000000000000000
 40
0.000000000000000
 40
0.000000000000000
 40
0.000000000000000
 40
0.000000000000000
 40
0.3968913951221023
 40
0.8013746514980483
 40
1.186311545886125
 40
1.568137433568958
 40
1.911511082641192
 40
2.235185675936037
 40
2.495783162693501
 40
2.723096174272598
 40
2.907629626462607
 40
3.053171907128304
 40
3.053171907128304
 40
3.053171907128304
 40
3.053171907128304
 10
505.2599970400011
 20
79.53684438948214
 30
0.000000000000000
 10
505.1276999548081
 20
79.53673345047129
 30
0.000000000000000
 10
504.8602244191488
 20
79.51860846392387
 30
0.000000000000000
 10
504.4719369124831
 20
79.43749983940022
 30
0.000000000000000
 10
504.1028375978925
 20
79.30689282879733
 30
0.000000000000000
 10
503.7721412574620
 20
79.13842597268659
 30
0.000000000000000
 10
503.4826853799006
 20
78.94070897700489
 30
0.000000000000000
 10
503.2511267804090
 20
78.73443343728185
 30
0.000000000000000
 10
503.0738846390174
 20
78.52886506875657
 30
0.000000000000000
 10
502.9532232694060
 20
78.33926839283546
 30
0.000000000000000
 10
502.8784264839738
 20
78.16740384996952
 30
0.000000000000000
 10
502.8625420444538
 20
78.05739786497713
 30
0.000000000000000
 10
502.8599970400009
 20
78.00895057170061
 30
0.000000000000000
  0
SPLINE
  5
4D
100
AcDbEntity
  8
A1
  6
CONTINUOUS
 62
7
100
AcDbSpline
210
0.000000000000000
220
0.000000000000000
230
1.000000000000000
 70
     8
 71
     3
 72
    18
 73
    14
 74
     0
 42
1.000000000000000e-07
 43
1.000000000000000e-07
 12
-0.9915217982493232
 22
0.001532014073745813
 32
0.000000000000000
 13
-0.7272336661444569
 23
0.0008896245872165309
 33
0.000000000000000
 40
0.000000000000000
 40
0.000000000000000
 40
0.000000000000000
 40
0.000000000000000
 40
0.3980446407467283
 40
0.7920084926898416
 40
1.179414932487185
 40
1.539495736889258
 40
1.822168447289662
 40
2.025472827437517
 40
2.187270479653943
 40
2.348460770601047
 40
2.495450680065609
 40
2.588489713399881
 40
2.654816757934655
 40
2.654816757934655
 40
2.654816757934655
 40
2.654816757934655
 10
505.2599970400011
 20
110.4536938472289
 30
0.000000000000000
 10
505.1284403940089
 20
110.4538971172261
 30
0.000000000000000
 10
504.8625486666944
 20
110.4717116336883
 30
0.000000000000000
 10
504.4767327735518
 20
110.5514211891787
 30
0.000000000000000
 10
504.1103835999539
 20
110.6774054445466
 30
0.000000000000000
 10
503.7860075069658
 20
110.8337331004383
 30
0.000000000000000
 10
503.5454841503764
 20
110.9822335251518
 30
0.000000000000000
 10
503.3802194344599
 20
111.1006406392132
 30
0.000000000000000
 10
503.2527600587416
 20
111.2003030082611
 30
0.000000000000000
 10
503.1303460892999
 20
111.3051702099075
 30
0.000000000000000
 10
503.0230520068639
 20
111.4056391770496
 30
0.000000000000000
 10
502.9533917446792
 20
111.4673133985374
 30
0.000000000000000
 10
502.9131128756835
 20
111.4973556317941
 30
0.000000000000000
 10
502.8970344557630
 20
111.4973753005173
 30
0.000000000000000
  0
SPLINE
  5
4E
100
AcDbEntity
  8
A1
  6
CONTINUOUS
 62
7
100
AcDbSpline
210
0.000000000000000
220
0.000000000000000
230
1.000000000000000
 70
     8
 71
     3
 72
    17
 73
    13
 74
     0
 42
1.000000000000000e-07
 43
1.000000000000000e-07
 12
0.05376351622362563
 22
-0.9985536962658443
 32
0.000000000000000
 13
0.9999994920981408
 23
-0.001007872110903918
 33
0.000000000000000
 40
0.000000000000000
 40
0.000000000000000
 40
0.000000000000000
 40
0.000000000000000
 40
0.1461149349531246
 40
0.3425019032556318
 40
0.5820785746847434
 40
0.8765888642839882
 40
1.172789017142210
 40
1.503017253887918
 40
1.847884966162803
 40
2.214448730510624
 40
2.625025399339390
 40
3.053137083773645
 40
3.053137083773645
 40
3.053137083773645
 40
3.053137083773645
 10
502.8599970400009
 20
112.8858000294472
 30
0.000000000000000
 10
502.8626155908928
 20
112.8371654933215
 30
0.000000000000000
 10
502.8791209389896
 20
112.7230291198102
 30
0.000000000000000
 10
502.9588363249219
 20
112.5440404631552
 30
0.000000000000000
 10
503.0925330647604
 20
112.3397954851970
 30
0.000000000000000
 10
503.2784996878481
 20
112.1332818688903
 30
0.000000000000000
 10
503.5117926556536
 20
111.9327739910845
 30
0.000000000000000
 10
503.7814289304498
 20
111.7520834388964
 30
0.000000000000000
 10
504.0914936826353
 20
111.5940211687657
 30
0.000000000000000
 10
504.4437759902928
 20
111.4655521692451
 30
0.000000000000000
 10
504.8372904460866
 20
111.3785038581006
 30
0.000000000000000
 10
505.1172932176693
 20
111.3580500389413
 30
0.000000000000000
 10
505.2599970400011
 20
111.3579062116656
 30
0.000000000000000
  0
ARC
  5
4F
100
AcDbEntity
  8
A1
  6
CONTINUOUS
 62
7
100
AcDbCircle
 10
959.5599970400010
 20
108.2473753005736
 30
0.000000000000000
 40
1.300000000000000
100
AcDbArc
 50
154.9710005123676
 51
270.0000000000000
  0
ARC
  5
50
100
AcDbEntity
  8
A1
  6
CONTINUOUS
 62
7
100
AcDbCircle
 10
959.5599970400010
 20
82.64737530057428
 30
0.000000000000000
 40
1.300000000000000
100
AcDbArc
 50
90.00000000000000
 51
205.0289994876324
  0
ARC
  5
51
100
AcDbEntity
  8
A1
  6
CONTINUOUS
 62
7
100
AcDbCircle
 10
819.9599970400009
 20
95.44737530057392
 30
0.000000000000000
 40
2.250000000000000
100
AcDbArc
 50
90.00000000000000
 51
270.0000000000000
  0
ARC
  5
52
100
AcDbEntity
  8
A1
  6
CONTINUOUS
 62
7
100
AcDbCircle
 10
820.7599970400011
 20
95.44737530057398
 30
0.000000000000000
 40
2.250000000000000
100
AcDbArc
 50
270.0000000000000
 51
450.0000000000000
  0
ARC
  5
53
100
AcDbEntity
  8
A1
  6
CONTINUOUS
 62
7
100
AcDbCircle
 10
731.0599970400010
 20
95.44737530057392
 30
0.000000000000000
 40
2.250000000000000
100
AcDbArc
 50
90.00000000000000
 51
270.0000000000000
  0
ARC
  5
54
100
AcDbEntity
  8
A1
  6
CONTINUOUS
 62
7
100
AcDbCircle
 10
731.8599970400010
 20
95.44737530057392
 30
0.000000000000000
 40
2.250000000000000
100
AcDbArc
 50
270.0000000000000
 51
450.0000000000000
  0
ARC
  5
55
100
AcDbEntity
  8
A1
  6
CONTINUOUS
 62
7
100
AcDbCircle
 10
944.1599970400009
 20
95.84737530057399
 30
0.000000000000000
 40
2.250000000000030
100
AcDbArc
 50
0.000000000000000
 51
179.9999999999986
  0
ARC
  5
56
100
AcDbEntity
  8
A1
  6
CONTINUOUS
 62
7
100
AcDbCircle
 10
944.1599970400009
 20
95.04737530057403
 30
0.000000000000000
 40
2.250000000000030
100
AcDbArc
 50
180.0000000000044
 51
360.0000000000000
  0
ARC
  5
57
100
AcDbEntity
  8
A1
  6
CONTINUOUS
 62
7
100
AcDbCircle
 10
931.4599970400009
 20
95.84737530057403
 30
0.000000000000000
 40
2.250000000000000
100
AcDbArc
 50
0.000000000000000
 51
180.0000000000013
  0
ARC
  5
58
100
AcDbEntity
  8
A1
  6
CONTINUOUS
 62
7
100
AcDbCircle
 10
931.4599970400009
 20
95.04737530057399
 30
0.000000000000000
 40
2.250000000000000
100
AcDbArc
 50
180.0000000000015
 51
360.0000000000000
  0
ARC
  5
59
100
AcDbEntity
  8
A1
  6
CONTINUOUS
 62
7
100
AcDbCircle
 10
959.5599970400010
 20
108.2473753005736
 30
0.000000000000000
 40
1.299999999999999
100
AcDbArc
 50
125.3947298663019
 51
154.9710005123676
  0
ARC
  5
5A
100
AcDbEntity
  8
A1
  6
CONTINUOUS
 62
7
100
AcDbCircle
 10
959.5599970400010
 20
82.64737530057428
 30
0.000000000000000
 40
1.299999999999999
100
AcDbArc
 50
205.0289994876324
 51
234.6052701336980
  0
LINE
  5
5B
100
AcDbEntity
  8
A1
  6
CONTINUOUS
 62
7
100
AcDbLine
 10
502.8599970400009
 20
83.32228270671223
 30
0.000000000000000
 11
502.8599970400009
 21
82.09737530057387
 31
0.000000000000000
  0
LINE
  5
5C
100
AcDbEntity
  8
A1
  6
CONTINUOUS
 62
7
100
AcDbLine
 10
502.8599970400009
 20
108.7973753005736
 30
0.000000000000000
 11
502.8599970400009
 21
107.5724678944355
 31
0.000000000000000
  0
LINE
  5
5D
100
AcDbEntity
  8
A1
  6
CONTINUOUS
 62
7
100
AcDbLine
 10
819.9599970400010
 20
93.19737530057390
 30
0.000000000000000
 11
820.7599970400012
 21
93.19737530057398
 31
0.000000000000000
  0
LINE
  5
5E
100
AcDbEntity
  8
A1
  6
CONTINUOUS
 62
7
100
AcDbLine
 10
820.7599970400011
 20
97.69737530057390
 30
0.000000000000000
 11
819.9599970400009
 21
97.69737530057390
 31
0.000000000000000
  0
LINE
  5
5F
100
AcDbEntity
  8
A1
  6
CONTINUOUS
 62
7
100
AcDbLine
 10
731.0599970400010
 20
93.19737530057390
 30
0.000000000000000
 11
731.8599970400010
 21
93.19737530057392
 31
0.000000000000000
  0
LINE
  5
60
100
AcDbEntity
  8
A1
  6
CONTINUOUS
 62
7
100
AcDbLine
 10
731.8599970400010
 20
97.69737530057390
 30
0.000000000000000
 11
731.0599970400010
 21
97.69737530057390
 31
0.000000000000000
  0
LINE
  5
61
100
AcDbEntity
  8
A1
  6
CONTINUOUS
 62
7
100
AcDbLine
 10
941.9099970400009
 20
95.84737530057404
 30
0.000000000000000
 11
941.9099970400009
 21
95.04737530057386
 31
0.000000000000000
  0
LINE
  5
62
100
AcDbEntity
  8
A1
  6
CONTINUOUS
 62
7
100
AcDbLine
 10
946.4099970400009
 20
95.04737530057403
 30
0.000000000000000
 11
946.4099970400009
 21
95.84737530057399
 31
0.000000000000000
  0
LINE
  5
63
100
AcDbEntity
  8
A1
  6
CONTINUOUS
 62
7
100
AcDbLine
 10
929.2099970400010
 20
95.84737530057399
 30
0.000000000000000
 11
929.2099970400010
 21
95.04737530057392
 31
0.000000000000000
  0
LINE
  5
64
100
AcDbEntity
  8
A1
  6
CONTINUOUS
 62
7
100
AcDbLine
 10
933.7099970400010
 20
95.04737530057399
 30
0.000000000000000
 11
933.7099970400010
 21
95.84737530057403
 31
0.000000000000000
  0
LINE
  5
65
100
AcDbEntity
  8
A1
  6
CONTINUOUS
 62
7
100
AcDbLine
 10
960.0599970400010
 20
110.4536938472289
 30
0.000000000000000
 11
960.0599970400010
 21
110.1973753005740
 31
0.000000000000000
  0
LINE
  5
66
100
AcDbEntity
  8
A1
  6
CONTINUOUS
 62
7
100
AcDbLine
 10
502.8599970400009
 20
110.7969260125553
 30
0.000000000000000
 11
502.8599970400009
 21
108.7973753005736
 31
0.000000000000000
  0
LINE
  5
67
100
AcDbEntity
  8
A1
  6
CONTINUOUS
 62
7
100
AcDbLine
 10
958.3820751410630
 20
108.7973753005736
 30
0.000000000000000
 11
502.8599970400009
 21
108.7973753005736
 31
0.000000000000000
  0
LINE
  5
68
100
AcDbEntity
  8
A1
  6
CONTINUOUS
 62
7
100
AcDbLine
 10
958.8070289884879
 20
109.3071106983970
 30
0.000000000000000
 11
960.0599970400010
 21
110.1973753005739
 31
0.000000000000000
  0
LINE
  5
69
100
AcDbEntity
  8
A1
  6
CONTINUOUS
 62
7
100
AcDbLine
 10
960.0599970400010
 20
80.44105675391894
 30
0.000000000000000
 11
960.0599970400010
 21
80.69737530057395
 31
0.000000000000000
  0
LINE
  5
6A
100
AcDbEntity
  8
A1
  6
CONTINUOUS
 62
7
100
AcDbLine
 10
502.8599970400009
 20
82.09737530057387
 30
0.000000000000000
 11
502.8599970400009
 21
80.09782458859254
 31
0.000000000000000
  0
LINE
  5
6B
100
AcDbEntity
  8
A1
  6
CONTINUOUS
 62
7
100
AcDbLine
 10
958.3820751410628
 20
82.09737530057431
 30
0.000000000000000
 11
502.8599970400010
 21
82.09737530057387
 31
0.000000000000000
  0
LINE
  5
6C
100
AcDbEntity
  8
A1
  6
CONTINUOUS
 62
7
100
AcDbLine
 10
960.0599970400011
 20
80.69737530057392
 30
0.000000000000000
 11
958.8070289884878
 21
81.58763990275082
 31
0.000000000000000
  0
LINE
  5
6D
100
AcDbEntity
  8
A1
  6
CONTINUOUS
 62
7
100
AcDbLine
 10
502.8599970400009
 20
111.0773753005738
 30
0.000000000000000
 11
502.8599970400009
 21
110.7969260125553
 31
0.000000000000000
  0
LINE
  5
6E
100
AcDbEntity
  8
A1
  6
CONTINUOUS
 62
7
100
AcDbLine
 10
503.8787771697652
 20
110.7969260125554
 30
0.000000000000000
 11
502.8599970400009
 21
110.7969260125553
 31
0.000000000000000
  0
LINE
  5
6F
100
AcDbEntity
  8
A1
  6
CONTINUOUS
 62
7
100
AcDbLine
 10
502.8599970400009
 20
80.09782458859254
 30
0.000000000000000
 11
502.8599970400009
 21
79.81737530057401
 31
0.000000000000000
  0
LINE
  5
70
100
AcDbEntity
  8
A1
  6
CONTINUOUS
 62
7
100
AcDbLine
 10
503.8714532434680
 20
80.09782458859245
 30
0.000000000000000
 11
502.8599970400009
 21
80.09782458859254
 31
0.000000000000000
  0
LINE
  5
71
100
AcDbEntity
  8
A1
  6
CONTINUOUS
 62
7
100
AcDbLine
 10
958.4599970400010
 20
83.94737530057473
 30
0.000000000000000
 11
958.4599970400010
 21
85.94737530057475
 31
0.000000000000000
  0
LINE
  5
72
100
AcDbEntity
  8
A1
  6
CONTINUOUS
 62
7
100
AcDbLine
 10
960.0599970400010
 20
85.94737530057411
 30
0.000000000000000
 11
960.0599970400010
 21
83.94737530057411
 31
0.000000000000000
  0
LINE
  5
73
100
AcDbEntity
  8
A1
  6
CONTINUOUS
 62
7
100
AcDbLine
 10
960.0599970400010
 20
83.94737530057411
 30
0.000000000000000
 11
958.4599970400010
 21
83.94737530057415
 31
0.000000000000000
  0
LINE
  5
74
100
AcDbEntity
  8
A1
  6
CONTINUOUS
 62
7
100
AcDbLine
 10
960.0599970400010
 20
106.9473753005738
 30
0.000000000000000
 11
960.0599970400010
 21
104.9473753005738
 31
0.000000000000000
  0
LINE
  5
75
100
AcDbEntity
  8
A1
  6
CONTINUOUS
 62
7
100
AcDbLine
 10
958.4599970400010
 20
106.9473753005738
 30
0.000000000000000
 11
960.0599970400010
 21
106.9473753005738
 31
0.000000000000000
  0
LINE
  5
76
100
AcDbEntity
  8
A1
  6
CONTINUOUS
 62
7
100
AcDbLine
 10
958.4599970400010
 20
104.9473753005732
 30
0.000000000000000
 11
958.4599970400010
 21
106.9473753005732
 31
0.000000000000000
  0
LINE
  5
77
100
AcDbEntity
  8
A1
  6
CONTINUOUS
 62
7
100
AcDbLine
 10
958.4599970400010
 20
104.9473753005732
 30
0.000000000000000
 11
958.4599970400010
 21
85.94737530057475
 31
0.000000000000000
  0
LINE
  5
78
100
AcDbEntity
  8
A1
  6
CONTINUOUS
 62
7
100
AcDbLine
 10
958.4599970400010
 20
85.94737530057475
 30
0.000000000000000
 11
960.0599970400010
 21
85.94737530057411
 31
0.000000000000000
  0
LINE
  5
79
100
AcDbEntity
  8
A1
  6
CONTINUOUS
 62
7
100
AcDbLine
 10
960.0599970400010
 20
85.94737530057411
 30
0.000000000000000
 11
960.0599970400010
 21
104.9473753005738
 31
0.000000000000000
  0
LINE
  5
7A
100
AcDbEntity
  8
A1
  6
CONTINUOUS
 62
7
100
AcDbLine
 10
960.0599970400010
 20
104.9473753005738
 30
0.000000000000000
 11
958.4599970400010
 21
104.9473753005732
 31
0.000000000000000
  0
LINE
  5
7B
100
AcDbEntity
  8
A1
  6
CONTINUOUS
 62
7
100
AcDbLine
 10
960.0599970400010
 20
111.3579062116657
 30
0.000000000000000
 11
960.0599970400010
 21
110.4536938472289
 31
0.000000000000000
  0
LINE
  5
7C
100
AcDbEntity
  8
A1
  6
CONTINUOUS
 62
7
100
AcDbLine
 10
960.0599970400010
 20
110.4536938472289
 30
0.000000000000000
 11
505.2599970400011
 21
110.4536938472289
 31
0.000000000000000
  0
LINE
  5
7D
100
AcDbEntity
  8
A1
  6
CONTINUOUS
 62
7
100
AcDbLine
 10
960.0599970400010
 20
80.44105675391894
 30
0.000000000000000
 11
505.2599970400011
 21
80.44105675391890
 31
0.000000000000000
  0
LINE
  5
7E
100
AcDbEntity
  8
A1
  6
CONTINUOUS
 62
7
100
AcDbLine
 10
960.0599970400010
 20
79.53684438948220
 30
0.000000000000000
 11
960.0599970400010
 21
80.44105675391894
 31
0.000000000000000
  0
LINE
  5
7F
100
AcDbEntity
  8
A1
  6
CONTINUOUS
 62
7
100
AcDbLine
 10
960.0599970400010
 20
79.53684438948220
 30
0.000000000000000
 11
505.2599970400011
 21
79.53684438948214
 31
0.000000000000000
  0
LINE
  5
80
100
AcDbEntity
  8
A1
  6
CONTINUOUS
 62
7
100
AcDbLine
 10
502.8599970400009
 20
78.00895057170061
 30
0.000000000000000
 11
502.8599970400009
 21
77.79737530057383
 31
0.000000000000000
  0
LINE
  5
81
100
AcDbEntity
  8
A1
  6
CONTINUOUS
 62
7
100
AcDbLine
 10
502.8599970400009
 20
77.79737530057380
 30
0.000000000000000
 11
960.0599970400010
 21
77.79737530057386
 31
0.000000000000000
  0
LINE
  5
82
100
AcDbEntity
  8
A1
  6
CONTINUOUS
 62
7
100
AcDbLine
 10
960.0599970400010
 20
77.79737530057386
 30
0.000000000000000
 11
960.0599970400010
 21
79.53684438948220
 31
0.000000000000000
  0
LINE
  5
83
100
AcDbEntity
  8
A1
  6
CONTINUOUS
 62
7
100
AcDbLine
 10
502.8599970400009
 20
78.00895057170061
 30
0.000000000000000
 11
502.8599970400009
 21
79.81737530057401
 31
0.000000000000000
  0
LINE
  5
84
100
AcDbEntity
  8
A1
  6
CONTINUOUS
 62
7
100
AcDbLine
 10
505.2599970400011
 20
80.44105675391890
 30
0.000000000000000
 11
505.2599970400011
 21
79.53684438948214
 31
0.000000000000000
  0
LINE
  5
85
100
AcDbEntity
  8
A1
  6
CONTINUOUS
 62
7
100
AcDbLine
 10
502.8599970400009
 20
111.0773753005738
 30
0.000000000000000
 11
502.8599970400009
 21
112.8858000294472
 31
0.000000000000000
  0
LINE
  5
86
100
AcDbEntity
  8
A1
  6
CONTINUOUS
 62
7
100
AcDbLine
 10
505.2599970400011
 20
111.3579062116656
 30
0.000000000000000
 11
505.2599970400011
 21
110.4536938472289
 31
0.000000000000000
  0
LINE
  5
87
100
AcDbEntity
  8
A1
  6
CONTINUOUS
 62
7
100
AcDbLine
 10
960.0599970400010
 20
111.3579062116657
 30
0.000000000000000
 11
505.2599970400011
 21
111.3579062116657
 31
0.000000000000000
  0
LINE
  5
88
100
AcDbEntity
  8
A1
  6
CONTINUOUS
 62
7
100
AcDbLine
 10
960.0599970400010
 20
113.0973753005740
 30
0.000000000000000
 11
502.8599970400009
 21
113.0973753005740
 31
0.000000000000000
  0
LINE
  5
89
100
AcDbEntity
  8
A1
  6
CONTINUOUS
 62
7
100
AcDbLine
 10
502.8599970400009
 20
113.0973753005740
 30
0.000000000000000
 11
502.8599970400009
 21
112.8858000294472
 31
0.000000000000000
  0
LINE
  5
8A
100
AcDbEntity
  8
A1
  6
CONTINUOUS
 62
7
100
AcDbLine
 10
960.0599970400010
 20
113.0973753005740
 30
0.000000000000000
 11
960.0599970400010
 21
111.3579062116657
 31
0.000000000000000
  0
CIRCLE
  5
8B
100
AcDbEntity
  8
A1
  6
CONTINUOUS
 62
7
100
AcDbCircle
 10
426.0099970400009
 20
95.44737530057358
 30
0.000000000000000
 40
1.200000000000000
  0
ARC
  5
8C
100
AcDbEntity
  8
A1
  6
CONTINUOUS
 62
7
100
AcDbCircle
 10
422.0099970400009
 20
97.14737436180687
 30
0.000000000000000
 40
0.7000000000000000
100
AcDbArc
 50
238.7541664501545
 51
270.1326981011920
  0
ARC
  5
8D
100
AcDbEntity
  8
A1
  6
CONTINUOUS
 62
7
100
AcDbCircle
 10
430.0099970400009
 20
97.14737436180698
 30
0.000000000000000
 40
0.7000000000000000
100
AcDbArc
 50
269.8673018988080
 51
301.2458335498429
  0
ARC
  5
8E
100
AcDbEntity
  8
A1
  6
CONTINUOUS
 62
7
100
AcDbCircle
 10
422.0099970400009
 20
93.74737623934038
 30
0.000000000000000
 40
0.7000000000000000
100
AcDbArc
 50
90.00000000000000
 51
121.2458335498480
  0
ARC
  5
8F
100
AcDbEntity
  8
A1
  6
CONTINUOUS
 62
7
100
AcDbCircle
 10
430.0099970400009
 20
93.74737623934027
 30
0.000000000000000
 40
0.7000000000000000
100
AcDbArc
 50
58.75416645015464
 51
90.00000000000000
  0
ARC
  5
90
100
AcDbEntity
  8
A1
  6
CONTINUOUS
 62
7
100
AcDbCircle
 10
428.2348565863680
 20
97.14737623918768
 30
0.000000000000000
 40
0.7000000000014542
100
AcDbArc
 50
217.3831984098569
 51
270.0000000000000
  0
ARC
  5
91
100
AcDbEntity
  8
A1
  6
CONTINUOUS
 62
7
100
AcDbCircle
 10
426.0099970400009
 20
95.44737623949618
 30
0.000000000000000
 40
2.099999999999949
100
AcDbArc
 50
37.38319840989766
 51
142.6168015901007
  0
ARC
  5
92
100
AcDbEntity
  8
A1
  6
CONTINUOUS
 62
7
100
AcDbCircle
 10
423.7851374936350
 20
97.14737623918768
 30
0.000000000000000
 40
0.7000000000014096
100
AcDbArc
 50
270.0000000000745
 51
322.6168015900909
  0
ARC
  5
93
100
AcDbEntity
  8
A1
  6
CONTINUOUS
 62
7
100
AcDbCircle
 10
423.7851374936350
 20
93.74737623933899
 30
0.000000000000000
 40
0.7000000000013981
100
AcDbArc
 50
37.38319841748397
 51
90.00000000000000
  0
ARC
  5
94
100
AcDbEntity
  8
A1
  6
CONTINUOUS
 62
7
100
AcDbCircle
 10
426.0099970400009
 20
95.44737623949618
 30
0.000000000000000
 40
2.100000000282682
100
AcDbArc
 50
217.3831984174703
 51
322.6168015825436
  0
ARC
  5
95
100
AcDbEntity
  8
A1
  6
CONTINUOUS
 62
7
100
AcDbCircle
 10
428.2348565863680
 20
93.74737623933899
 30
0.000000000000000
 40
0.7000000000014097
100
AcDbArc
 50
90.00000000000000
 51
142.6168015825316
  0
ARC
  5
96
100
AcDbEntity
  8
A1
  6
CONTINUOUS
 62
7
100
AcDbCircle
 10
24.35999704000221
 20
82.64737530057140
 30
0.000000000000000
 40
1.299999999996905
100
AcDbArc
 50
305.3947298663199
 51
334.9710005124459
  0
ARC
  5
97
100
AcDbEntity
  8
A1
  6
CONTINUOUS
 62
7
100
AcDbCircle
 10
24.35999704000062
 20
108.2473753005726
 30
0.000000000000000
 40
1.299999999999347
100
AcDbArc
 50
270.0000000000151
 51
327.7957724961021
  0
ARC
  5
98
100
AcDbEntity
  8
A1
  6
CONTINUOUS
 62
7
100
AcDbCircle
 10
24.35999704000142
 20
82.64737530057610
 30
0.000000000000000
 40
1.299999999997843
100
AcDbArc
 50
32.20422750386152
 51
90.00000000002255
  0
ARC
  5
99
100
AcDbEntity
  8
A1
  6
CONTINUOUS
 62
7
100
AcDbCircle
 10
24.35999704001074
 20
108.2473753005829
 30
0.000000000000000
 40
1.299999999986282
100
AcDbArc
 50
25.02899948742887
 51
54.60527013380190
  0
ARC
  5
9A
100
AcDbEntity
  8
A1
  6
CONTINUOUS
 62
7
100
AcDbCircle
 10
24.35999704000093
 20
108.2473753005733
 30
0.000000000000000
 40
1.300000000000000
100
AcDbArc
 50
327.7957724960699
 51
385.0289994876314
  0
ARC
  5
9B
100
AcDbEntity
  8
A1
  6
CONTINUOUS
 62
7
100
AcDbCircle
 10
24.35999704000093
 20
82.64737530057394
 30
0.000000000000000
 40
1.300000000000000
100
AcDbArc
 50
334.9710005123686
 51
392.2042275039300
  0
ARC
  5
9C
100
AcDbEntity
  8
A1
  6
CONTINUOUS
 62
7
100
AcDbCircle
 10
465.1599970400009
 20
95.84737530057366
 30
0.000000000000000
 40
2.250000000000000
100
AcDbArc
 50
0.000000000000000
 51
180.0000000000000
  0
ARC
  5
9D
100
AcDbEntity
  8
A1
  6
CONTINUOUS
 62
7
100
AcDbCircle
 10
465.1599970400009
 20
95.04737530057366
 30
0.000000000000000
 40
2.250000000000000
100
AcDbArc
 50
180.0000000000000
 51
360.0000000000000
  0
ARC
  5
9E
100
AcDbEntity
  8
A1
  6
CONTINUOUS
 62
7
100
AcDbCircle
 10
452.4599970400010
 20
95.84737530057366
 30
0.000000000000000
 40
2.250000000000000
100
AcDbArc
 50
0.000000000000000
 51
180.0000000000000
  0
ARC
  5
9F
100
AcDbEntity
  8
A1
  6
CONTINUOUS
 62
7
100
AcDbCircle
 10
452.4599970400010
 20
95.04737530057366
 30
0.000000000000000
 40
2.250000000000000
100
AcDbArc
 50
180.0000000000000
 51
360.0000000000000
  0
ARC
  5
A0
100
AcDbEntity
  8
A1
  6
CONTINUOUS
 62
7
100
AcDbCircle
 10
52.45999704000103
 20
95.84737530057370
 30
0.000000000000000
 40
2.250000000000000
100
AcDbArc
 50
359.9999999999986
 51
540.0000000000000
  0
ARC
  5
A1
100
AcDbEntity
  8
A1
  6
CONTINUOUS
 62
7
100
AcDbCircle
 10
52.45999704000103
 20
95.04737530057363
 30
0.000000000000000
 40
2.250000000000000
100
AcDbArc
 50
180.0000000000000
 51
359.9999999999985
  0
ARC
  5
A2
100
AcDbEntity
  8
A1
  6
CONTINUOUS
 62
7
100
AcDbCircle
 10
39.75999704000093
 20
95.84737530057365
 30
0.000000000000000
 40
2.250000000000030
100
AcDbArc
 50
1.374000000000000e-12
 51
180.0000000000000
  0
ARC
  5
A3
100
AcDbEntity
  8
A1
  6
CONTINUOUS
 62
7
100
AcDbCircle
 10
39.75999704000093
 20
95.04737530057369
 30
0.000000000000000
 40
2.250000000000030
100
AcDbArc
 50
180.0000000000000
 51
359.9999999999956
  0
ARC
  5
A4
100
AcDbEntity
  8
A1
  6
CONTINUOUS
 62
7
100
AcDbCircle
 10
440.1599970400009
 20
95.44737530057365
 30
0.000000000000000
 40
2.250000000000000
100
AcDbArc
 50
270.0000000000000
 51
450.0000000000000
  0
ARC
  5
A5
100
AcDbEntity
  8
A1
  6
CONTINUOUS
 62
7
100
AcDbCircle
 10
439.3599970400009
 20
95.44737530057365
 30
0.000000000000000
 40
2.250000000000000
100
AcDbArc
 50
90.00000000000000
 51
270.0000000000000
  0
ARC
  5
A6
100
AcDbEntity
  8
A1
  6
CONTINUOUS
 62
7
100
AcDbCircle
 10
354.4599970400010
 20
95.44737530057365
 30
0.000000000000000
 40
2.250000000000000
100
AcDbArc
 50
270.0000000000000
 51
450.0000000000000
  0
ARC
  5
A7
100
AcDbEntity
  8
A1
  6
CONTINUOUS
 62
7
100
AcDbCircle
 10
353.6599970400009
 20
95.44737530057365
 30
0.000000000000000
 40
2.250000000000000
100
AcDbArc
 50
90.00000000000000
 51
270.0000000000000
  0
ARC
  5
A8
100
AcDbEntity
  8
A1
  6
CONTINUOUS
 62
7
100
AcDbCircle
 10
252.8599970400010
 20
95.44737530057364
 30
0.000000000000000
 40
2.250000000000000
100
AcDbArc
 50
270.0000000000000
 51
450.0000000000000
  0
ARC
  5
A9
100
AcDbEntity
  8
A1
  6
CONTINUOUS
 62
7
100
AcDbCircle
 10
252.0599970400010
 20
95.44737530057364
 30
0.000000000000000
 40
2.250000000000000
100
AcDbArc
 50
90.00000000000000
 51
270.0000000000000
  0
ARC
  5
AA
100
AcDbEntity
  8
A1
  6
CONTINUOUS
 62
7
100
AcDbCircle
 10
163.9599970400010
 20
95.44737530057363
 30
0.000000000000000
 40
2.250000000000000
100
AcDbArc
 50
270.0000000000000
 51
450.0000000000000
  0
ARC
  5
AB
100
AcDbEntity
  8
A1
  6
CONTINUOUS
 62
7
100
AcDbCircle
 10
163.1599970400010
 20
95.44737530057367
 30
0.000000000000000
 40
2.250000000000000
100
AcDbArc
 50
90.00000000000000
 51
270.0000000000000
  0
ARC
  5
AC
100
AcDbEntity
  8
A1
  6
CONTINUOUS
 62
7
100
AcDbCircle
 10
422.0099970400009
 20
93.74737623934037
 30
0.000000000000000
 40
0.7000000000000000
100
AcDbArc
 50
121.2458335498480
 51
180.0000000000000
  0
ARC
  5
AD
100
AcDbEntity
  8
A1
  6
CONTINUOUS
 62
7
100
AcDbCircle
 10
426.0099970400009
 20
95.44737530057357
 30
0.000000000000000
 40
4.500000000000000
100
AcDbArc
 50
165.8308474967136
 51
194.1691525032854
  0
ARC
  5
AE
100
AcDbEntity
  8
A1
  6
CONTINUOUS
 62
7
100
AcDbCircle
 10
422.0099970400009
 20
97.14737436180685
 30
0.000000000000000
 40
0.7000000000000000
100
AcDbArc
 50
180.0000000000000
 51
238.7541664501543
  0
ARC
  5
AF
100
AcDbEntity
  8
A1
  6
CONTINUOUS
 62
7
100
AcDbCircle
 10
430.0099970400009
 20
97.14737436180697
 30
0.000000000000000
 40
0.7000000000000000
100
AcDbArc
 50
301.2458335498429
 51
360.0000000000000
  0
ARC
  5
B0
100
AcDbEntity
  8
A1
  6
CONTINUOUS
 62
7
100
AcDbCircle
 10
426.0099970400009
 20
95.44737530057357
 30
0.000000000000000
 40
4.500000000000000
100
AcDbArc
 50
345.8308474967134
 51
374.1691525032875
  0
ARC
  5
B1
100
AcDbEntity
  8
A1
  6
CONTINUOUS
 62
7
100
AcDbCircle
 10
430.0099970400009
 20
93.74737623934026
 30
0.000000000000000
 40
0.7000000000000000
100
AcDbArc
 50
0.000000000000000
 51
58.75416645015464
  0
LINE
  5
B2
100
AcDbEntity
  8
A1
  6
CONTINUOUS
 62
7
100
AcDbLine
 10
23.85999704000093
 20
78.96479078060447
 30
0.000000000000000
 11
23.85999704000093
 21
77.79737530057358
 31
0.000000000000000
  0
LINE
  5
B3
100
AcDbEntity
  8
A1
  6
CONTINUOUS
 62
7
100
AcDbLine
 10
23.85999704000093
 20
77.79737530057358
 30
0.000000000000000
 11
481.0599970400010
 21
77.79737530057363
 31
0.000000000000000
  0
LINE
  5
B4
100
AcDbEntity
  8
A1
  6
CONTINUOUS
 62
7
100
AcDbLine
 10
481.0599970400010
 20
77.79737530057366
 30
0.000000000000000
 11
481.0599970400010
 21
78.96479078060456
 31
0.000000000000000
  0
LINE
  5
B5
100
AcDbEntity
  8
A1
  6
CONTINUOUS
 62
7
100
AcDbLine
 10
481.0599970400010
 20
111.9299598205428
 30
0.000000000000000
 11
481.0599970400010
 21
113.0973753005738
 31
0.000000000000000
  0
LINE
  5
B6
100
AcDbEntity
  8
A1
  6
CONTINUOUS
 62
7
100
AcDbLine
 10
23.85999704000093
 20
111.9299598205428
 30
0.000000000000000
 11
23.85999704000093
 21
113.0973753005738
 31
0.000000000000000
  0
LINE
  5
B7
100
AcDbEntity
  8
A1
  6
CONTINUOUS
 62
7
100
AcDbLine
 10
481.0599970400010
 20
113.0973753005738
 30
0.000000000000000
 11
23.85999704000093
 21
113.0973753005738
 31
0.000000000000000
  0
LINE
  5
B8
100
AcDbEntity
  8
A1
  6
CONTINUOUS
 62
7
100
AcDbLine
 10
481.0599970400010
 20
87.54737530057348
 30
0.000000000000000
 11
481.0599970400010
 21
103.3473753005736
 31
0.000000000000000
  0
LINE
  5
B9
100
AcDbEntity
  8
A1
  6
CONTINUOUS
 62
7
100
AcDbLine
 10
428.2348565863680
 20
96.44737623918621
 30
0.000000000000000
 11
430.0083758283064
 21
96.44737623918618
 31
0.000000000000000
  0
LINE
  5
BA
100
AcDbEntity
  8
A1
  6
CONTINUOUS
 62
7
100
AcDbLine
 10
422.0116182516956
 20
96.44737623918607
 30
0.000000000000000
 11
423.7851374936359
 21
96.44737623918607
 31
0.000000000000000
  0
LINE
  5
BB
100
AcDbEntity
  8
A1
  6
CONTINUOUS
 62
7
100
AcDbLine
 10
423.7851374936350
 20
94.44737623934037
 30
0.000000000000000
 11
422.0099970400009
 21
94.44737623934037
 31
0.000000000000000
  0
LINE
  5
BC
100
AcDbEntity
  8
A1
  6
CONTINUOUS
 62
7
100
AcDbLine
 10
430.0099970400009
 20
94.44737623934029
 30
0.000000000000000
 11
428.2348565863680
 21
94.44737623934040
 31
0.000000000000000
  0
LINE
  5
BD
100
AcDbEntity
  8
A1
  6
CONTINUOUS
 62
7
100
AcDbLine
 10
481.0599970400010
 20
78.96479078060456
 30
0.000000000000000
 11
481.0599970400010
 21
80.96434149258656
 31
0.000000000000000
  0
LINE
  5
BE
100
AcDbEntity
  8
A1
  6
CONTINUOUS
 62
7
100
AcDbLine
 10
23.85999704000093
 20
80.69737530057363
 30
0.000000000000000
 11
24.23572815253502
 21
80.96434149258627
 31
0.000000000000000
  0
LINE
  5
BF
100
AcDbEntity
  8
A1
  6
CONTINUOUS
 62
7
100
AcDbLine
 10
23.85999704000093
 20
78.96479078060449
 30
0.000000000000000
 11
481.0599970400010
 21
78.96479078060456
 31
0.000000000000000
  0
LINE
  5
C0
100
AcDbEntity
  8
A1
  6
CONTINUOUS
 62
7
100
AcDbLine
 10
23.85999704000093
 20
78.96479078060449
 30
0.000000000000000
 11
23.85999704000093
 21
80.69737530057361
 31
0.000000000000000
  0
LINE
  5
C1
100
AcDbEntity
  8
A1
  6
CONTINUOUS
 62
7
100
AcDbLine
 10
481.0599970400010
 20
109.9304091085610
 30
0.000000000000000
 11
481.0599970400010
 21
111.9299598205429
 31
0.000000000000000
  0
LINE
  5
C2
100
AcDbEntity
  8
A1
  6
CONTINUOUS
 62
7
100
AcDbLine
 10
24.23572815253500
 20
109.9304091085610
 30
0.000000000000000
 11
23.85999704000092
 21
110.1973753005736
 31
0.000000000000000
  0
LINE
  5
C3
100
AcDbEntity
  8
A1
  6
CONTINUOUS
 62
7
100
AcDbLine
 10
23.85999704000094
 20
111.9299598205428
 30
0.000000000000000
 11
481.0599970400009
 21
111.9299598205429
 31
0.000000000000000
  0
LINE
  5
C4
100
AcDbEntity
  8
A1
  6
CONTINUOUS
 62
7
100
AcDbLine
 10
23.85999704000093
 20
111.9299598205428
 30
0.000000000000000
 11
23.85999704000093
 21
110.1973753005736
 31
0.000000000000000
  0
LINE
  5
C5
100
AcDbEntity
  8
A1
  6
CONTINUOUS
 62
7
100
AcDbLine
 10
481.0599970400010
 20
86.08671512879366
 30
0.000000000000000
 11
481.0599970400010
 21
87.54737530057348
 31
0.000000000000000
  0
LINE
  5
C6
100
AcDbEntity
  8
A1
  6
CONTINUOUS
 62
7
100
AcDbLine
 10
481.0599970400010
 20
87.54737530057348
 30
0.000000000000000
 11
477.2599970400009
 21
87.54737530057348
 31
0.000000000000000
  0
LINE
  5
C7
100
AcDbEntity
  8
A1
  6
CONTINUOUS
 62
7
100
AcDbLine
 10
481.0599970400010
 20
103.3473753005736
 30
0.000000000000000
 11
481.0599970400010
 21
104.8080354723536
 31
0.000000000000000
  0
LINE
  5
C8
100
AcDbEntity
  8
A1
  6
CONTINUOUS
 62
7
100
AcDbLine
 10
481.0599970400010
 20
103.3473753005735
 30
0.000000000000000
 11
477.2599970400010
 21
103.3473753005735
 31
0.000000000000000
  0
LINE
  5
C9
100
AcDbEntity
  8
A1
  6
CONTINUOUS
 62
7
100
AcDbLine
 10
481.0599970400010
 20
85.02605495701383
 30
0.000000000000000
 11
481.0599970400010
 21
86.08671512879366
 31
0.000000000000000
  0
LINE
  5
CA
100
AcDbEntity
  8
A1
  6
CONTINUOUS
 62
7
100
AcDbLine
 10
481.0599970400010
 20
86.08671512879366
 30
0.000000000000000
 11
477.2599970400009
 21
86.08671512879366
 31
0.000000000000000
  0
LINE
  5
CB
100
AcDbEntity
  8
A1
  6
CONTINUOUS
 62
7
100
AcDbLine
 10
481.0599970400010
 20
80.96434149258648
 30
0.000000000000000
 11
481.0599970400010
 21
82.09737530057399
 31
0.000000000000000
  0
LINE
  5
CC
100
AcDbEntity
  8
A1
  6
CONTINUOUS
 62
7
100
AcDbLine
 10
24.23572815253502
 20
80.96434149258629
 30
0.000000000000000
 11
481.0599970400010
 21
80.96434149258657
 31
0.000000000000000
  0
LINE
  5
CD
100
AcDbEntity
  8
A1
  6
CONTINUOUS
 62
7
100
AcDbLine
 10
25.11296509151392
 20
81.58763990275047
 30
0.000000000000000
 11
24.23572815253504
 21
80.96434149258626
 31
0.000000000000000
  0
LINE
  5
CE
100
AcDbEntity
  8
A1
  6
CONTINUOUS
 62
7
100
AcDbLine
 10
481.0599970400010
 20
104.8080354723537
 30
0.000000000000000
 11
481.0599970400010
 21
105.8686956441334
 31
0.000000000000000
  0
LINE
  5
CF
100
AcDbEntity
  8
A1
  6
CONTINUOUS
 62
7
100
AcDbLine
 10
481.0599970400010
 20
104.8080354723536
 30
0.000000000000000
 11
477.2599970400009
 21
104.8080354723536
 31
0.000000000000000
  0
LINE
  5
D0
100
AcDbEntity
  8
A1
  6
CONTINUOUS
 62
7
100
AcDbLine
 10
23.85999704000094
 20
106.9473753005737
 30
0.000000000000000
 11
24.35999704000034
 21
106.9473753005735
 31
0.000000000000000
  0
LINE
  5
D1
100
AcDbEntity
  8
A1
  6
CONTINUOUS
 62
7
100
AcDbLine
 10
23.85999704000093
 20
83.94737530057378
 30
0.000000000000000
 11
23.85999704000093
 21
106.9473753005735
 31
0.000000000000000
  0
LINE
  5
D2
100
AcDbEntity
  8
A1
  6
CONTINUOUS
 62
7
100
AcDbLine
 10
24.35999704000033
 20
83.94737530057419
 30
0.000000000000000
 11
23.85999704000093
 21
83.94737530057400
 31
0.000000000000000
  0
LINE
  5
D3
100
AcDbEntity
  8
A1
  6
CONTINUOUS
 62
7
100
AcDbLine
 10
481.0599970400010
 20
108.7973753005733
 30
0.000000000000000
 11
481.0599970400010
 21
109.9304091085610
 31
0.000000000000000
  0
LINE
  5
D4
100
AcDbEntity
  8
A1
  6
CONTINUOUS
 62
7
100
AcDbLine
 10
24.23572815253501
 20
109.9304091085610
 30
0.000000000000000
 11
481.0599970400010
 21
109.9304091085610
 31
0.000000000000000
  0
LINE
  5
D5
100
AcDbEntity
  8
A1
  6
CONTINUOUS
 62
7
100
AcDbLine
 10
24.23572815253501
 20
109.9304091085610
 30
0.000000000000000
 11
25.11296509151394
 21
109.3071106983967
 31
0.000000000000000
  0
LINE
  5
D6
100
AcDbEntity
  8
A1
  6
CONTINUOUS
 62
7
100
AcDbLine
 10
481.0599970400010
 20
105.8686956441334
 30
0.000000000000000
 11
481.0599970400010
 21
108.7973753005733
 31
0.000000000000000
  0
LINE
  5
D7
100
AcDbEntity
  8
A1
  6
CONTINUOUS
 62
7
100
AcDbLine
 10
481.0599970400010
 20
82.09737530057399
 30
0.000000000000000
 11
481.0599970400010
 21
85.02605495701383
 31
0.000000000000000
  0
LINE
  5
D8
100
AcDbEntity
  8
A1
  6
CONTINUOUS
 62
7
100
AcDbLine
 10
25.53791893893901
 20
82.09737530057399
 30
0.000000000000000
 11
481.0599970400010
 21
82.09737530057400
 31
0.000000000000000
  0
LINE
  5
D9
100
AcDbEntity
  8
A1
  6
CONTINUOUS
 62
7
100
AcDbLine
 10
481.0599970400010
 20
85.02605495701383
 30
0.000000000000000
 11
477.2599970400009
 21
85.02605495701383
 31
0.000000000000000
  0
LINE
  5
DA
100
AcDbEntity
  8
A1
  6
CONTINUOUS
 62
7
100
AcDbLine
 10
477.2599970400009
 20
85.02605495701383
 30
0.000000000000000
 11
477.2599970400009
 21
105.8686956441334
 31
0.000000000000000
  0
LINE
  5
DB
100
AcDbEntity
  8
A1
  6
CONTINUOUS
 62
7
100
AcDbLine
 10
481.0599970400010
 20
105.8686956441334
 30
0.000000000000000
 11
477.2599970400009
 21
105.8686956441334
 31
0.000000000000000
  0
LINE
  5
DC
100
AcDbEntity
  8
A1
  6
CONTINUOUS
 62
7
100
AcDbLine
 10
25.53791893893900
 20
108.7973753005732
 30
0.000000000000000
 11
481.0599970400010
 21
108.7973753005733
 31
0.000000000000000
  0
LINE
  5
DD
100
AcDbEntity
  8
A1
  6
CONTINUOUS
 62
7
100
AcDbLine
 10
25.45999704000101
 20
107.5545549775468
 30
0.000000000000000
 11
25.45999704000101
 21
83.34019562360038
 31
0.000000000000000
  0
LINE
  5
DE
100
AcDbEntity
  8
A1
  6
CONTINUOUS
 62
7
100
AcDbLine
 10
462.9099970400009
 20
95.04737530057366
 30
0.000000000000000
 11
462.9099970400009
 21
95.84737530057366
 31
0.000000000000000
  0
LINE
  5
DF
100
AcDbEntity
  8
A1
  6
CONTINUOUS
 62
7
100
AcDbLine
 10
467.4099970400009
 20
95.84737530057366
 30
0.000000000000000
 11
467.4099970400009
 21
95.04737530057366
 31
0.000000000000000
  0
LINE
  5
E0
100
AcDbEntity
  8
A1
  6
CONTINUOUS
 62
7
100
AcDbLine
 10
450.2099970400010
 20
95.04737530057366
 30
0.000000000000000
 11
450.2099970400010
 21
95.84737530057366
 31
0.000000000000000
  0
LINE
  5
E1
100
AcDbEntity
  8
A1
  6
CONTINUOUS
 62
7
100
AcDbLine
 10
454.7099970400010
 20
95.84737530057366
 30
0.000000000000000
 11
454.7099970400010
 21
95.04737530057366
 31
0.000000000000000
  0
LINE
  5
E2
100
AcDbEntity
  8
A1
  6
CONTINUOUS
 62
7
100
AcDbLine
 10
50.20999704000103
 20
95.04737530057363
 30
0.000000000000000
 11
50.20999704000103
 21
95.84737530057370
 31
0.000000000000000
  0
LINE
  5
E3
100
AcDbEntity
  8
A1
  6
CONTINUOUS
 62
7
100
AcDbLine
 10
54.70999704000103
 20
95.84737530057365
 30
0.000000000000000
 11
54.70999704000103
 21
95.04737530057358
 31
0.000000000000000
  0
LINE
  5
E4
100
AcDbEntity
  8
A1
  6
CONTINUOUS
 62
7
100
AcDbLine
 10
37.50999704000102
 20
95.04737530057369
 30
0.000000000000000
 11
37.50999704000102
 21
95.84737530057365
 31
0.000000000000000
  0
LINE
  5
E5
100
AcDbEntity
  8
A1
  6
CONTINUOUS
 62
7
100
AcDbLine
 10
42.00999704000102
 20
95.84737530057370
 30
0.000000000000000
 11
42.00999704000102
 21
95.04737530057352
 31
0.000000000000000
  0
LINE
  5
E6
100
AcDbEntity
  8
A1
  6
CONTINUOUS
 62
7
100
AcDbLine
 10
439.3599970400009
 20
97.69737530057365
 30
0.000000000000000
 11
440.1599970400009
 21
97.69737530057365
 31
0.000000000000000
  0
LINE
  5
E7
100
AcDbEntity
  8
A1
  6
CONTINUOUS
 62
7
100
AcDbLine
 10
440.1599970400009
 20
93.19737530057365
 30
0.000000000000000
 11
439.3599970400009
 21
93.19737530057365
 31
0.000000000000000
  0
LINE
  5
E8
100
AcDbEntity
  8
A1
  6
CONTINUOUS
 62
7
100
AcDbLine
 10
353.6599970400009
 20
97.69737530057364
 30
0.000000000000000
 11
354.4599970400010
 21
97.69737530057364
 31
0.000000000000000
  0
LINE
  5
E9
100
AcDbEntity
  8
A1
  6
CONTINUOUS
 62
7
100
AcDbLine
 10
354.4599970400010
 20
93.19737530057364
 30
0.000000000000000
 11
353.6599970400009
 21
93.19737530057364
 31
0.000000000000000
  0
LINE
  5
EA
100
AcDbEntity
  8
A1
  6
CONTINUOUS
 62
7
100
AcDbLine
 10
252.0599970400010
 20
97.69737530057361
 30
0.000000000000000
 11
252.8599970400010
 21
97.69737530057361
 31
0.000000000000000
  0
LINE
  5
EB
100
AcDbEntity
  8
A1
  6
CONTINUOUS
 62
7
100
AcDbLine
 10
252.8599970400010
 20
93.19737530057361
 30
0.000000000000000
 11
252.0599970400010
 21
93.19737530057361
 31
0.000000000000000
  0
LINE
  5
EC
100
AcDbEntity
  8
A1
  6
CONTINUOUS
 62
7
100
AcDbLine
 10
163.1599970400010
 20
97.69737530057358
 30
0.000000000000000
 11
163.9599970400010
 21
97.69737530057358
 31
0.000000000000000
  0
LINE
  5
ED
100
AcDbEntity
  8
A1
  6
CONTINUOUS
 62
7
100
AcDbLine
 10
163.9599970400010
 20
93.19737530057358
 30
0.000000000000000
 11
163.1599970400010
 21
93.19737530057358
 31
0.000000000000000
  0
LINE
  5
EE
100
AcDbEntity
  8
A1
  6
CONTINUOUS
 62
7
100
AcDbLine
 10
428.8967489280359
 20
90.44737530057357
 30
0.000000000000000
 11
423.1232451519630
 21
90.44737530057385
 31
0.000000000000000
  0
LINE
  5
EF
100
AcDbEntity
  8
A1
  6
CONTINUOUS
 62
7
100
AcDbLine
 10
423.1232451519630
 20
90.44737530057384
 30
0.000000000000000
 11
421.3099970399979
 21
93.58801315722509
 31
0.000000000000000
  0
LINE
  5
F0
100
AcDbEntity
  8
A1
  6
CONTINUOUS
 62
7
100
AcDbLine
 10
421.3099970399979
 20
93.58801315722506
 30
0.000000000000000
 11
421.3099970400010
 21
93.74737623934037
 31
0.000000000000000
  0
LINE
  5
F1
100
AcDbEntity
  8
A1
  6
CONTINUOUS
 62
7
100
AcDbLine
 10
421.3099970400010
 20
97.14737436180685
 30
0.000000000000000
 11
421.3099970400010
 21
97.30673744392806
 31
0.000000000000000
  0
LINE
  5
F2
100
AcDbEntity
  8
A1
  6
CONTINUOUS
 62
7
100
AcDbLine
 10
421.3099970400010
 20
97.30673744392806
 30
0.000000000000000
 11
423.1232451519629
 21
100.4473753005734
 31
0.000000000000000
  0
LINE
  5
F3
100
AcDbEntity
  8
A1
  6
CONTINUOUS
 62
7
100
AcDbLine
 10
423.1232451519630
 20
100.4473753005734
 30
0.000000000000000
 11
428.8967489280359
 21
100.4473753005736
 31
0.000000000000000
  0
LINE
  5
F4
100
AcDbEntity
  8
A1
  6
CONTINUOUS
 62
7
100
AcDbLine
 10
428.8967489280359
 20
100.4473753005736
 30
0.000000000000000
 11
430.7099970400020
 21
97.30673744392209
 31
0.000000000000000
  0
LINE
  5
F5
100
AcDbEntity
  8
A1
  6
CONTINUOUS
 62
7
100
AcDbLine
 10
430.7099970400020
 20
97.30673744392207
 30
0.000000000000000
 11
430.7099970400020
 21
97.14737436180697
 31
0.000000000000000
  0
LINE
  5
F6
100
AcDbEntity
  8
A1
  6
CONTINUOUS
 62
7
100
AcDbLine
 10
430.7099970400010
 20
93.74737623934026
 30
0.000000000000000
 11
430.7099970400020
 21
93.58801315722518
 31
0.000000000000000
  0
LINE
  5
F7
100
AcDbEntity
  8
A1
  6
CONTINUOUS
 62
7
100
AcDbLine
 10
430.7099970400019
 20
93.58801315722511
 30
0.000000000000000
 11
428.8967489280359
 21
90.44737530057350
 31
0.000000000000000
  0
ARC
  5
F8
100
AcDbEntity
  8
A1
  6
CONTINUOUS
 62
7
100
AcDbCircle
 10
519.1099970400032
 20
95.44737530057375
 30
0.000000000000000
 40
4.750000000000000
100
AcDbArc
 50
270.0000000000000
 51
450.0000000000000
  0
ARC
  5
F9
100
AcDbEntity
  8
A1
  6
CONTINUOUS
 62
7
100
AcDbCircle
 10
515.9099970400030
 20
95.44737530057378
 30
0.000000000000000
 40
4.750000000000000
100
AcDbArc
 50
90.00000000000000
 51
270.0000000000000
  0
LINE
  5
FA
100
AcDbEntity
  8
A1
  6
CONTINUOUS
 62
7
100
AcDbLine
 10
720.5599970400010
 20
85.74737530057340
 30
0.000000000000000
 11
720.5599970400010
 21
105.1473753005712
 31
0.000000000000000
  0
LINE
  5
FB
100
AcDbEntity
  8
A1
  6
CONTINUOUS
 62
7
100
AcDbLine
 10
515.9099970400031
 20
100.1973753005738
 30
0.000000000000000
 11
519.1099970400031
 21
100.1973753005737
 31
0.000000000000000
  0
LINE
  5
FC
100
AcDbEntity
  8
A1
  6
CONTINUOUS
 62
7
100
AcDbLine
 10
519.1099970400030
 20
90.69737530057373
 30
0.000000000000000
 11
515.9099970400030
 21
90.69737530057380
 31
0.000000000000000
  0
LINE
  5
FD
100
AcDbEntity
  8
A1
  6
CONTINUOUS
 62
7
100
AcDbLine
 10
720.5599970400010
 20
83.67589381836596
 30
0.000000000000000
 11
720.5599970400010
 21
83.32228270671067
 31
0.000000000000000
  0
LINE
  5
FE
100
AcDbEntity
  8
A1
  6
CONTINUOUS
 62
7
100
AcDbLine
 10
481.0599970400010
 20
83.32228270671233
 30
0.000000000000000
 11
720.5599970400010
 21
83.32228270671067
 31
0.000000000000000
  0
LINE
  5
FF
100
AcDbEntity
  8
A1
  6
CONTINUOUS
 62
7
100
AcDbLine
 10
720.5599970400010
 20
107.2188567827786
 30
0.000000000000000
 11
720.5599970400010
 21
107.5724678944340
 31
0.000000000000000
  0
LINE
  5
100
100
AcDbEntity
  8
A1
  6
CONTINUOUS
 62
7
100
AcDbLine
 10
720.5599970400010
 20
107.5724678944340
 30
0.000000000000000
 11
481.0599970400010
 21
107.5724678944356
 31
0.000000000000000
  0
LINE
  5
101
100
AcDbEntity
  8
A1
  6
CONTINUOUS
 62
7
100
AcDbLine
 10
720.5599970400010
 20
83.71094348120744
 30
0.000000000000000
 11
720.5599970400010
 21
83.67589381836596
 31
0.000000000000000
  0
LINE
  5
102
100
AcDbEntity
  8
A1
  6
CONTINUOUS
 62
7
100
AcDbLine
 10
481.0599970400010
 20
83.67589381836763
 30
0.000000000000000
 11
720.5599970400010
 21
83.67589381836596
 31
0.000000000000000
  0
LINE
  5
103
100
AcDbEntity
  8
A1
  6
CONTINUOUS
 62
7
100
AcDbLine
 10
720.5599970400010
 20
107.1838071199372
 30
0.000000000000000
 11
720.5599970400010
 21
107.2188567827787
 31
0.000000000000000
  0
LINE
  5
104
100
AcDbEntity
  8
A1
  6
CONTINUOUS
 62
7
100
AcDbLine
 10
481.0599970400010
 20
107.2188567827803
 30
0.000000000000000
 11
720.5599970400010
 21
107.2188567827786
 31
0.000000000000000
  0
LINE
  5
105
100
AcDbEntity
  8
A1
  6
CONTINUOUS
 62
7
100
AcDbLine
 10
720.5599970400010
 20
85.74737530057341
 30
0.000000000000000
 11
481.0599970400010
 21
85.74737530057506
 31
0.000000000000000
  0
LINE
  5
106
100
AcDbEntity
  8
A1
  6
CONTINUOUS
 62
7
100
AcDbLine
 10
720.5599970400010
 20
85.74737530057340
 30
0.000000000000000
 11
720.5599970400010
 21
85.01998893496383
 31
0.000000000000000
  0
LINE
  5
107
100
AcDbEntity
  8
A1
  6
CONTINUOUS
 62
7
100
AcDbLine
 10
720.5599970400010
 20
83.71094348120741
 30
0.000000000000000
 11
720.5599970400010
 21
85.01998893496385
 31
0.000000000000000
  0
LINE
  5
108
100
AcDbEntity
  8
A1
  6
CONTINUOUS
 62
7
100
AcDbLine
 10
481.0599970400010
 20
85.01998893496548
 30
0.000000000000000
 11
720.5599970400010
 21
85.01998893496385
 31
0.000000000000000
  0
LINE
  5
109
100
AcDbEntity
  8
A1
  6
CONTINUOUS
 62
7
100
AcDbLine
 10
481.0599970400010
 20
83.71094348120906
 30
0.000000000000000
 11
720.5599970400010
 21
83.71094348120741
 31
0.000000000000000
  0
LINE
  5
10A
100
AcDbEntity
  8
A1
  6
CONTINUOUS
 62
7
100
AcDbLine
 10
720.5599970400010
 20
107.1838071199372
 30
0.000000000000000
 11
720.5599970400010
 21
105.8747616661807
 31
0.000000000000000
  0
LINE
  5
10B
100
AcDbEntity
  8
A1
  6
CONTINUOUS
 62
7
100
AcDbLine
 10
481.0599970400010
 20
107.1838071199388
 30
0.000000000000000
 11
720.5599970400010
 21
107.1838071199372
 31
0.000000000000000
  0
LINE
  5
10C
100
AcDbEntity
  8
A1
  6
CONTINUOUS
 62
7
100
AcDbLine
 10
481.0599970400010
 20
105.8747616661824
 30
0.000000000000000
 11
720.5599970400010
 21
105.8747616661807
 31
0.000000000000000
  0
LINE
  5
10D
100
AcDbEntity
  8
A1
  6
CONTINUOUS
 62
7
100
AcDbLine
 10
481.0599970400010
 20
105.1473753005728
 30
0.000000000000000
 11
720.5599970400010
 21
105.1473753005712
 31
0.000000000000000
  0
LINE
  5
10E
100
AcDbEntity
  8
A1
  6
CONTINUOUS
 62
7
100
AcDbLine
 10
720.5599970400010
 20
105.1473753005712
 30
0.000000000000000
 11
720.5599970400010
 21
105.8747616661807
 31
0.000000000000000
  0
SPLINE
  5
10F
100
AcDbEntity
  8
A1
  6
CONTINUOUS
 62
7
100
AcDbSpline
210
0.000000000000000
220
0.000000000000000
230
1.000000000000000
 70
     8
 71
     3
 72
    10
 73
     6
 74
     0
 42
1.000000000000000e-07
 43
1.000000000000000e-07
 12
0.9693677461787047
 22
-0.2456138690499756
 32
0.000000000000000
 13
0.9976299186261031
 23
-0.06880803340754937
 33
0.000000000000000
 40
0.000000000000000
 40
0.000000000000000
 40
0.000000000000000
 40
0.000000000000000
 40
0.1593552073508928
 40
0.2995991515672839
 40
0.4336349660028338
 40
0.4336349660028338
 40
0.4336349660028338
 40
0.4336349660028338
 10
25.11296509151379
 20
163.8020163908885
 30
0.000000000000000
 10
25.16445635757765
 20
163.7889697745449
 30
0.000000000000000
 10
25.26169655623863
 20
163.7663599957288
 30
0.000000000000000
 10
25.40219763195597
 20
163.7317263764155
 30
0.000000000000000
 10
25.49334622605596
 20
163.7217217149804
 30
0.000000000000000
 10
25.53791893893873
 20
163.7186474680479
 30
0.000000000000000
  0
SPLINE
  5
110
100
AcDbEntity
  8
A1
  6
CONTINUOUS
 62
7
100
AcDbSpline
210
0.000000000000000
220
0.000000000000000
230
1.000000000000000
 70
     8
 71
     3
 72
    17
 73
    13
 74
     0
 42
1.000000000000000e-07
 43
1.000000000000000e-07
 12
0.01297619499609937
 22
0.9999158056375563
 32
0.000000000000000
 13
-0.9999943034122225
 23
-0.003375373450126062
 33
0.000000000000000
 40
0.000000000000000
 40
0.000000000000000
 40
0.000000000000000
 40
0.000000000000000
 40
0.3665938535936336
 40
0.7277380964931701
 40
1.066963995356133
 40
1.410431768882714
 40
1.718141130059604
 40
2.043415589480080
 40
2.378062680964339
 40
2.735812780474503
 40
3.141763377117882
 40
3.569270663111622
 40
3.569270663111622
 40
3.569270663111622
 40
3.569270663111622
 10
481.0599970400010
 20
170.3023289213928
 30
0.000000000000000
 10
481.0615827044439
 20
170.4245165842121
 30
0.000000000000000
 10
481.0461346539291
 20
170.6674822279777
 30
0.000000000000000
 10
480.9757760529539
 20
171.0176144018052
 30
0.000000000000000
 10
480.8434000348929
 20
171.3420010097334
 30
0.000000000000000
 10
480.6541950919440
 20
171.6160659373060
 30
0.000000000000000
 10
480.4148297788710
 20
171.8396434900175
 30
0.000000000000000
 10
480.1406468626939
 20
172.0127328704894
 30
0.000000000000000
 10
479.8274336257600
 20
172.1459997115656
 30
0.000000000000000
 10
479.4736794273969
 20
172.2438306151739
 30
0.000000000000000
 10
479.0805389143119
 20
172.3046016507204
 30
0.000000000000000
 10
478.8024986568880
 20
172.3191284669622
 30
0.000000000000000
 10
478.6599970400011
 20
172.3186474680479
 30
0.000000000000000
  0
ELLIPSE
  5
111
100
AcDbEntity
  8
A1
  6
CONTINUOUS
 62
7
100
AcDbEllipse
 10
25.83037221590774
 20
165.3186474680480
 30
0.000000000000000
 11
2.251857343893305
 21
0.000000000000000
 31
0.000000000000000
210
0.000000000000000
220
0.000000000000000
230
1.000000000000000
 40
0.7105245828911176
 41
3.925519873442453
 42
4.388153047842820
  0
ARC
  5
112
100
AcDbEntity
  8
A1
  6
CONTINUOUS
 62
7
100
AcDbCircle
 10
25.45999704000036
 20
165.3186474680471
 30
0.000000000000000
 40
1.599999999999220
100
AcDbArc
 50
235.5158900442366
 51
270.0000000000102
  0
LINE
  5
113
100
AcDbEntity
  8
A1
  6
CONTINUOUS
 62
7
100
AcDbLine
 10
25.45999704000127
 20
163.7186474680479
 30
0.000000000000000
 11
25.53791893893873
 21
163.7186474680479
 31
0.000000000000000
  0
LINE
  5
114
100
AcDbEntity
  8
A1
  6
CONTINUOUS
 62
7
100
AcDbLine
 10
481.0599970400010
 20
163.7186474680479
 30
0.000000000000000
 11
481.0599970400010
 21
164.1889420241568
 31
0.000000000000000
  0
LINE
  5
115
100
AcDbEntity
  8
A1
  6
CONTINUOUS
 62
7
100
AcDbLine
 10
25.53791893893873
 20
163.7186474680479
 30
0.000000000000000
 11
481.0599970400010
 21
163.7186474680479
 31
0.000000000000000
  0
LINE
  5
116
100
AcDbEntity
  8
A1
  6
CONTINUOUS
 62
7
100
AcDbLine
 10
23.85999704000068
 20
166.1943838583203
 30
0.000000000000000
 11
23.85999704000068
 21
164.4566947580893
 31
0.000000000000000
  0
LINE
  5
117
100
AcDbEntity
  8
A1
  6
CONTINUOUS
 62
7
100
AcDbLine
 10
481.0599970400010
 20
164.1889420241568
 30
0.000000000000000
 11
481.0599970400010
 21
166.1943838583201
 31
0.000000000000000
  0
LINE
  5
118
100
AcDbEntity
  8
A1
  6
CONTINUOUS
 62
7
100
AcDbLine
 10
24.23572815253482
 20
164.1889420241569
 30
0.000000000000000
 11
481.0599970400010
 21
164.1889420241568
 31
0.000000000000000
  0
LINE
  5
119
100
AcDbEntity
  8
A1
  6
CONTINUOUS
 62
7
100
AcDbLine
 10
24.23572815253483
 20
164.1889420241569
 30
0.000000000000000
 11
23.85999704000071
 21
164.4566947580893
 31
0.000000000000000
  0
LINE
  5
11A
100
AcDbEntity
  8
A1
  6
CONTINUOUS
 62
7
100
AcDbLine
 10
23.85999704000068
 20
166.1943838583203
 30
0.000000000000000
 11
23.85999704000068
 21
172.3186474680478
 31
0.000000000000000
  0
LINE
  5
11B
100
AcDbEntity
  8
A1
  6
CONTINUOUS
 62
7
100
AcDbLine
 10
481.0599970400010
 20
166.1943838583202
 30
0.000000000000000
 11
481.0599970400010
 21
170.3023289213928
 31
0.000000000000000
  0
LINE
  5
11C
100
AcDbEntity
  8
A1
  6
CONTINUOUS
 62
7
100
AcDbLine
 10
23.85999704000067
 20
172.3186474680478
 30
0.000000000000000
 11
478.6599970400011
 21
172.3186474680479
 31
0.000000000000000
  0
LINE
  5
11D
100
AcDbEntity
  8
A1
  6
CONTINUOUS
 62
7
100
AcDbLine
 10
23.85999704000068
 20
166.1943838583203
 30
0.000000000000000
 11
481.0599970400010
 21
166.1943838583201
 31
0.000000000000000
  0
SPLINE
  5
11E
100
AcDbEntity
  8
A1
  6
CONTINUOUS
 62
7
100
AcDbSpline
210
0.000000000000000
220
0.000000000000000
230
1.000000000000000
 70
     8
 71
     3
 72
    10
 73
     6
 74
     0
 42
1.000000000000000e-07
 43
1.000000000000000e-07
 12
-0.9693677461837069
 22
0.2456138690508851
 32
0.000000000000000
 13
-0.9976299186128017
 23
0.06880803340982311
 33
0.000000000000000
 40
0.000000000000000
 40
0.000000000000000
 40
0.000000000000000
 40
0.000000000000000
 40
0.1593552073511137
 40
0.2995991515676147
 40
0.4336349660029386
 40
0.4336349660029386
 40
0.4336349660029386
 40
0.4336349660029386
 10
958.8070289884881
 20
182.8352785452074
 30
0.000000000000000
 10
958.7555377224242
 20
182.8483251615510
 30
0.000000000000000
 10
958.6582975237629
 20
182.8709349403670
 30
0.000000000000000
 10
958.5177964480461
 20
182.9055685596803
 30
0.000000000000000
 10
958.4266478539450
 20
182.9155732211154
 30
0.000000000000000
 10
958.3820751410631
 20
182.9186474680480
 30
0.000000000000000
  0
SPLINE
  5
11F
100
AcDbEntity
  8
A1
  6
CONTINUOUS
 62
7
100
AcDbSpline
210
0.000000000000000
220
0.000000000000000
230
1.000000000000000
 70
     8
 71
     3
 72
    17
 73
    13
 74
     0
 42
1.000000000000000e-07
 43
1.000000000000000e-07
 12
-0.01297619500383007
 22
-0.9999158056366468
 32
0.000000000000000
 13
0.9999943034135867
 23
0.003375373451717678
 33
0.000000000000000
 40
0.000000000000000
 40
0.000000000000000
 40
0.000000000000000
 40
0.000000000000000
 40
0.3665938535936344
 40
0.7277380964931744
 40
1.066963995356226
 40
1.410431768882809
 40
1.718141130059536
 40
2.043415589480012
 40
2.378062680964272
 40
2.735812780474437
 40
3.141763377118040
 40
3.569270663111552
 40
3.569270663111552
 40
3.569270663111552
 40
3.569270663111552
 10
502.8599970400009
 20
176.3349660147031
 30
0.000000000000000
 10
502.8584113755571
 20
176.2127783518839
 30
0.000000000000000
 10
502.8738594260719
 20
175.9698127081182
 30
0.000000000000000
 10
502.9442180270480
 20
175.6196805342907
 30
0.000000000000000
 10
503.0765940451080
 20
175.2952939263625
 30
0.000000000000000
 10
503.2657989880569
 20
175.0212289987900
 30
0.000000000000000
 10
503.5051643011311
 20
174.7976514460783
 30
0.000000000000000
 10
503.7793472173079
 20
174.6245620656065
 30
0.000000000000000
 10
504.0925604542419
 20
174.4912952245303
 30
0.000000000000000
 10
504.4463146526049
 20
174.3934643209220
 30
0.000000000000000
 10
504.8394551656890
 20
174.3326932853755
 30
0.000000000000000
 10
505.1174954231139
 20
174.3181664691336
 30
0.000000000000000
 10
505.2599970400010
 20
174.3186474680481
 30
0.000000000000000
  0
ELLIPSE
  5
120
100
AcDbEntity
  8
A1
  6
CONTINUOUS
 62
7
100
AcDbEllipse
 10
958.0896218640939
 20
181.3186474680479
 30
0.000000000000000
 11
2.251857343893305
 21
0.000000000000000
 31
0.000000000000000
210
0.000000000000000
220
0.000000000000000
230
1.000000000000000
 40
0.7105245828911176
 41
0.7839272198526694
 42
1.246560394253027
  0
ARC
  5
121
100
AcDbEntity
  8
A1
  6
CONTINUOUS
 62
7
100
AcDbCircle
 10
958.4599970400011
 20
181.3186474680491
 30
0.000000000000000
 40
1.599999999998796
100
AcDbArc
 50
55.51589004423601
 51
90.00000000001425
  0
LINE
  5
122
100
AcDbEntity
  8
A1
  6
CONTINUOUS
 62
7
100
AcDbLine
 10
958.4599970400000
 20
182.9186474680478
 30
0.000000000000000
 11
958.3820751410631
 21
182.9186474680478
 31
0.000000000000000
  0
LINE
  5
123
100
AcDbEntity
  8
A1
  6
CONTINUOUS
 62
7
100
AcDbLine
 10
502.8599970400009
 20
182.9186474680480
 30
0.000000000000000
 11
502.8599970400009
 21
182.4483529119391
 31
0.000000000000000
  0
LINE
  5
124
100
AcDbEntity
  8
A1
  6
CONTINUOUS
 62
7
100
AcDbLine
 10
958.3820751410631
 20
182.9186474680479
 30
0.000000000000000
 11
502.8599970400009
 21
182.9186474680480
 31
0.000000000000000
  0
LINE
  5
125
100
AcDbEntity
  8
A1
  6
CONTINUOUS
 62
7
100
AcDbLine
 10
960.0599970400010
 20
180.4429110777756
 30
0.000000000000000
 11
960.0599970400010
 21
182.1806001780066
 31
0.000000000000000
  0
LINE
  5
126
100
AcDbEntity
  8
A1
  6
CONTINUOUS
 62
7
100
AcDbLine
 10
502.8599970400009
 20
182.4483529119391
 30
0.000000000000000
 11
502.8599970400009
 21
180.4429110777758
 31
0.000000000000000
  0
LINE
  5
127
100
AcDbEntity
  8
A1
  6
CONTINUOUS
 62
7
100
AcDbLine
 10
959.6842659274671
 20
182.4483529119390
 30
0.000000000000000
 11
502.8599970400010
 21
182.4483529119391
 31
0.000000000000000
  0
LINE
  5
128
100
AcDbEntity
  8
A1
  6
CONTINUOUS
 62
7
100
AcDbLine
 10
959.6842659274669
 20
182.4483529119390
 30
0.000000000000000
 11
960.0599970400008
 21
182.1806001780066
 31
0.000000000000000
  0
LINE
  5
129
100
AcDbEntity
  8
A1
  6
CONTINUOUS
 62
7
100
AcDbLine
 10
502.8599970400009
 20
180.4429110777757
 30
0.000000000000000
 11
502.8599970400009
 21
176.3349660147031
 31
0.000000000000000
  0
LINE
  5
12A
100
AcDbEntity
  8
A1
  6
CONTINUOUS
 62
7
100
AcDbLine
 10
960.0599970400010
 20
174.3186474680481
 30
0.000000000000000
 11
505.2599970400010
 21
174.3186474680481
 31
0.000000000000000
  0
LINE
  5
12B
100
AcDbEntity
  8
A1
  6
CONTINUOUS
 62
7
100
AcDbLine
 10
960.0599970400010
 20
180.4429110777756
 30
0.000000000000000
 11
960.0599970400010
 21
174.3186474680481
 31
0.000000000000000
  0
LINE
  5
12C
100
AcDbEntity
  8
A1
  6
CONTINUOUS
 62
7
100
AcDbLine
 10
960.0599970400009
 20
180.4429110777756
 30
0.000000000000000
 11
502.8599970400008
 21
180.4429110777758
 31
0.000000000000000
  0
LINE
  5
12D
100
AcDbEntity
  8
A1
  6
CONTINUOUS
 62
7
100
AcDbLine
 10
266.5599970400010
 20
173.3186474680478
 30
0.000000000000000
 11
264.9599970400010
 21
173.3186474680478
 31
0.000000000000000
  0
LINE
  5
12E
100
AcDbEntity
  8
A1
  6
CONTINUOUS
 62
7
100
AcDbLine
 10
718.9599970400011
 20
173.3186474680479
 30
0.000000000000000
 11
717.3599970400010
 21
173.3186474680479
 31
0.000000000000000
  0
LINE
  5
12F
100
AcDbEntity
  8
A1
  6
CONTINUOUS
 62
7
100
AcDbLine
 10
468.1599970400011
 20
173.3186474680478
 30
0.000000000000000
 11
464.9599970400010
 21
173.3186474680478
 31
0.000000000000000
  0
LINE
  5
130
100
AcDbEntity
  8
A1
  6
CONTINUOUS
 62
7
100
AcDbLine
 10
518.9599970400011
 20
173.3186474680479
 30
0.000000000000000
 11
515.7599970400011
 21
173.3186474680479
 31
0.000000000000000
  0
LINE
  5
131
100
AcDbEntity
  8
A1
  6
CONTINUOUS
 62
7
100
AcDbLine
 10
720.5599970400010
 20
167.6386474680484
 30
0.000000000000000
 11
720.5599970400010
 21
166.7186474680482
 31
0.000000000000000
  0
LINE
  5
132
100
AcDbEntity
  8
A1
  6
CONTINUOUS
 62
7
100
AcDbLine
 10
481.0599970400010
 20
166.7186474680481
 30
0.000000000000000
 11
720.5599970400010
 21
166.7186474680481
 31
0.000000000000000
  0
LINE
  5
133
100
AcDbEntity
  8
A1
  6
CONTINUOUS
 62
7
100
AcDbLine
 10
263.3599970400009
 20
178.9986474680474
 30
0.000000000000000
 11
263.3599970400009
 21
179.9186474680476
 31
0.000000000000000
  0
LINE
  5
134
100
AcDbEntity
  8
A1
  6
CONTINUOUS
 62
7
100
AcDbLine
 10
502.8599970400009
 20
179.9186474680477
 30
0.000000000000000
 11
263.3599970400009
 21
179.9186474680476
 31
0.000000000000000
  0
LINE
  5
135
100
AcDbEntity
  8
A1
  6
CONTINUOUS
 62
7
100
AcDbLine
 10
720.5599970400010
 20
167.6386474680484
 30
0.000000000000000
 11
720.5599970400010
 21
170.4472188966199
 31
0.000000000000000
  0
LINE
  5
136
100
AcDbEntity
  8
A1
  6
CONTINUOUS
 62
7
100
AcDbLine
 10
481.0599970400010
 20
167.6386474680484
 30
0.000000000000000
 11
720.5599970400010
 21
167.6386474680484
 31
0.000000000000000
  0
LINE
  5
137
100
AcDbEntity
  8
A1
  6
CONTINUOUS
 62
7
100
AcDbLine
 10
263.3599970400009
 20
178.9986474680474
 30
0.000000000000000
 11
263.3599970400009
 21
176.1900760394760
 31
0.000000000000000
  0
LINE
  5
138
100
AcDbEntity
  8
A1
  6
CONTINUOUS
 62
7
100
AcDbLine
 10
502.8599970400009
 20
178.9986474680474
 30
0.000000000000000
 11
263.3599970400009
 21
178.9986474680474
 31
0.000000000000000
  0
LINE
  5
139
100
AcDbEntity
  8
A1
  6
CONTINUOUS
 62
7
100
AcDbLine
 10
720.5599970400010
 20
170.4472188966199
 30
0.000000000000000
 11
720.5599970400010
 21
173.3186474680479
 31
0.000000000000000
  0
LINE
  5
13A
100
AcDbEntity
  8
A1
  6
CONTINUOUS
 62
7
100
AcDbLine
 10
264.9599970400010
 20
172.3186474680478
 30
0.000000000000000
 11
264.9599970400010
 21
173.3186474680478
 31
0.000000000000000
  0
LINE
  5
13B
100
AcDbEntity
  8
A1
  6
CONTINUOUS
 62
7
100
AcDbLine
 10
718.9599970400011
 20
173.3186474680479
 30
0.000000000000000
 11
720.5599970400010
 21
173.3186474680479
 31
0.000000000000000
  0
LINE
  5
13C
100
AcDbEntity
  8
A1
  6
CONTINUOUS
 62
7
100
AcDbLine
 10
481.0511928704240
 20
170.4472188966198
 30
0.000000000000000
 11
720.5599970400010
 21
170.4472188966199
 31
0.000000000000000
  0
LINE
  5
13D
100
AcDbEntity
  8
A1
  6
CONTINUOUS
 62
7
100
AcDbLine
 10
718.9599970400011
 20
174.3186474680477
 30
0.000000000000000
 11
718.9599970400011
 21
173.3186474680479
 31
0.000000000000000
  0
LINE
  5
13E
100
AcDbEntity
  8
A1
  6
CONTINUOUS
 62
7
100
AcDbLine
 10
263.3599970400009
 20
176.1900760394760
 30
0.000000000000000
 11
263.3599970400009
 21
173.3186474680479
 31
0.000000000000000
  0
LINE
  5
13F
100
AcDbEntity
  8
A1
  6
CONTINUOUS
 62
7
100
AcDbLine
 10
264.9599970400010
 20
173.3186474680478
 30
0.000000000000000
 11
263.3599970400009
 21
173.3186474680478
 31
0.000000000000000
  0
LINE
  5
140
100
AcDbEntity
  8
A1
  6
CONTINUOUS
 62
7
100
AcDbLine
 10
264.9599970400010
 20
173.3186474680479
 30
0.000000000000000
 11
718.9599970400011
 21
173.3186474680479
 31
0.000000000000000
  0
LINE
  5
141
100
AcDbEntity
  8
A1
  6
CONTINUOUS
 62
7
100
AcDbLine
 10
502.8688012095781
 20
176.1900760394760
 30
0.000000000000000
 11
263.3599970400009
 21
176.1900760394760
 31
0.000000000000000
  0
ARC
  5
142
100
AcDbEntity
  8
A3
  6
DASHED
 62
2
100
AcDbCircle
 10
464.8099970400071
 20
95.44737530057385
 30
0.000000000000000
 40
4.750000000000000
100
AcDbArc
 50
90.00000000000000
 51
270.0000000000000
  0
LINE
  5
143
100
AcDbEntity
  8
A3
  6
DASHED
 62
2
100
AcDbLine
 10
464.8099970400071
 20
100.1973753005739
 30
0.000000000000000
 11
468.0099970400070
 21
100.1973753005739
 31
0.000000000000000
  0
ARC
  5
144
100
AcDbEntity
  8
A3
  6
DASHED
 62
2
100
AcDbCircle
 10
468.0099970400070
 20
95.44737530057385
 30
0.000000000000000
 40
4.750000000000000
100
AcDbArc
 50
270.0000000000000
 51
450.0000000000000
  0
LINE
  5
145
100
AcDbEntity
  8
A3
  6
DASHED
 62
2
100
AcDbLine
 10
468.0099970400070
 20
90.69737530057390
 30
0.000000000000000
 11
464.8099970400071
 21
90.69737530057390
 31
0.000000000000000
  0
LINE
  5
146
100
AcDbEntity
  8
A3
  6
DASHED
 62
2
100
AcDbLine
 10
533.7099970400011
 20
95.84737530057390
 30
0.000000000000000
 11
533.7099970400011
 21
95.04737530057390
 31
0.000000000000000
  0
LINE
  5
147
100
AcDbEntity
  8
A3
  6
DASHED
 62
2
100
AcDbLine
 10
529.2099970400011
 20
95.04737530057390
 30
0.000000000000000
 11
529.2099970400011
 21
95.84737530057390
 31
0.000000000000000
  0
ARC
  5
148
100
AcDbEntity
  8
A3
  6
DASHED
 62
2
100
AcDbCircle
 10
531.4599970400011
 20
95.84737530057390
 30
0.000000000000000
 40
2.250000000000000
100
AcDbArc
 50
0.000000000000000
 51
180.0000000000000
  0
ARC
  5
149
100
AcDbEntity
  8
A3
  6
DASHED
 62
2
100
AcDbCircle
 10
531.4599970400011
 20
95.04737530057390
 30
0.000000000000000
 40
2.250000000000000
100
AcDbArc
 50
180.0000000000000
 51
360.0000000000000
  0
LINE
  5
14A
100
AcDbEntity
  8
A3
  6
DASHED
 62
2
100
AcDbLine
 10
544.5599970400010
 20
93.19737530057391
 30
0.000000000000000
 11
543.7599970400009
 21
93.19737530057391
 31
0.000000000000000
  0
ARC
  5
14B
100
AcDbEntity
  8
A3
  6
DASHED
 62
2
100
AcDbCircle
 10
543.7599970400009
 20
95.44737530057390
 30
0.000000000000000
 40
2.250000000000000
100
AcDbArc
 50
90.00000000000000
 51
270.0000000000000
  0
LINE
  5
14C
100
AcDbEntity
  8
A3
  6
DASHED
 62
2
100
AcDbLine
 10
543.7599970400009
 20
97.69737530057391
 30
0.000000000000000
 11
544.5599970400010
 21
97.69737530057391
 31
0.000000000000000
  0
ARC
  5
14D
100
AcDbEntity
  8
A3
  6
DASHED
 62
2
100
AcDbCircle
 10
544.5599970400010
 20
95.44737530057390
 30
0.000000000000000
 40
2.250000000000000
100
AcDbArc
 50
270.0000000000000
 51
450.0000000000000
  0
LINE
  5
14E
100
AcDbEntity
  8
A3
  6
DASHED
 62
2
100
AcDbLine
 10
630.2599970400011
 20
93.19737530057391
 30
0.000000000000000
 11
629.4599970400011
 21
93.19737530057391
 31
0.000000000000000
  0
LINE
  5
14F
100
AcDbEntity
  8
A3
  6
DASHED
 62
2
100
AcDbLine
 10
629.4599970400011
 20
97.69737530057391
 30
0.000000000000000
 11
630.2599970400011
 21
97.69737530057391
 31
0.000000000000000
  0
ARC
  5
150
100
AcDbEntity
  8
A3
  6
DASHED
 62
2
100
AcDbCircle
 10
629.4599970400011
 20
95.44737530057390
 30
0.000000000000000
 40
2.250000000000000
100
AcDbArc
 50
90.00000000000000
 51
270.0000000000000
  0
ARC
  5
151
100
AcDbEntity
  8
A3
  6
DASHED
 62
2
100
AcDbCircle
 10
630.2599970400011
 20
95.44737530057390
 30
0.000000000000000
 40
2.250000000000000
100
AcDbArc
 50
270.0000000000000
 51
450.0000000000000
  0
LINE
  5
152
100
AcDbEntity
  8
A4
  6
CENTER
 62
1
100
AcDbLine
 10
931.4599970400009
 20
91.29737530057399
 30
0.000000000000000
 11
931.4599970400009
 21
99.59737530057403
 31
0.000000000000000
  0
LINE
  5
153
100
AcDbEntity
  8
A4
  6
CENTER
 62
1
100
AcDbLine
 10
944.1599970400009
 20
91.29737530057400
 30
0.000000000000000
 11
944.1599970400009
 21
99.59737530057402
 31
0.000000000000000
  0
LINE
  5
154
100
AcDbEntity
  8
A4
  6
CENTER
 62
1
100
AcDbLine
 10
820.3599970400010
 20
99.19737530057398
 30
0.000000000000000
 11
820.3599970400010
 21
91.69737530057398
 31
0.000000000000000
  0
LINE
  5
155
100
AcDbEntity
  8
A4
  6
CENTER
 62
1
100
AcDbLine
 10
731.4599970400010
 20
99.19737530057398
 30
0.000000000000000
 11
731.4599970400010
 21
91.69737530057398
 31
0.000000000000000
  0
LINE
  5
156
100
AcDbEntity
  8
A4
  6
CENTER
 62
1
100
AcDbLine
 10
629.8599970400011
 20
99.19737530057398
 30
0.000000000000000
 11
629.8599970400011
 21
91.69737530057398
 31
0.000000000000000
  0
LINE
  5
157
100
AcDbEntity
  8
A4
  6
CENTER
 62
1
100
AcDbLine
 10
544.1599970400009
 20
99.19737530057398
 30
0.000000000000000
 11
544.1599970400009
 21
91.69737530057398
 31
0.000000000000000
  0
LINE
  5
158
100
AcDbEntity
  8
A4
  6
CENTER
 62
1
100
AcDbLine
 10
531.4599970400011
 20
91.29737530057390
 30
0.000000000000000
 11
531.4599970400011
 21
99.59737530057390
 31
0.000000000000000
  0
LINE
  5
159
100
AcDbEntity
  8
A4
  6
CENTER
 62
1
100
AcDbLine
 10
518.7599970400009
 20
91.29737530057390
 30
0.000000000000000
 11
518.7599970400009
 21
99.59737530057390
 31
0.000000000000000
  0
LINE
  5
15A
100
AcDbEntity
  8
A3
  6
DASHED
 62
2
100
AcDbLine
 10
502.8599970400009
 20
107.5724678944355
 30
0.000000000000000
 11
502.8599970400009
 21
83.32228270671223
 31
0.000000000000000
  0
LINE
  5
15B
100
AcDbEntity
  8
A4
  6
CENTER
 62
1
100
AcDbLine
 10
465.1599970400009
 20
91.29737530057366
 30
0.000000000000000
 11
465.1599970400009
 21
99.59737530057366
 31
0.000000000000000
  0
LINE
  5
15C
100
AcDbEntity
  8
A4
  6
CENTER
 62
1
100
AcDbLine
 10
452.4599970400010
 20
91.29737530057366
 30
0.000000000000000
 11
452.4599970400010
 21
99.59737530057366
 31
0.000000000000000
  0
LINE
  5
15D
100
AcDbEntity
  8
A4
  6
CENTER
 62
1
100
AcDbLine
 10
439.7599970400009
 20
91.69737530057398
 30
0.000000000000000
 11
439.7599970400009
 21
99.19737530057398
 31
0.000000000000000
  0
LINE
  5
15E
100
AcDbEntity
  8
A4
  6
CENTER
 62
1
100
AcDbLine
 10
354.0599970400010
 20
91.69737530057398
 30
0.000000000000000
 11
354.0599970400010
 21
99.19737530057398
 31
0.000000000000000
  0
LINE
  5
15F
100
AcDbEntity
  8
A4
  6
CENTER
 62
1
100
AcDbLine
 10
252.4599970400010
 20
91.69737530057398
 30
0.000000000000000
 11
252.4599970400010
 21
99.19737530057398
 31
0.000000000000000
  0
LINE
  5
160
100
AcDbEntity
  8
A4
  6
CENTER
 62
1
100
AcDbLine
 10
163.5599970400010
 20
91.69737530057398
 30
0.000000000000000
 11
163.5599970400010
 21
99.19737530057398
 31
0.000000000000000
  0
LINE
  5
161
100
AcDbEntity
  8
A4
  6
CENTER
 62
1
100
AcDbLine
 10
52.45999704000103
 20
99.59737530057370
 30
0.000000000000000
 11
52.45999704000103
 21
94.34737530057370
 31
0.000000000000000
  0
LINE
  5
162
100
AcDbEntity
  8
A4
  6
CENTER
 62
1
100
AcDbLine
 10
52.45999704000103
 20
96.54737530057363
 30
0.000000000000000
 11
52.45999704000103
 21
91.29737530057363
 31
0.000000000000000
  0
LINE
  5
163
100
AcDbEntity
  8
A4
  6
CENTER
 62
1
100
AcDbLine
 10
39.75999704000093
 20
96.54737530057369
 30
0.000000000000000
 11
39.75999704000093
 21
91.29737530057366
 31
0.000000000000000
  0
LINE
  5
164
100
AcDbEntity
  8
A4
  6
CENTER
 62
1
100
AcDbLine
 10
39.75999704000093
 20
99.59737530057367
 30
0.000000000000000
 11
39.75999704000093
 21
94.34737530057365
 31
0.000000000000000
  0
LINE
  5
165
100
AcDbEntity
  8
A4
  6
CENTER
 62
1
100
AcDbLine
 10
22.35999704000093
 20
95.44737530057370
 30
0.000000000000000
 11
961.5599970400010
 21
95.44737530057392
 31
0.000000000000000
  0
LINE
  5
166
100
AcDbEntity
  8
A4
  6
CENTER
 62
1
100
AcDbLine
 10
931.4599970400009
 20
178.4186474680480
 30
0.000000000000000
 11
931.4599970400009
 21
186.0462294334895
 31
0.000000000000000
  0
LINE
  5
167
100
AcDbEntity
  8
A4
  6
CENTER
 62
1
100
AcDbLine
 10
820.3599970400010
 20
178.4186474680480
 30
0.000000000000000
 11
820.3599970400010
 21
186.0462294334895
 31
0.000000000000000
  0
LINE
  5
168
100
AcDbEntity
  8
A4
  6
CENTER
 62
1
100
AcDbLine
 10
731.4599970400010
 20
178.4186474680480
 30
0.000000000000000
 11
731.4599970400010
 21
186.0462294334895
 31
0.000000000000000
  0
LINE
  5
169
100
AcDbEntity
  8
A4
  6
CENTER
 62
1
100
AcDbLine
 10
629.8599970400011
 20
178.4186474680480
 30
0.000000000000000
 11
629.8599970400011
 21
186.0462294334895
 31
0.000000000000000
  0
LINE
  5
16A
100
AcDbEntity
  8
A4
  6
CENTER
 62
1
100
AcDbLine
 10
544.1599970400009
 20
178.4186474680480
 30
0.000000000000000
 11
544.1599970400009
 21
186.0462294334895
 31
0.000000000000000
  0
LINE
  5
16B
100
AcDbEntity
  8
A4
  6
CENTER
 62
1
100
AcDbLine
 10
531.4599970400011
 20
178.4186474680480
 30
0.000000000000000
 11
531.4599970400011
 21
186.0462294334895
 31
0.000000000000000
  0
LINE
  5
16C
100
AcDbEntity
  8
A4
  6
CENTER
 62
1
100
AcDbLine
 10
518.7599970400009
 20
178.4186474680480
 30
0.000000000000000
 11
518.7599970400009
 21
186.0462294334895
 31
0.000000000000000
  0
LINE
  5
16D
100
AcDbEntity
  8
A4
  6
CENTER
 62
1
100
AcDbLine
 10
452.4599970400010
 20
161.0902006619571
 30
0.000000000000000
 11
452.4599970400010
 21
168.2186474680479
 31
0.000000000000000
  0
LINE
  5
16E
100
AcDbEntity
  8
A4
  6
CENTER
 62
1
100
AcDbLine
 10
439.7599970400283
 20
161.0902006619627
 30
0.000000000000000
 11
439.7599970400315
 21
168.2186474680535
 31
0.000000000000000
  0
LINE
  5
16F
100
AcDbEntity
  8
A4
  6
CENTER
 62
1
100
AcDbLine
 10
354.0599970398707
 20
161.0902006617824
 30
0.000000000000000
 11
354.0599970398557
 21
168.2186474678732
 31
0.000000000000000
  0
LINE
  5
170
100
AcDbEntity
  8
A4
  6
CENTER
 62
1
100
AcDbLine
 10
252.4599970400010
 20
161.0902006617824
 30
0.000000000000000
 11
252.4599970400010
 21
168.2186474678732
 31
0.000000000000000
  0
LINE
  5
171
100
AcDbEntity
  8
A4
  6
CENTER
 62
1
100
AcDbLine
 10
163.5599970400010
 20
161.0902006617824
 30
0.000000000000000
 11
163.5599970400010
 21
168.2186474678732
 31
0.000000000000000
  0
LINE
  5
172
100
AcDbEntity
  8
A4
  6
CENTER
 62
1
100
AcDbLine
 10
52.45999703998898
 20
161.0902006617606
 30
0.000000000000000
 11
52.45999703998758
 21
168.2186474678514
 31
0.000000000000000
  0
LINE
  5
173
100
AcDbEntity
  8
A4
  6
CENTER
 62
1
100
AcDbLine
 10
39.75999704002834
 20
161.0902006617663
 30
0.000000000000000
 11
39.75999704003151
 21
168.2186474678570
 31
0.000000000000000
  0
LINE
  5
174
100
AcDbEntity
  8
A4
  6
CENTER
 62
1
100
AcDbLine
 10
944.1599970400009
 20
178.4186474680480
 30
0.000000000000000
 11
944.1599970400009
 21
186.0462294334895
 31
0.000000000000000
  0
LINE
  5
175
100
AcDbEntity
  8
A4
  6
CENTER
 62
1
100
AcDbLine
 10
465.1599970400009
 20
161.0902006619571
 30
0.000000000000000
 11
465.1599970400009
 21
168.2186474680479
 31
0.000000000000000
  0
LINE
  5
176
100
AcDbEntity
  8
A3
  6
DASHED
 62
2
100
AcDbLine
 10
481.0599970400010
 20
166.7186474680481
 30
0.000000000000000
 11
264.9599970400010
 21
166.7186474680481
 31
0.000000000000000
  0
LINE
  5
177
100
AcDbEntity
  8
A3
  6
DASHED
 62
2
100
AcDbLine
 10
264.9599970400010
 20
166.7186474680481
 30
0.000000000000000
 11
264.9599970400010
 21
172.3186474680478
 31
0.000000000000000
  0
LINE
  5
178
100
AcDbEntity
  8
A3
  6
DASHED
 62
2
100
AcDbLine
 10
502.8599970400009
 20
179.9186474680477
 30
0.000000000000000
 11
718.9599970392883
 21
179.9186474680901
 31
0.000000000000000
  0
LINE
  5
179
100
AcDbEntity
  8
A3
  6
DASHED
 62
2
100
AcDbLine
 10
718.9599970392883
 20
179.9186474680901
 30
0.000000000000000
 11
718.9599970392883
 21
174.3186474680477
 31
0.000000000000000
  0
ARC
  5
17A
100
AcDbEntity
  8
A1
  6
CONTINUOUS
 62
7
100
AcDbCircle
 10
518.7599970400011
 20
95.84737530057366
 30
0.000000000000000
 40
2.250000000000000
100
AcDbArc
 50
0.000000000000000
 51
180.0000000000000
  0
ARC
  5
17B
100
AcDbEntity
  8
A1
  6
CONTINUOUS
 62
7
100
AcDbCircle
 10
518.7599970400011
 20
95.04737530057366
 30
0.000000000000000
 40
2.250000000000000
100
AcDbArc
 50
180.0000000000000
 51
360.0000000000000
  0
LINE
  5
17C
100
AcDbEntity
  8
A1
  6
CONTINUOUS
 62
7
100
AcDbLine
 10
516.5099970400011
 20
95.04737530057366
 30
0.000000000000000
 11
516.5099970400011
 21
95.84737530057366
 31
0.000000000000000
  0
LINE
  5
17D
100
AcDbEntity
  8
A1
  6
CONTINUOUS
 62
7
100
AcDbLine
 10
521.0099970400011
 20
95.84737530057366
 30
0.000000000000000
 11
521.0099970400011
 21
95.04737530057366
 31
0.000000000000000
  0
ENDSEC
  0
SECTION
  2
OBJECTS
  0
DICTIONARY
  5
1AF
100
AcDbDictionary
  3
ACAD_GROUP
350
1B0
  3
ACAD_LAYOUT
350
1B1
  3
ACAD_MLINESTYLE
350
1B2
  0
DICTIONARY
  5
1B0
102
{ACAD_REACTORS
330
1AF
102
}
330
1AF
100
AcDbDictionary
  0
DICTIONARY
  5
1B1
102
{ACAD_REACTORS
330
1AF
102
}
330
1AF
100
AcDbDictionary
  3
Model
350
1B3
  3
ﾚｲｱｳﾄ1
350
1B4
  3
ﾚｲｱｳﾄ2
350
1B5
  0
DICTIONARY
  5
1B2
102
{ACAD_REACTORS
330
1AF
102
}
330
1AF
100
AcDbDictionary
  3
STANDARD
350
1B6
  0
LAYOUT
  5
1B3
102
{ACAD_REACTORS
330
1B1
102
}
330
1B1
100
AcDbPlotSettings
 70
11952
  4
A3
 44
297.000000
 45
420.000000
 73
  1
 72
  1
100
AcDbLayout
  1
Model
 71
0
330
1A6
  0
LAYOUT
  5
1B4
102
{ACAD_REACTORS
330
1B1
102
}
330
1B1
100
AcDbPlotSettings
100
AcDbLayout
  1
ﾚｲｱｳﾄ1
 71
1
330
1A7
  0
LAYOUT
  5
1B5
102
{ACAD_REACTORS
330
1B1
102
}
330
1B1
100
AcDbPlotSettings
100
AcDbLayout
  1
ﾚｲｱｳﾄ2
 71
2
330
1A8
  0
MLINESTYLE
  5
1B6
102
{ACAD_REACTORS
330
1B2
102
}
330
1B2
100
AcDbMlineStyle
  2
STANDARD
 70
     0
  3

 62
   256
 51
90.00
 52
90.00
 71
     2
 49
0.50
 62
   256
  6
BYLAYER
 49
-0.50
 62
   256
  6
BYLAYER
  0
ENDSEC
  0
EOF
