  0
SECTION
  2
HEADER
  9
$ACADVER
  1
AC1014
  9
$DWGCODEPAGE
  3
ANSI_932
  9
$LTSCALE
 40
20.0
  9
$FILLMODE
 70
     1
  9
$CLAYER
  8
0
  9
$PDMODE
 70
     0
  9
$SPLFRAME
 70
     0
  9
$SPLINETYPE
 70
     6
  9
$SPLINESEGS
 70
     8
  9
$DIMASZ
 40
2.000000
  9
$DIMEXE
 40
1.500000
  9
$DIMEXO
 40
0.800000
  9
$DIMTAD
 70
     1
  9
$DIMTIH
 70
     0
  9
$DIMTOH
 70
     0
  9
$DIMTVP
 40
0.500000
  9
$DIMTXT
 40
3.100000
  9
$EXTMIN
 10
0.000000
 20
0.000000
 30
0.000000
  9
$EXTMAX
 10
297.000000
 20
420.000000
 30
0.000000
  9
$MEASUREMENT
 70
  1
  9
$LIMMIN
 10
0.000000
 20
0.000000
  9
$LIMMAX
 10
297.000000
 20
420.000000
  9
$HANDLING
 70
     1
  9
$HANDSEED
  5
B8
  9
$DIMBLK
  1
_OPEN
  9
$DIMDEC
 70
     2
  9
$DIMAUNIT
 70
     0
  9
$DIMZIN
 70
     8
  9
$DIMTOFL
 70
     1
  0
ENDSEC
  0
SECTION
  2
CLASSES
  0
ENDSEC
  0
SECTION
  2
TABLES
  0
TABLE
  2
VPORT
  5
88
100
AcDbSymbolTable
 70
     1
  0
VPORT
  5
89
100
AcDbSymbolTableRecord
100
AcDbViewportTableRecord
  2
*ACTIVE
 70
     0
 12
98.879941
 22
80.466131
 40
124.932260
 41
1.422850
  0
ENDTAB
  0
TABLE
  2
LTYPE
  5
8A
100
AcDbSymbolTable
 70
     2
  0
LTYPE
  5
8B
100
AcDbSymbolTableRecord
100
AcDbLinetypeTableRecord
  2
BYBLOCK
 70
     0
  3

 72
    65
 73
     0
 40
0.0
  0
LTYPE
  5
8C
100
AcDbSymbolTableRecord
100
AcDbLinetypeTableRecord
  2
BYLAYER
 70
     0
  3

 72
    65
 73
     0
 40
0.0
  0
LTYPE
  5
8D
100
AcDbSymbolTableRecord
100
AcDbLinetypeTableRecord
  2
CONTINUOUS
 70
     0
  3
Solid line (NEC CAE2D for Win R18.0 : 2025.08.25)
 72
    65
 73
     0
 40
0.0
  0
LTYPE
  5
8E
100
AcDbSymbolTableRecord
100
AcDbLinetypeTableRecord
  2
CENTER
 70
     0
  3
____ _ ____ _ ____ _ ____ _ ____ _ ____
 72
    65
 73
     4
 40
2.0
 49
1.25
 74
     0
 49
-0.25
 74
     0
 49
0.25
 74
     0
 49
-0.25
 74
     0
  0
ENDTAB
  0
TABLE
  2
LAYER
  5
8F
100
AcDbSymbolTable
 70
    17
  0
LAYER
  5
90
100
AcDbSymbolTableRecord
100
AcDbLayerTableRecord
  2
0
 70
     0
 62
     7
  6
CONTINUOUS
  0
LAYER
  5
91
100
AcDbSymbolTableRecord
100
AcDbLayerTableRecord
  2
DXF0
 70
     0
 62
     7
  6
CONTINUOUS
  0
LAYER
  5
92
100
AcDbSymbolTableRecord
100
AcDbLayerTableRecord
  2
A0
 70
     0
 62
     9
  6
CONTINUOUS
  0
LAYER
  5
93
100
AcDbSymbolTableRecord
100
AcDbLayerTableRecord
  2
A1
 70
     0
 62
    12
  6
CONTINUOUS
  0
LAYER
  5
94
100
AcDbSymbolTableRecord
100
AcDbLayerTableRecord
  2
A4
 70
     0
 62
     9
  6
CONTINUOUS
  0
LAYER
  5
95
100
AcDbSymbolTableRecord
100
AcDbLayerTableRecord
  2
A5
 70
     0
 62
     8
  6
CONTINUOUS
  0
LAYER
  5
96
100
AcDbSymbolTableRecord
100
AcDbLayerTableRecord
  2
A6
 70
     0
 62
    12
  6
CONTINUOUS
  0
LAYER
  5
97
100
AcDbSymbolTableRecord
100
AcDbLayerTableRecord
  2
A7
 70
     0
 62
    12
  6
CONTINUOUS
  0
LAYER
  5
98
100
AcDbSymbolTableRecord
100
AcDbLayerTableRecord
  2
A8
 70
     0
 62
    10
  6
CONTINUOUS
  0
LAYER
  5
99
100
AcDbSymbolTableRecord
100
AcDbLayerTableRecord
  2
A9
 70
     0
 62
     9
  6
CONTINUOUS
  0
LAYER
  5
9A
100
AcDbSymbolTableRecord
100
AcDbLayerTableRecord
  2
A10
 70
     0
 62
     6
  6
CONTINUOUS
  0
LAYER
  5
9B
100
AcDbSymbolTableRecord
100
AcDbLayerTableRecord
  2
A20
 70
     0
 62
     1
  6
CONTINUOUS
  0
LAYER
  5
9C
100
AcDbSymbolTableRecord
100
AcDbLayerTableRecord
  2
A30
 70
     0
 62
     1
  6
CONTINUOUS
  0
LAYER
  5
9D
100
AcDbSymbolTableRecord
100
AcDbLayerTableRecord
  2
A40
 70
     0
 62
     9
  6
CONTINUOUS
  0
LAYER
  5
9E
100
AcDbSymbolTableRecord
100
AcDbLayerTableRecord
  2
A50
 70
     0
 62
    12
  6
CONTINUOUS
  0
LAYER
  5
9F
100
AcDbSymbolTableRecord
100
AcDbLayerTableRecord
  2
A1023
 70
     0
 62
     8
  6
CONTINUOUS
  0
LAYER
  5
A0
100
AcDbSymbolTableRecord
100
AcDbLayerTableRecord
  2
DXF1023
 70
     0
 62
    16
  6
CONTINUOUS
  0
ENDTAB
  0
TABLE
  2
STYLE
  5
A1
100
AcDbSymbolTable
 70
     4
  0
STYLE
  5
A2
100
AcDbSymbolTableRecord
100
AcDbTextStyleTableRecord
  2
STANDARD
 70
    64
 40
0.0
 41
1.0
 50
0.0
 71
     0
 42
8.000000000000000
  3
TXT
  4

  0
STYLE
  5
A3
100
AcDbSymbolTableRecord
100
AcDbTextStyleTableRecord
  2
ANKTATE
 70
    68
 40
0.0
 41
1.0
 50
0.0
 71
     0
 42
8.000000000000000
  3
TXT
  4

  0
STYLE
  5
A4
100
AcDbSymbolTableRecord
100
AcDbTextStyleTableRecord
  2
KNJYOKO
 70
    64
 40
0.0
 41
1.0
 50
0.0
 71
     0
 42
8.000000000000000
  3
TXT
  4
BIGFONT
  0
STYLE
  5
A5
100
AcDbSymbolTableRecord
100
AcDbTextStyleTableRecord
  2
KNJTATE
 70
    68
 40
0.0
 41
1.0
 50
0.0
 71
     0
 42
8.000000000000000
  3
TXT
  4
BIGFONT
  0
ENDTAB
  0
TABLE
  2
VIEW
  5
A6
100
AcDbSymbolTable
 70
     0
  0
ENDTAB
  0
TABLE
  2
UCS
  5
A7
100
AcDbSymbolTable
 70
     0
  0
ENDTAB
  0
TABLE
  2
APPID
  5
A8
100
AcDbSymbolTable
 70
     1
  0
APPID
  5
A9
100
AcDbSymbolTableRecord
100
AcDbRegAppTableRecord
  2
ACAD
 70
     0
  0
ENDTAB
  0
TABLE
  2
DIMSTYLE
  5
AA
100
AcDbSymbolTable
 70
     2
  0
DIMSTYLE
105
AB
100
AcDbSymbolTableRecord
100
AcDbDimStyleTableRecord
  2
STANDARD
 70
     0
 41
2.000000
 44
1.500000
 42
0.800000
145
0.661290
140
3.100000
144
1.000000
146
0.645161
340
A2
  0
DIMSTYLE
105
AC
100
AcDbSymbolTableRecord
100
AcDbDimStyleTableRecord
  2
DXF001
 70
     0
 41
2.000000
 44
1.500000
 42
0.800000
145
0.661290
140
3.100000
144
1.000000
146
0.645161
 77
     1
 73
     0
 74
     0
271
     2
275
     0
 78
     8
172
     1
340
A2
  0
ENDTAB
  0
TABLE
  2
BLOCK_RECORD
  5
AD
100
AcDbSymbolTable
 70
    12
  0
BLOCK_RECORD
  5
AE
100
AcDbSymbolTableRecord
100
AcDbBlockTableRecord
  2
*MODEL_SPACE
  0
BLOCK_RECORD
  5
AF
100
AcDbSymbolTableRecord
100
AcDbBlockTableRecord
  2
*PAPER_SPACE
  0
BLOCK_RECORD
  5
1
100
AcDbSymbolTableRecord
100
AcDbBlockTableRecord
  2
_NONE
  0
BLOCK_RECORD
  5
4
100
AcDbSymbolTableRecord
100
AcDbBlockTableRecord
  2
_CLOSED
  0
BLOCK_RECORD
  5
B
100
AcDbSymbolTableRecord
100
AcDbBlockTableRecord
  2
_DOT
  0
BLOCK_RECORD
  5
13
100
AcDbSymbolTableRecord
100
AcDbBlockTableRecord
  2
_OPEN
  0
BLOCK_RECORD
  5
19
100
AcDbSymbolTableRecord
100
AcDbBlockTableRecord
  2
_ORIGIN
  0
BLOCK_RECORD
  5
1E
100
AcDbSymbolTableRecord
100
AcDbBlockTableRecord
  2
_OPEN30
  0
BLOCK_RECORD
  5
24
100
AcDbSymbolTableRecord
100
AcDbBlockTableRecord
  2
_BOXFILLED
  0
BLOCK_RECORD
  5
29
100
AcDbSymbolTableRecord
100
AcDbBlockTableRecord
  2
_BOXBLANK
  0
BLOCK_RECORD
  5
31
100
AcDbSymbolTableRecord
100
AcDbBlockTableRecord
  2
_OBLIQUE
  0
BLOCK_RECORD
  5
35
100
AcDbSymbolTableRecord
100
AcDbBlockTableRecord
  2
_OPEN90
  0
BLOCK_RECORD
  5
3B
100
AcDbSymbolTableRecord
100
AcDbBlockTableRecord
  2
_CLOSEDBLANK
  0
BLOCK_RECORD
  5
41
100
AcDbSymbolTableRecord
100
AcDbBlockTableRecord
  2
_DOTBLANK
  0
ENDTAB
  0
ENDSEC
  0
SECTION
  2
BLOCKS
  0
BLOCK
  5
B0
100
AcDbEntity
  8
0
100
AcDbBlockBegin
  2
*MODEL_SPACE
 70
     0
 10
0.0
 20
0.0
 30
0.0
  3
*MODEL_SPACE
  1

  0
ENDBLK
  5
B1
100
AcDbEntity
  8
0
100
AcDbBlockEnd
  0
BLOCK
  5
B2
100
AcDbEntity
  8
0
100
AcDbBlockBegin
  2
*PAPER_SPACE
 70
     0
 10
0.0
 20
0.0
 30
0.0
  3
*PAPER_SPACE
  1

  0
ENDBLK
  5
B3
100
AcDbEntity
  8
0
100
AcDbBlockEnd
  0
BLOCK
  5
2
100
AcDbEntity
  8
0
100
AcDbBlockBegin
  2
_NONE
 70
     0
 10
0.0
 20
0.0
 30
0.0
  3
_NONE
  1

  0
ENDBLK
  5
3
100
AcDbEntity
  8
0
100
AcDbBlockEnd
  0
BLOCK
  5
5
100
AcDbEntity
  8
0
100
AcDbBlockBegin
  2
_CLOSED
 70
     0
 10
0.0
 20
0.0
 30
0.0
  3
_CLOSED
  1

  0
LINE
  5
6
100
AcDbEntity
  8
0
  6
BYBLOCK
 62
     0
100
AcDbLine
 10
-1.0
 20
0.166667
 30
0.0
 11
0.0
 21
0.0
 31
0.0
  0
LINE
  5
7
100
AcDbEntity
  8
0
  6
BYBLOCK
 62
     0
100
AcDbLine
 10
0.0
 20
0.0
 30
0.0
 11
-1.0
 21
-0.166667
 31
0.0
  0
LINE
  5
8
100
AcDbEntity
  8
0
  6
BYBLOCK
 62
     0
100
AcDbLine
 10
-1.0
 20
0.166667
 30
0.0
 11
-1.0
 21
-0.166667
 31
0.0
  0
LINE
  5
9
100
AcDbEntity
  8
0
  6
BYBLOCK
 62
     0
100
AcDbLine
 10
0.0
 20
0.0
 30
0.0
 11
-1.0
 21
0.0
 31
0.0
  0
ENDBLK
  5
A
100
AcDbEntity
  8
0
100
AcDbBlockEnd
  0
BLOCK
  5
C
100
AcDbEntity
  8
0
100
AcDbBlockBegin
  2
_DOT
 70
     0
 10
0.0
 20
0.0
 30
0.0
  3
_DOT
  1

  0
POLYLINE
  5
D
100
AcDbEntity
  8
0
  6
BYBLOCK
 62
     0
100
AcDb2dPolyline
 66
     1
 10
0.0
 20
0.0
 30
0.0
 70
     1
 40
0.5
 41
0.5
  0
VERTEX
  5
E
100
AcDbEntity
  8
0
  6
BYBLOCK
 62
     0
100
AcDbVertex
100
AcDb2dVertex
 10
-0.25
 20
0.0
 30
0.0
 42
1.0
  0
VERTEX
  5
F
100
AcDbEntity
  8
0
  6
BYBLOCK
 62
     0
100
AcDbVertex
100
AcDb2dVertex
 10
0.25
 20
0.0
 30
0.0
 42
1.0
  0
SEQEND
  5
10
100
AcDbEntity
  8
0
  6
BYBLOCK
 62
     0
  0
LINE
  5
11
100
AcDbEntity
  8
0
  6
BYBLOCK
 62
     0
100
AcDbLine
 10
-0.5
 20
0.0
 30
0.0
 11
-1.0
 21
0.0
 31
0.0
  0
ENDBLK
  5
12
100
AcDbEntity
  8
0
100
AcDbBlockEnd
  0
BLOCK
  5
14
100
AcDbEntity
  8
0
100
AcDbBlockBegin
  2
_OPEN
 70
     0
 10
0.0
 20
0.0
 30
0.0
  3
_OPEN
  1

  0
LINE
  5
15
100
AcDbEntity
  8
0
  6
BYBLOCK
 62
     0
100
AcDbLine
 10
-1.0
 20
0.166667
 30
0.0
 11
0.0
 21
0.0
 31
0.0
  0
LINE
  5
16
100
AcDbEntity
  8
0
  6
BYBLOCK
 62
     0
100
AcDbLine
 10
0.0
 20
0.0
 30
0.0
 11
-1.0
 21
-0.166667
 31
0.0
  0
LINE
  5
17
100
AcDbEntity
  8
0
  6
BYBLOCK
 62
     0
100
AcDbLine
 10
0.0
 20
0.0
 30
0.0
 11
-1.0
 21
0.0
 31
0.0
  0
ENDBLK
  5
18
100
AcDbEntity
  8
0
100
AcDbBlockEnd
  0
BLOCK
  5
1A
100
AcDbEntity
  8
0
100
AcDbBlockBegin
  2
_ORIGIN
 70
     0
 10
0.0
 20
0.0
 30
0.0
  3
_ORIGIN
  1

  0
CIRCLE
  5
1B
100
AcDbEntity
  8
0
  6
BYBLOCK
 62
     0
100
AcDbCircle
 10
0.0
 20
0.0
 30
0.0
 40
0.5
  0
LINE
  5
1C
100
AcDbEntity
  8
0
  6
BYBLOCK
 62
     0
100
AcDbLine
 10
0.0
 20
0.0
 30
0.0
 11
-1.0
 21
0.0
 31
0.0
  0
ENDBLK
  5
1D
100
AcDbEntity
  8
0
100
AcDbBlockEnd
  0
BLOCK
  5
1F
100
AcDbEntity
  8
0
100
AcDbBlockBegin
  2
_OPEN30
 70
     0
 10
0.0
 20
0.0
 30
0.0
  3
_OPEN30
  1

  0
LINE
  5
20
100
AcDbEntity
  8
0
  6
BYBLOCK
 62
     0
100
AcDbLine
 10
-1.0
 20
0.267949
 30
0.0
 11
0.0
 21
0.0
 31
0.0
  0
LINE
  5
21
100
AcDbEntity
  8
0
  6
BYBLOCK
 62
     0
100
AcDbLine
 10
0.0
 20
0.0
 30
0.0
 11
-1.0
 21
-0.267949
 31
0.0
  0
LINE
  5
22
100
AcDbEntity
  8
0
  6
BYBLOCK
 62
     0
100
AcDbLine
 10
0.0
 20
0.0
 30
0.0
 11
-1.0
 21
0.0
 31
0.0
  0
ENDBLK
  5
23
100
AcDbEntity
  8
0
100
AcDbBlockEnd
  0
BLOCK
  5
25
100
AcDbEntity
  8
0
100
AcDbBlockBegin
  2
_BOXFILLED
 70
     0
 10
0.0
 20
0.0
 30
0.0
  3
_BOXFILLED
  1

  0
SOLID
  5
26
100
AcDbEntity
  8
0
  6
BYBLOCK
 62
     0
100
AcDbTrace
 10
-0.5
 20
0.5
 30
0.0
 11
0.5
 21
0.5
 31
0.0
 12
-0.5
 22
-0.5
 32
0.0
 13
0.5
 23
-0.5
 33
0.0
  0
LINE
  5
27
100
AcDbEntity
  8
0
  6
BYBLOCK
 62
     0
100
AcDbLine
 10
-0.5
 20
0.0
 30
0.0
 11
-1.0
 21
0.0
 31
0.0
  0
ENDBLK
  5
28
100
AcDbEntity
  8
0
100
AcDbBlockEnd
  0
BLOCK
  5
2A
100
AcDbEntity
  8
0
100
AcDbBlockBegin
  2
_BOXBLANK
 70
     0
 10
0.0
 20
0.0
 30
0.0
  3
_BOXBLANK
  1

  0
LINE
  5
2B
100
AcDbEntity
  8
0
  6
BYBLOCK
 62
     0
100
AcDbLine
 10
-0.5
 20
-0.5
 30
0.0
 11
0.5
 21
-0.5
 31
0.0
  0
LINE
  5
2C
100
AcDbEntity
  8
0
  6
BYBLOCK
 62
     0
100
AcDbLine
 10
0.5
 20
-0.5
 30
0.0
 11
0.5
 21
0.5
 31
0.0
  0
LINE
  5
2D
100
AcDbEntity
  8
0
  6
BYBLOCK
 62
     0
100
AcDbLine
 10
0.5
 20
0.5
 30
0.0
 11
-0.5
 21
0.5
 31
0.0
  0
LINE
  5
2E
100
AcDbEntity
  8
0
  6
BYBLOCK
 62
     0
100
AcDbLine
 10
-0.5
 20
0.5
 30
0.0
 11
-0.5
 21
-0.5
 31
0.0
  0
LINE
  5
2F
100
AcDbEntity
  8
0
  6
BYBLOCK
 62
     0
100
AcDbLine
 10
-0.5
 20
0.0
 30
0.0
 11
-1.0
 21
0.0
 31
0.0
  0
ENDBLK
  5
30
100
AcDbEntity
  8
0
100
AcDbBlockEnd
  0
BLOCK
  5
32
100
AcDbEntity
  8
0
100
AcDbBlockBegin
  2
_OBLIQUE
 70
     0
 10
0.0
 20
0.0
 30
0.0
  3
_OBLIQUE
  1

  0
LINE
  5
33
100
AcDbEntity
  8
0
  6
BYBLOCK
 62
     0
100
AcDbLine
 10
-0.5
 20
-0.5
 30
0.0
 11
0.5
 21
0.5
 31
0.0
  0
ENDBLK
  5
34
100
AcDbEntity
  8
0
100
AcDbBlockEnd
  0
BLOCK
  5
36
100
AcDbEntity
  8
0
100
AcDbBlockBegin
  2
_OPEN90
 70
     0
 10
0.0
 20
0.0
 30
0.0
  3
_OPEN90
  1

  0
LINE
  5
37
100
AcDbEntity
  8
0
  6
BYBLOCK
 62
     0
100
AcDbLine
 10
-0.5
 20
0.5
 30
0.0
 11
0.0
 21
0.0
 31
0.0
  0
LINE
  5
38
100
AcDbEntity
  8
0
  6
BYBLOCK
 62
     0
100
AcDbLine
 10
0.0
 20
0.0
 30
0.0
 11
-0.5
 21
-0.5
 31
0.0
  0
LINE
  5
39
100
AcDbEntity
  8
0
  6
BYBLOCK
 62
     0
100
AcDbLine
 10
0.0
 20
0.0
 30
0.0
 11
-1.0
 21
0.0
 31
0.0
  0
ENDBLK
  5
3A
100
AcDbEntity
  8
0
100
AcDbBlockEnd
  0
BLOCK
  5
3C
100
AcDbEntity
  8
0
100
AcDbBlockBegin
  2
_CLOSEDBLANK
 70
     0
 10
0.0
 20
0.0
 30
0.0
  3
_CLOSEDBLANK
  1

  0
LINE
  5
3D
100
AcDbEntity
  8
0
  6
BYBLOCK
 62
     0
100
AcDbLine
 10
-1.0
 20
0.1666666666666666
 30
0.0
 11
0.0
 21
0.0
 31
0.0
  0
LINE
  5
3E
100
AcDbEntity
  8
0
  6
BYBLOCK
 62
     0
100
AcDbLine
 10
0.0
 20
0.0
 30
0.0
 11
-1.0
 21
-0.1666666666666666
 31
0.0
  0
LINE
  5
3F
100
AcDbEntity
  8
0
  6
BYBLOCK
 62
     0
100
AcDbLine
 10
-1.0
 20
0.1666666666666666
 30
0.0
 11
-1.0
 21
-0.1666666666666666
 31
0.0
  0
ENDBLK
  5
40
100
AcDbEntity
  8
0
100
AcDbBlockEnd
  0
BLOCK
  5
42
100
AcDbEntity
  8
0
100
AcDbBlockBegin
  2
_DOTBLANK
 70
     0
 10
0.0
 20
0.0
 30
0.0
  3
_DOTBLANK
  1

  0
CIRCLE
  5
43
100
AcDbEntity
  8
0
  6
BYBLOCK
 62
     0
100
AcDbCircle
 10
0.0
 20
0.0
 30
0.0
 40
0.5
  0
LINE
  5
44
100
AcDbEntity
  8
0
  6
BYBLOCK
 62
     0
100
AcDbLine
 10
-0.5
 20
0.0
 30
0.0
 11
-1.0
 21
0.0
 31
0.0
  0
ENDBLK
  5
45
100
AcDbEntity
  8
0
100
AcDbBlockEnd
  0
ENDSEC
  0
SECTION
  2
ENTITIES
  0
MTEXT
  5
46
100
AcDbEntity
  8
A7
  6
CONTINUOUS
 62
3
100
AcDbMText
 10
9.999997526638502
 20
18.00000076076889
 30
0.000000000000000
 40
3.000000000000000
 41
0.000000000000000
 71
     7
 72
     1
  1
{\H0.94x;{TYPE No.TM-384-1921}}
 11
1.000000000000000
 21
0.000000000000000
 31
0.000000000000000
  7
STANDARD
  0
POINT
  5
47
100
AcDbEntity
  8
A0
  6
CONTINUOUS
 62
3
100
AcDbPoint
 10
9.999997526638502
 20
18.00000076076889
 30
0.000000000000000
  0
ARC
  5
48
100
AcDbEntity
  8
0
  6
CONTINUOUS
 62
7
100
AcDbCircle
 10
180.5198239118750
 20
136.0141201763366
 30
0.000000000000000
 40
1.500000000000000
100
AcDbArc
 50
284.9999976656077
 51
409.5180337173143
  0
ARC
  5
49
100
AcDbEntity
  8
0
  6
CONTINUOUS
 62
7
100
AcDbCircle
 10
186.2397207182094
 20
114.6671608891484
 30
0.000000000000000
 40
1.500000000000000
100
AcDbArc
 50
340.4818875327961
 51
465.0000024546429
  0
ARC
  5
4A
100
AcDbEntity
  8
0
  6
CONTINUOUS
 62
7
100
AcDbCircle
 10
40.07869512177999
 20
127.1778503630804
 30
0.000000000000000
 40
1.500000000000000
100
AcDbArc
 50
160.9120231091635
 51
284.9999952173963
  0
ARC
  5
4B
100
AcDbEntity
  8
0
  6
CONTINUOUS
 62
7
100
AcDbCircle
 10
46.31623148148984
 20
103.8990369285569
 30
0.000000000000000
 40
1.500000000000000
100
AcDbArc
 50
104.9999917952245
 51
229.0879635678687
  0
ARC
  5
4C
100
AcDbEntity
  8
0
  6
CONTINUOUS
 62
7
100
AcDbCircle
 10
56.31705881739443
 20
127.9054387985631
 30
0.000000000000000
 40
2.000000000000000
100
AcDbArc
 50
41.74368477632625
 51
104.9999952173981
  0
ARC
  5
4D
100
AcDbEntity
  8
0
  6
CONTINUOUS
 62
7
100
AcDbCircle
 10
60.74286444087993
 20
111.3881058577037
 30
0.000000000000000
 40
2.000000000000000
100
AcDbArc
 50
284.9999917952251
 51
348.2563126401132
  0
ARC
  5
4E
100
AcDbEntity
  8
0
  6
CONTINUOUS
 62
7
100
AcDbCircle
 10
171.6192248371772
 20
114.3730768265772
 30
0.000000000000000
 40
2.000000000000000
100
AcDbArc
 50
221.3669253475829
 51
285.0000024546429
  0
ARC
  5
4F
100
AcDbEntity
  8
0
  6
CONTINUOUS
 62
7
100
AcDbCircle
 10
167.7110504907632
 20
128.9585536495725
 30
0.000000000000000
 40
2.000000000000000
100
AcDbArc
 50
104.9999976656077
 51
168.6331304391524
  0
LINE
  5
50
100
AcDbEntity
  8
0
  6
CONTINUOUS
 62
7
100
AcDbLine
 10
40.46692356849187
 20
125.7289615912405
 30
0.000000000000000
 11
55.79942088844515
 21
129.8372904943495
 31
0.000000000000000
  0
LINE
  5
51
100
AcDbEntity
  8
0
  6
CONTINUOUS
 62
7
100
AcDbLine
 10
45.92800312131741
 20
105.3479257235850
 30
0.000000000000000
 11
61.26050225444312
 21
109.4562541309996
 31
0.000000000000000
  0
LINE
  5
52
100
AcDbEntity
  8
0
  6
CONTINUOUS
 62
7
100
AcDbLine
 10
167.1934124792674
 20
130.8904053232406
 30
0.000000000000000
 11
180.9080524204970
 21
134.5652314210855
 31
0.000000000000000
  0
LINE
  5
53
100
AcDbEntity
  8
0
  6
CONTINUOUS
 62
7
100
AcDbLine
 10
172.1368630101458
 20
112.4412251961755
 30
0.000000000000000
 11
185.8514920884830
 21
116.1160496119496
 31
0.000000000000000
  0
ARC
  5
54
100
AcDbEntity
  8
0
  6
CONTINUOUS
 62
7
100
AcDbCircle
 10
85.56531017750990
 20
152.7480611658014
 30
0.000000000000000
 40
21.00000000000000
100
AcDbArc
 50
224.6953387519376
 51
268.8937414129729
  0
ARC
  5
55
100
AcDbEntity
  8
0
  6
CONTINUOUS
 62
7
100
AcDbCircle
 10
84.75517175663720
 20
99.11916468904020
 30
0.000000000000000
 40
10.50000000000000
100
AcDbArc
 50
91.10624839852646
 51
146.6772887159626
  0
ARC
  5
56
100
AcDbEntity
  8
0
  6
CONTINUOUS
 62
7
100
AcDbCircle
 10
145.5170140274597
 20
140.0882346209679
 30
0.000000000000000
 40
9.500000000000000
100
AcDbArc
 50
268.8937414129729
 51
327.2936933266107
  0
ARC
  5
57
100
AcDbEntity
  8
0
  6
CONTINUOUS
 62
7
100
AcDbCircle
 10
144.7337358084251
 20
91.77577075916899
 30
0.000000000000000
 40
19.00000000000000
100
AcDbArc
 50
44.17179956588701
 51
91.10624839852646
  0
ARC
  5
58
100
AcDbEntity
  8
0
  6
CONTINUOUS
 62
7
100
AcDbCircle
 10
169.3355363048922
 20
115.6764279118925
 30
0.000000000000000
 40
15.30000000000000
100
AcDbArc
 50
224.1717995658870
 51
285.0000000000001
  0
ARC
  5
59
100
AcDbEntity
  8
0
  6
CONTINUOUS
 62
7
100
AcDbCircle
 10
166.3849991907234
 20
126.6879823315879
 30
0.000000000000000
 40
15.29999125389427
100
AcDbArc
 50
105.0003754201130
 51
147.2936933266105
  0
ARC
  5
5A
100
AcDbEntity
  8
0
  6
CONTINUOUS
 62
7
100
AcDbCircle
 10
62.02713272236173
 20
114.0615956042712
 30
0.000000000000000
 40
16.70000000000000
100
AcDbArc
 50
285.0000000000001
 51
326.6772887159626
  0
ARC
  5
5B
100
AcDbEntity
  8
0
  6
CONTINUOUS
 62
7
100
AcDbCircle
 10
58.76601275407002
 20
126.2322610155134
 30
0.000000000000000
 40
16.70000000000000
100
AcDbArc
 50
44.69533875193763
 51
105.0000000000000
  0
LINE
  5
5C
100
AcDbEntity
  8
A0
  6
CONTINUOUS
 62
4
100
AcDbLine
 10
93.57658328042841
 20
117.8751454690844
 30
0.000000000000000
 11
96.67002322221464
 21
116.1759183667678
 31
0.000000000000000
  0
LINE
  5
5D
100
AcDbEntity
  8
A0
  6
CONTINUOUS
 62
4
100
AcDbLine
 10
93.79734170113451
 20
119.4988406275777
 30
0.000000000000000
 11
93.57658328042841
 21
117.8751454690844
 31
0.000000000000000
  0
LINE
  5
5E
100
AcDbEntity
  8
A0
  6
CONTINUOUS
 62
4
100
AcDbLine
 10
96.67002322221461
 20
116.1759183667678
 30
0.000000000000000
 11
97.92192829018281
 21
117.2332044911557
 31
0.000000000000000
  0
ARC
  5
5F
100
AcDbEntity
  8
A0
  6
CONTINUOUS
 62
4
100
AcDbCircle
 10
93.67100626466413
 20
124.4004275293429
 30
0.000000000000000
 40
7.294116480000000
100
AcDbArc
 50
304.3727866739949
 51
360.1585277401801
  0
ARC
  5
60
100
AcDbEntity
  8
A0
  6
CONTINUOUS
 62
4
100
AcDbCircle
 10
102.1264087722131
 20
119.7558734496776
 30
0.000000000000000
 40
7.294116480000000
100
AcDbArc
 50
122.1992957896548
 51
178.0672133260042
  0
LINE
  5
61
100
AcDbEntity
  8
A0
  6
CONTINUOUS
 62
4
100
AcDbLine
 10
94.83644206286490
 20
120.0018827999127
 30
0.000000000000000
 11
93.79734170113448
 21
119.4988406275776
 31
0.000000000000000
  0
LINE
  5
62
100
AcDbEntity
  8
A0
  6
CONTINUOUS
 62
4
100
AcDbLine
 10
97.78908238302141
 20
118.3799969544402
 30
0.000000000000000
 11
97.92192829018283
 21
117.2332044911557
 31
0.000000000000000
  0
ARC
  5
63
100
AcDbEntity
  8
A0
  6
CONTINUOUS
 62
4
100
AcDbCircle
 10
99.54129371734462
 20
125.0684757665703
 30
0.000000000000000
 40
2.823528960000000
100
AcDbArc
 50
61.21999999999971
 51
82.54368626349984
  0
ARC
  5
64
100
AcDbEntity
  8
A0
  6
CONTINUOUS
 62
4
100
AcDbCircle
 10
99.70923160702711
 20
126.3516502729104
 30
0.000000000000000
 40
1.529411520000000
100
AcDbArc
 50
82.54368626349984
 51
196.0754096007781
  0
ARC
  5
65
100
AcDbEntity
  8
A0
  6
CONTINUOUS
 62
4
100
AcDbCircle
 10
100.5341489248369
 20
125.8985230456259
 30
0.000000000000000
 40
1.529411520000000
100
AcDbArc
 50
286.3645903992214
 51
399.8963137365001
  0
ARC
  5
66
100
AcDbEntity
  8
A0
  6
CONTINUOUS
 62
4
100
AcDbCircle
 10
99.54129371734462
 20
125.0684757665703
 30
0.000000000000000
 40
2.823528960000000
100
AcDbArc
 50
39.89631373650016
 51
61.21999999999971
  0
LINE
  5
67
100
AcDbEntity
  8
A0
  6
CONTINUOUS
 62
4
100
AcDbLine
 10
107.3329777189979
 20
118.2381794434648
 30
0.000000000000000
 11
106.2001596507868
 21
116.1758861489407
 31
0.000000000000000
  0
LINE
  5
68
100
AcDbEntity
  8
A0
  6
CONTINUOUS
 62
4
100
AcDbLine
 10
95.30486856525253
 20
124.4425393414997
 30
0.000000000000000
 11
94.51189591750472
 21
122.9989340353328
 31
0.000000000000000
  0
LINE
  5
69
100
AcDbEntity
  8
A0
  6
CONTINUOUS
 62
4
100
AcDbLine
 10
107.3329777189979
 20
118.2381794434648
 30
0.000000000000000
 11
100.4762544643819
 21
121.7750261954429
 31
0.000000000000000
  0
LINE
  5
6A
100
AcDbEntity
  8
A0
  6
CONTINUOUS
 62
4
100
AcDbLine
 10
94.51189591750475
 20
122.9989340353329
 30
0.000000000000000
 11
95.36786202611616
 21
122.4992620668133
 31
0.000000000000000
  0
LINE
  5
6B
100
AcDbEntity
  8
A0
  6
CONTINUOUS
 62
4
100
AcDbLine
 10
96.18572255873045
 20
123.9881757234694
 30
0.000000000000000
 11
95.30486856525252
 21
124.4425393414997
 31
0.000000000000000
  0
LINE
  5
6C
100
AcDbEntity
  8
A0
  6
CONTINUOUS
 62
4
100
AcDbLine
 10
99.53716809312185
 20
120.0654211134130
 30
0.000000000000000
 11
106.2001596507869
 21
116.1758861489407
 31
0.000000000000000
  0
LINE
  5
6D
100
AcDbEntity
  8
0
  6
CONTINUOUS
 62
7
100
AcDbLine
 10
187.7598849147926
 20
47.43943802051074
 30
0.000000000000000
 11
38.55905048403359
 21
47.43943802051074
 31
0.000000000000000
  0
ARC
  5
6E
100
AcDbEntity
  8
0
  6
CONTINUOUS
 62
7
100
AcDbCircle
 10
60.39657256902262
 20
120.1469289413300
 30
0.000000000000000
 40
23.00000000000000
100
AcDbArc
 50
229.0879635678687
 51
285.0031159050147
  0
ARC
  5
6F
100
AcDbEntity
  8
0
  6
CONTINUOUS
 62
7
100
AcDbCircle
 10
167.8602932312712
 20
121.1822637434990
 30
0.000000000000000
 40
20.99994057163901
100
AcDbArc
 50
49.51803371731435
 51
105.0001018991254
  0
ARC
  5
70
100
AcDbEntity
  8
0
  6
CONTINUOUS
 62
7
100
AcDbCircle
 10
60.39657256902262
 20
120.1469289413300
 30
0.000000000000000
 40
23.00000000000000
100
AcDbArc
 50
105.0000000000004
 51
160.9120231091643
  0
ARC
  5
71
100
AcDbEntity
  8
0
  6
CONTINUOUS
 62
7
100
AcDbCircle
 10
167.8602702735587
 20
121.1822051217402
 30
0.000000000000000
 40
21.00000000000000
100
AcDbArc
 50
285.0000000000004
 51
340.4818875327961
  0
ARC
  5
72
100
AcDbEntity
  8
0
  6
CONTINUOUS
 62
7
100
AcDbCircle
 10
42.14057428296670
 20
115.2552496203281
 30
0.000000000000000
 40
21.00000000000000
100
AcDbArc
 50
348.2563126401132
 51
401.7436847763262
  0
ARC
  5
73
100
AcDbEntity
  8
0
  6
CONTINUOUS
 62
7
100
AcDbCircle
 10
184.3776006447618
 20
125.6080154891796
 30
0.000000000000000
 40
19.00000000000000
100
AcDbArc
 50
168.6331304391524
 51
221.3669253475829
  0
MTEXT
  5
74
100
AcDbEntity
  8
A0
  6
CONTINUOUS
 62
4
100
AcDbMText
 10
78.42501932999375
 20
115.9285441741408
 30
0.000000000000000
 40
8.000000000000000
 41
0.000000000000000
 71
     7
 72
     1
  1
{\H0.88x;{21}}
 11
6.123233995736766e-17
 21
1.000000000000000
 31
0.000000000000000
  7
STANDARD
  0
MTEXT
  5
75
100
AcDbEntity
  8
A0
  6
CONTINUOUS
 62
4
100
AcDbMText
 10
150.0250109143837
 20
126.8052997343580
 30
0.000000000000000
 40
8.000000000000000
 41
0.000000000000000
 71
     7
 72
     1
  1
{\H0.88x;{19}}
 11
5.235983717104588e-08
 21
-0.9999999999999987
 31
0.000000000000000
  7
STANDARD
  0
LINE
  5
76
100
AcDbEntity
  8
0
  6
CONTINUOUS
 62
7
100
AcDbLine
 10
84.55245374482919
 20
109.6172076213057
 30
0.000000000000000
 11
144.3669127394393
 21
110.7722293985064
 31
0.000000000000000
  0
LINE
  5
77
100
AcDbEntity
  8
0
  6
CONTINUOUS
 62
7
100
AcDbLine
 10
145.3336008039644
 20
130.5900053339141
 30
0.000000000000000
 11
85.15987042030964
 21
131.7519753733666
 31
0.000000000000000
  0
LINE
  5
78
100
AcDbEntity
  8
0
  6
CONTINUOUS
 62
7
100
AcDbLine
 10
44.81623148148985
 20
45.43943802051074
 30
0.000000000000000
 11
44.81623148148985
 21
47.43943802051074
 31
0.000000000000000
  0
LINE
  5
79
100
AcDbEntity
  8
0
  6
CONTINUOUS
 62
7
100
AcDbLine
 10
38.55905048403351
 20
45.43943802051074
 30
0.000000000000000
 11
38.55905048403359
 21
47.43943802051074
 31
0.000000000000000
  0
LINE
  5
7A
100
AcDbEntity
  8
0
  6
CONTINUOUS
 62
7
100
AcDbLine
 10
187.7598849147925
 20
45.43943802051073
 30
0.000000000000000
 11
187.7598849147926
 21
47.43943802051071
 31
0.000000000000000
  0
LINE
  5
7B
100
AcDbEntity
  8
0
  6
CONTINUOUS
 62
7
100
AcDbLine
 10
187.7598849147925
 20
45.43943802051074
 30
0.000000000000000
 11
38.55905048403351
 21
45.43943802051074
 31
0.000000000000000
  0
LINE
  5
7C
100
AcDbEntity
  8
A4
  6
CENTER
 62
1
100
AcDbLine
 10
82.80217169015390
 20
120.6904489360456
 30
0.000000000000000
 11
90.44785071706502
 21
120.6904489360456
 31
0.000000000000000
  0
LINE
  5
7D
100
AcDbEntity
  8
A4
  6
CENTER
 62
1
100
AcDbLine
 10
86.62501120360952
 20
124.5132884495011
 30
0.000000000000000
 11
86.62501120360952
 21
116.8676094225900
 31
0.000000000000000
  0
CIRCLE
  5
7E
100
AcDbEntity
  8
0
  6
CONTINUOUS
 62
7
100
AcDbCircle
 10
86.62501120360952
 20
120.6904489360456
 30
0.000000000000000
 40
2.150000000000000
  0
CIRCLE
  5
7F
100
AcDbEntity
  8
0
  6
CONTINUOUS
 62
7
100
AcDbCircle
 10
113.6241711722293
 20
120.6904489360456
 30
0.000000000000000
 40
2.150000000000000
  0
LINE
  5
80
100
AcDbEntity
  8
A4
  6
CENTER
 62
1
100
AcDbLine
 10
113.6241711722293
 20
124.5132884495011
 30
0.000000000000000
 11
113.6241711722293
 21
116.8676094225900
 31
0.000000000000000
  0
LINE
  5
81
100
AcDbEntity
  8
A4
  6
CENTER
 62
1
100
AcDbLine
 10
140.6250112036095
 20
124.5132884495011
 30
0.000000000000000
 11
140.6250112036095
 21
116.8676094225900
 31
0.000000000000000
  0
CIRCLE
  5
82
100
AcDbEntity
  8
0
  6
CONTINUOUS
 62
7
100
AcDbCircle
 10
140.6250112036095
 20
120.6904489360456
 30
0.000000000000000
 40
2.150000000000000
  0
LINE
  5
83
100
AcDbEntity
  8
A4
  6
CENTER
 62
1
100
AcDbLine
 10
140.7250112036095
 20
50.98573637237006
 30
0.000000000000000
 11
140.7250112036095
 21
41.89313966864488
 31
0.000000000000000
  0
LINE
  5
84
100
AcDbEntity
  8
A4
  6
CENTER
 62
1
100
AcDbLine
 10
113.7241711722293
 20
50.98573637237335
 30
0.000000000000000
 11
113.7241711722293
 21
41.89313966864812
 31
0.000000000000000
  0
LINE
  5
85
100
AcDbEntity
  8
A4
  6
CENTER
 62
1
100
AcDbLine
 10
87.42417677285044
 20
50.98573637237335
 30
0.000000000000000
 11
87.42417677285044
 21
41.89313966864817
 31
0.000000000000000
  0
LINE
  5
86
100
AcDbEntity
  8
A4
  6
CENTER
 62
1
100
AcDbLine
 10
109.8013316587738
 20
120.6904489360456
 30
0.000000000000000
 11
117.4470106856849
 21
120.6904489360456
 31
0.000000000000000
  0
LINE
  5
87
100
AcDbEntity
  8
A4
  6
CENTER
 62
1
100
AcDbLine
 10
136.8021716901539
 20
120.6904489360456
 30
0.000000000000000
 11
144.4478507170651
 21
120.6904489360456
 31
0.000000000000000
  0
ENDSEC
  0
SECTION
  2
OBJECTS
  0
DICTIONARY
  5
B4
100
AcDbDictionary
  3
ACAD_GROUP
350
B5
  3
ACAD_MLINESTYLE
350
B6
  0
DICTIONARY
  5
B5
102
{ACAD_REACTORS
330
B4
102
}
100
AcDbDictionary
  0
DICTIONARY
  5
B6
102
{ACAD_REACTORS
330
B4
102
}
100
AcDbDictionary
  3
STANDARD
350
B7
  0
MLINESTYLE
  5
B7
102
{ACAD_REACTORS
330
B6
102
}
100
AcDbMlineStyle
  2
STANDARD
 70
     0
  3

 62
   256
 51
90.00
 52
90.00
 71
     2
 49
0.50
 62
   256
  6
BYLAYER
 49
-0.50
 62
   256
  6
BYLAYER
  0
ENDSEC
  0
EOF
