  0
SECTION
  2
HEADER
  9
$ACADVER
  1
AC1014
  9
$DWGCODEPAGE
  3
ANSI_932
  9
$LTSCALE
 40
20.0
  9
$FILLMODE
 70
     1
  9
$CLAYER
  8
0
  9
$PDMODE
 70
     0
  9
$SPLFRAME
 70
     0
  9
$SPLINETYPE
 70
     6
  9
$SPLINESEGS
 70
     8
  9
$DIMASZ
 40
2.000000
  9
$DIMEXE
 40
1.500000
  9
$DIMEXO
 40
0.800000
  9
$DIMTAD
 70
     1
  9
$DIMTIH
 70
     0
  9
$DIMTOH
 70
     0
  9
$DIMTVP
 40
0.500000
  9
$DIMTXT
 40
3.100000
  9
$EXTMIN
 10
0.000000
 20
0.000000
 30
0.000000
  9
$EXTMAX
 10
297.000000
 20
420.000000
 30
0.000000
  9
$MEASUREMENT
 70
  1
  9
$LIMMIN
 10
0.000000
 20
0.000000
  9
$LIMMAX
 10
297.000000
 20
420.000000
  9
$HANDLING
 70
     1
  9
$HANDSEED
  5
B8
  9
$DIMBLK
  1
_OPEN
  9
$DIMDEC
 70
     2
  9
$DIMAUNIT
 70
     0
  9
$DIMZIN
 70
     8
  9
$DIMTOFL
 70
     1
  0
ENDSEC
  0
SECTION
  2
CLASSES
  0
ENDSEC
  0
SECTION
  2
TABLES
  0
TABLE
  2
VPORT
  5
88
100
AcDbSymbolTable
 70
     1
  0
VPORT
  5
89
100
AcDbSymbolTableRecord
100
AcDbViewportTableRecord
  2
*ACTIVE
 70
     0
 12
99.952893
 22
76.543390
 40
117.086779
 41
1.536517
  0
ENDTAB
  0
TABLE
  2
LTYPE
  5
8A
100
AcDbSymbolTable
 70
     2
  0
LTYPE
  5
8B
100
AcDbSymbolTableRecord
100
AcDbLinetypeTableRecord
  2
BYBLOCK
 70
     0
  3

 72
    65
 73
     0
 40
0.0
  0
LTYPE
  5
8C
100
AcDbSymbolTableRecord
100
AcDbLinetypeTableRecord
  2
BYLAYER
 70
     0
  3

 72
    65
 73
     0
 40
0.0
  0
LTYPE
  5
8D
100
AcDbSymbolTableRecord
100
AcDbLinetypeTableRecord
  2
CONTINUOUS
 70
     0
  3
Solid line (NEC CAE2D for Win R18.0 : 2025.08.25)
 72
    65
 73
     0
 40
0.0
  0
LTYPE
  5
8E
100
AcDbSymbolTableRecord
100
AcDbLinetypeTableRecord
  2
CENTER
 70
     0
  3
____ _ ____ _ ____ _ ____ _ ____ _ ____
 72
    65
 73
     4
 40
2.0
 49
1.25
 74
     0
 49
-0.25
 74
     0
 49
0.25
 74
     0
 49
-0.25
 74
     0
  0
ENDTAB
  0
TABLE
  2
LAYER
  5
8F
100
AcDbSymbolTable
 70
    17
  0
LAYER
  5
90
100
AcDbSymbolTableRecord
100
AcDbLayerTableRecord
  2
0
 70
     0
 62
     7
  6
CONTINUOUS
  0
LAYER
  5
91
100
AcDbSymbolTableRecord
100
AcDbLayerTableRecord
  2
DXF0
 70
     0
 62
     7
  6
CONTINUOUS
  0
LAYER
  5
92
100
AcDbSymbolTableRecord
100
AcDbLayerTableRecord
  2
A0
 70
     0
 62
     9
  6
CONTINUOUS
  0
LAYER
  5
93
100
AcDbSymbolTableRecord
100
AcDbLayerTableRecord
  2
A1
 70
     0
 62
    12
  6
CONTINUOUS
  0
LAYER
  5
94
100
AcDbSymbolTableRecord
100
AcDbLayerTableRecord
  2
A4
 70
     0
 62
     9
  6
CONTINUOUS
  0
LAYER
  5
95
100
AcDbSymbolTableRecord
100
AcDbLayerTableRecord
  2
A5
 70
     0
 62
     8
  6
CONTINUOUS
  0
LAYER
  5
96
100
AcDbSymbolTableRecord
100
AcDbLayerTableRecord
  2
A6
 70
     0
 62
    12
  6
CONTINUOUS
  0
LAYER
  5
97
100
AcDbSymbolTableRecord
100
AcDbLayerTableRecord
  2
A7
 70
     0
 62
    12
  6
CONTINUOUS
  0
LAYER
  5
98
100
AcDbSymbolTableRecord
100
AcDbLayerTableRecord
  2
A8
 70
     0
 62
    10
  6
CONTINUOUS
  0
LAYER
  5
99
100
AcDbSymbolTableRecord
100
AcDbLayerTableRecord
  2
A9
 70
     0
 62
     9
  6
CONTINUOUS
  0
LAYER
  5
9A
100
AcDbSymbolTableRecord
100
AcDbLayerTableRecord
  2
A10
 70
     0
 62
     6
  6
CONTINUOUS
  0
LAYER
  5
9B
100
AcDbSymbolTableRecord
100
AcDbLayerTableRecord
  2
A20
 70
     0
 62
     1
  6
CONTINUOUS
  0
LAYER
  5
9C
100
AcDbSymbolTableRecord
100
AcDbLayerTableRecord
  2
A30
 70
     0
 62
     1
  6
CONTINUOUS
  0
LAYER
  5
9D
100
AcDbSymbolTableRecord
100
AcDbLayerTableRecord
  2
A40
 70
     0
 62
     9
  6
CONTINUOUS
  0
LAYER
  5
9E
100
AcDbSymbolTableRecord
100
AcDbLayerTableRecord
  2
A50
 70
     0
 62
    12
  6
CONTINUOUS
  0
LAYER
  5
9F
100
AcDbSymbolTableRecord
100
AcDbLayerTableRecord
  2
A1023
 70
     0
 62
     8
  6
CONTINUOUS
  0
LAYER
  5
A0
100
AcDbSymbolTableRecord
100
AcDbLayerTableRecord
  2
DXF1023
 70
     0
 62
    16
  6
CONTINUOUS
  0
ENDTAB
  0
TABLE
  2
STYLE
  5
A1
100
AcDbSymbolTable
 70
     4
  0
STYLE
  5
A2
100
AcDbSymbolTableRecord
100
AcDbTextStyleTableRecord
  2
STANDARD
 70
    64
 40
0.0
 41
1.0
 50
0.0
 71
     0
 42
8.000000000000000
  3
TXT
  4

  0
STYLE
  5
A3
100
AcDbSymbolTableRecord
100
AcDbTextStyleTableRecord
  2
ANKTATE
 70
    68
 40
0.0
 41
1.0
 50
0.0
 71
     0
 42
8.000000000000000
  3
TXT
  4

  0
STYLE
  5
A4
100
AcDbSymbolTableRecord
100
AcDbTextStyleTableRecord
  2
KNJYOKO
 70
    64
 40
0.0
 41
1.0
 50
0.0
 71
     0
 42
8.000000000000000
  3
TXT
  4
BIGFONT
  0
STYLE
  5
A5
100
AcDbSymbolTableRecord
100
AcDbTextStyleTableRecord
  2
KNJTATE
 70
    68
 40
0.0
 41
1.0
 50
0.0
 71
     0
 42
8.000000000000000
  3
TXT
  4
BIGFONT
  0
ENDTAB
  0
TABLE
  2
VIEW
  5
A6
100
AcDbSymbolTable
 70
     0
  0
ENDTAB
  0
TABLE
  2
UCS
  5
A7
100
AcDbSymbolTable
 70
     0
  0
ENDTAB
  0
TABLE
  2
APPID
  5
A8
100
AcDbSymbolTable
 70
     1
  0
APPID
  5
A9
100
AcDbSymbolTableRecord
100
AcDbRegAppTableRecord
  2
ACAD
 70
     0
  0
ENDTAB
  0
TABLE
  2
DIMSTYLE
  5
AA
100
AcDbSymbolTable
 70
     2
  0
DIMSTYLE
105
AB
100
AcDbSymbolTableRecord
100
AcDbDimStyleTableRecord
  2
STANDARD
 70
     0
 41
2.000000
 44
1.500000
 42
0.800000
145
0.661290
140
3.100000
144
1.000000
146
0.645161
340
A2
  0
DIMSTYLE
105
AC
100
AcDbSymbolTableRecord
100
AcDbDimStyleTableRecord
  2
DXF001
 70
     0
 41
2.000000
 44
1.500000
 42
0.800000
145
0.661290
140
3.100000
144
1.000000
146
0.645161
 77
     1
 73
     0
 74
     0
271
     2
275
     0
 78
     8
172
     1
340
A2
  0
ENDTAB
  0
TABLE
  2
BLOCK_RECORD
  5
AD
100
AcDbSymbolTable
 70
    12
  0
BLOCK_RECORD
  5
AE
100
AcDbSymbolTableRecord
100
AcDbBlockTableRecord
  2
*MODEL_SPACE
  0
BLOCK_RECORD
  5
AF
100
AcDbSymbolTableRecord
100
AcDbBlockTableRecord
  2
*PAPER_SPACE
  0
BLOCK_RECORD
  5
1
100
AcDbSymbolTableRecord
100
AcDbBlockTableRecord
  2
_NONE
  0
BLOCK_RECORD
  5
4
100
AcDbSymbolTableRecord
100
AcDbBlockTableRecord
  2
_CLOSED
  0
BLOCK_RECORD
  5
B
100
AcDbSymbolTableRecord
100
AcDbBlockTableRecord
  2
_DOT
  0
BLOCK_RECORD
  5
13
100
AcDbSymbolTableRecord
100
AcDbBlockTableRecord
  2
_OPEN
  0
BLOCK_RECORD
  5
19
100
AcDbSymbolTableRecord
100
AcDbBlockTableRecord
  2
_ORIGIN
  0
BLOCK_RECORD
  5
1E
100
AcDbSymbolTableRecord
100
AcDbBlockTableRecord
  2
_OPEN30
  0
BLOCK_RECORD
  5
24
100
AcDbSymbolTableRecord
100
AcDbBlockTableRecord
  2
_BOXFILLED
  0
BLOCK_RECORD
  5
29
100
AcDbSymbolTableRecord
100
AcDbBlockTableRecord
  2
_BOXBLANK
  0
BLOCK_RECORD
  5
31
100
AcDbSymbolTableRecord
100
AcDbBlockTableRecord
  2
_OBLIQUE
  0
BLOCK_RECORD
  5
35
100
AcDbSymbolTableRecord
100
AcDbBlockTableRecord
  2
_OPEN90
  0
BLOCK_RECORD
  5
3B
100
AcDbSymbolTableRecord
100
AcDbBlockTableRecord
  2
_CLOSEDBLANK
  0
BLOCK_RECORD
  5
41
100
AcDbSymbolTableRecord
100
AcDbBlockTableRecord
  2
_DOTBLANK
  0
ENDTAB
  0
ENDSEC
  0
SECTION
  2
BLOCKS
  0
BLOCK
  5
B0
100
AcDbEntity
  8
0
100
AcDbBlockBegin
  2
*MODEL_SPACE
 70
     0
 10
0.0
 20
0.0
 30
0.0
  3
*MODEL_SPACE
  1

  0
ENDBLK
  5
B1
100
AcDbEntity
  8
0
100
AcDbBlockEnd
  0
BLOCK
  5
B2
100
AcDbEntity
  8
0
100
AcDbBlockBegin
  2
*PAPER_SPACE
 70
     0
 10
0.0
 20
0.0
 30
0.0
  3
*PAPER_SPACE
  1

  0
ENDBLK
  5
B3
100
AcDbEntity
  8
0
100
AcDbBlockEnd
  0
BLOCK
  5
2
100
AcDbEntity
  8
0
100
AcDbBlockBegin
  2
_NONE
 70
     0
 10
0.0
 20
0.0
 30
0.0
  3
_NONE
  1

  0
ENDBLK
  5
3
100
AcDbEntity
  8
0
100
AcDbBlockEnd
  0
BLOCK
  5
5
100
AcDbEntity
  8
0
100
AcDbBlockBegin
  2
_CLOSED
 70
     0
 10
0.0
 20
0.0
 30
0.0
  3
_CLOSED
  1

  0
LINE
  5
6
100
AcDbEntity
  8
0
  6
BYBLOCK
 62
     0
100
AcDbLine
 10
-1.0
 20
0.166667
 30
0.0
 11
0.0
 21
0.0
 31
0.0
  0
LINE
  5
7
100
AcDbEntity
  8
0
  6
BYBLOCK
 62
     0
100
AcDbLine
 10
0.0
 20
0.0
 30
0.0
 11
-1.0
 21
-0.166667
 31
0.0
  0
LINE
  5
8
100
AcDbEntity
  8
0
  6
BYBLOCK
 62
     0
100
AcDbLine
 10
-1.0
 20
0.166667
 30
0.0
 11
-1.0
 21
-0.166667
 31
0.0
  0
LINE
  5
9
100
AcDbEntity
  8
0
  6
BYBLOCK
 62
     0
100
AcDbLine
 10
0.0
 20
0.0
 30
0.0
 11
-1.0
 21
0.0
 31
0.0
  0
ENDBLK
  5
A
100
AcDbEntity
  8
0
100
AcDbBlockEnd
  0
BLOCK
  5
C
100
AcDbEntity
  8
0
100
AcDbBlockBegin
  2
_DOT
 70
     0
 10
0.0
 20
0.0
 30
0.0
  3
_DOT
  1

  0
POLYLINE
  5
D
100
AcDbEntity
  8
0
  6
BYBLOCK
 62
     0
100
AcDb2dPolyline
 66
     1
 10
0.0
 20
0.0
 30
0.0
 70
     1
 40
0.5
 41
0.5
  0
VERTEX
  5
E
100
AcDbEntity
  8
0
  6
BYBLOCK
 62
     0
100
AcDbVertex
100
AcDb2dVertex
 10
-0.25
 20
0.0
 30
0.0
 42
1.0
  0
VERTEX
  5
F
100
AcDbEntity
  8
0
  6
BYBLOCK
 62
     0
100
AcDbVertex
100
AcDb2dVertex
 10
0.25
 20
0.0
 30
0.0
 42
1.0
  0
SEQEND
  5
10
100
AcDbEntity
  8
0
  6
BYBLOCK
 62
     0
  0
LINE
  5
11
100
AcDbEntity
  8
0
  6
BYBLOCK
 62
     0
100
AcDbLine
 10
-0.5
 20
0.0
 30
0.0
 11
-1.0
 21
0.0
 31
0.0
  0
ENDBLK
  5
12
100
AcDbEntity
  8
0
100
AcDbBlockEnd
  0
BLOCK
  5
14
100
AcDbEntity
  8
0
100
AcDbBlockBegin
  2
_OPEN
 70
     0
 10
0.0
 20
0.0
 30
0.0
  3
_OPEN
  1

  0
LINE
  5
15
100
AcDbEntity
  8
0
  6
BYBLOCK
 62
     0
100
AcDbLine
 10
-1.0
 20
0.166667
 30
0.0
 11
0.0
 21
0.0
 31
0.0
  0
LINE
  5
16
100
AcDbEntity
  8
0
  6
BYBLOCK
 62
     0
100
AcDbLine
 10
0.0
 20
0.0
 30
0.0
 11
-1.0
 21
-0.166667
 31
0.0
  0
LINE
  5
17
100
AcDbEntity
  8
0
  6
BYBLOCK
 62
     0
100
AcDbLine
 10
0.0
 20
0.0
 30
0.0
 11
-1.0
 21
0.0
 31
0.0
  0
ENDBLK
  5
18
100
AcDbEntity
  8
0
100
AcDbBlockEnd
  0
BLOCK
  5
1A
100
AcDbEntity
  8
0
100
AcDbBlockBegin
  2
_ORIGIN
 70
     0
 10
0.0
 20
0.0
 30
0.0
  3
_ORIGIN
  1

  0
CIRCLE
  5
1B
100
AcDbEntity
  8
0
  6
BYBLOCK
 62
     0
100
AcDbCircle
 10
0.0
 20
0.0
 30
0.0
 40
0.5
  0
LINE
  5
1C
100
AcDbEntity
  8
0
  6
BYBLOCK
 62
     0
100
AcDbLine
 10
0.0
 20
0.0
 30
0.0
 11
-1.0
 21
0.0
 31
0.0
  0
ENDBLK
  5
1D
100
AcDbEntity
  8
0
100
AcDbBlockEnd
  0
BLOCK
  5
1F
100
AcDbEntity
  8
0
100
AcDbBlockBegin
  2
_OPEN30
 70
     0
 10
0.0
 20
0.0
 30
0.0
  3
_OPEN30
  1

  0
LINE
  5
20
100
AcDbEntity
  8
0
  6
BYBLOCK
 62
     0
100
AcDbLine
 10
-1.0
 20
0.267949
 30
0.0
 11
0.0
 21
0.0
 31
0.0
  0
LINE
  5
21
100
AcDbEntity
  8
0
  6
BYBLOCK
 62
     0
100
AcDbLine
 10
0.0
 20
0.0
 30
0.0
 11
-1.0
 21
-0.267949
 31
0.0
  0
LINE
  5
22
100
AcDbEntity
  8
0
  6
BYBLOCK
 62
     0
100
AcDbLine
 10
0.0
 20
0.0
 30
0.0
 11
-1.0
 21
0.0
 31
0.0
  0
ENDBLK
  5
23
100
AcDbEntity
  8
0
100
AcDbBlockEnd
  0
BLOCK
  5
25
100
AcDbEntity
  8
0
100
AcDbBlockBegin
  2
_BOXFILLED
 70
     0
 10
0.0
 20
0.0
 30
0.0
  3
_BOXFILLED
  1

  0
SOLID
  5
26
100
AcDbEntity
  8
0
  6
BYBLOCK
 62
     0
100
AcDbTrace
 10
-0.5
 20
0.5
 30
0.0
 11
0.5
 21
0.5
 31
0.0
 12
-0.5
 22
-0.5
 32
0.0
 13
0.5
 23
-0.5
 33
0.0
  0
LINE
  5
27
100
AcDbEntity
  8
0
  6
BYBLOCK
 62
     0
100
AcDbLine
 10
-0.5
 20
0.0
 30
0.0
 11
-1.0
 21
0.0
 31
0.0
  0
ENDBLK
  5
28
100
AcDbEntity
  8
0
100
AcDbBlockEnd
  0
BLOCK
  5
2A
100
AcDbEntity
  8
0
100
AcDbBlockBegin
  2
_BOXBLANK
 70
     0
 10
0.0
 20
0.0
 30
0.0
  3
_BOXBLANK
  1

  0
LINE
  5
2B
100
AcDbEntity
  8
0
  6
BYBLOCK
 62
     0
100
AcDbLine
 10
-0.5
 20
-0.5
 30
0.0
 11
0.5
 21
-0.5
 31
0.0
  0
LINE
  5
2C
100
AcDbEntity
  8
0
  6
BYBLOCK
 62
     0
100
AcDbLine
 10
0.5
 20
-0.5
 30
0.0
 11
0.5
 21
0.5
 31
0.0
  0
LINE
  5
2D
100
AcDbEntity
  8
0
  6
BYBLOCK
 62
     0
100
AcDbLine
 10
0.5
 20
0.5
 30
0.0
 11
-0.5
 21
0.5
 31
0.0
  0
LINE
  5
2E
100
AcDbEntity
  8
0
  6
BYBLOCK
 62
     0
100
AcDbLine
 10
-0.5
 20
0.5
 30
0.0
 11
-0.5
 21
-0.5
 31
0.0
  0
LINE
  5
2F
100
AcDbEntity
  8
0
  6
BYBLOCK
 62
     0
100
AcDbLine
 10
-0.5
 20
0.0
 30
0.0
 11
-1.0
 21
0.0
 31
0.0
  0
ENDBLK
  5
30
100
AcDbEntity
  8
0
100
AcDbBlockEnd
  0
BLOCK
  5
32
100
AcDbEntity
  8
0
100
AcDbBlockBegin
  2
_OBLIQUE
 70
     0
 10
0.0
 20
0.0
 30
0.0
  3
_OBLIQUE
  1

  0
LINE
  5
33
100
AcDbEntity
  8
0
  6
BYBLOCK
 62
     0
100
AcDbLine
 10
-0.5
 20
-0.5
 30
0.0
 11
0.5
 21
0.5
 31
0.0
  0
ENDBLK
  5
34
100
AcDbEntity
  8
0
100
AcDbBlockEnd
  0
BLOCK
  5
36
100
AcDbEntity
  8
0
100
AcDbBlockBegin
  2
_OPEN90
 70
     0
 10
0.0
 20
0.0
 30
0.0
  3
_OPEN90
  1

  0
LINE
  5
37
100
AcDbEntity
  8
0
  6
BYBLOCK
 62
     0
100
AcDbLine
 10
-0.5
 20
0.5
 30
0.0
 11
0.0
 21
0.0
 31
0.0
  0
LINE
  5
38
100
AcDbEntity
  8
0
  6
BYBLOCK
 62
     0
100
AcDbLine
 10
0.0
 20
0.0
 30
0.0
 11
-0.5
 21
-0.5
 31
0.0
  0
LINE
  5
39
100
AcDbEntity
  8
0
  6
BYBLOCK
 62
     0
100
AcDbLine
 10
0.0
 20
0.0
 30
0.0
 11
-1.0
 21
0.0
 31
0.0
  0
ENDBLK
  5
3A
100
AcDbEntity
  8
0
100
AcDbBlockEnd
  0
BLOCK
  5
3C
100
AcDbEntity
  8
0
100
AcDbBlockBegin
  2
_CLOSEDBLANK
 70
     0
 10
0.0
 20
0.0
 30
0.0
  3
_CLOSEDBLANK
  1

  0
LINE
  5
3D
100
AcDbEntity
  8
0
  6
BYBLOCK
 62
     0
100
AcDbLine
 10
-1.0
 20
0.1666666666666666
 30
0.0
 11
0.0
 21
0.0
 31
0.0
  0
LINE
  5
3E
100
AcDbEntity
  8
0
  6
BYBLOCK
 62
     0
100
AcDbLine
 10
0.0
 20
0.0
 30
0.0
 11
-1.0
 21
-0.1666666666666666
 31
0.0
  0
LINE
  5
3F
100
AcDbEntity
  8
0
  6
BYBLOCK
 62
     0
100
AcDbLine
 10
-1.0
 20
0.1666666666666666
 30
0.0
 11
-1.0
 21
-0.1666666666666666
 31
0.0
  0
ENDBLK
  5
40
100
AcDbEntity
  8
0
100
AcDbBlockEnd
  0
BLOCK
  5
42
100
AcDbEntity
  8
0
100
AcDbBlockBegin
  2
_DOTBLANK
 70
     0
 10
0.0
 20
0.0
 30
0.0
  3
_DOTBLANK
  1

  0
CIRCLE
  5
43
100
AcDbEntity
  8
0
  6
BYBLOCK
 62
     0
100
AcDbCircle
 10
0.0
 20
0.0
 30
0.0
 40
0.5
  0
LINE
  5
44
100
AcDbEntity
  8
0
  6
BYBLOCK
 62
     0
100
AcDbLine
 10
-0.5
 20
0.0
 30
0.0
 11
-1.0
 21
0.0
 31
0.0
  0
ENDBLK
  5
45
100
AcDbEntity
  8
0
100
AcDbBlockEnd
  0
ENDSEC
  0
SECTION
  2
ENTITIES
  0
MTEXT
  5
46
100
AcDbEntity
  8
A7
  6
CONTINUOUS
 62
3
100
AcDbMText
 10
9.999997526638502
 20
18.00000076076889
 30
0.000000000000000
 40
3.000000000000000
 41
0.000000000000000
 71
     7
 72
     1
  1
{\H0.94x;{TYPE No.TM-384-2123}}
 11
1.000000000000000
 21
0.000000000000000
 31
0.000000000000000
  7
STANDARD
  0
POINT
  5
47
100
AcDbEntity
  8
A0
  6
CONTINUOUS
 62
3
100
AcDbPoint
 10
9.999997526638502
 20
18.00000076076889
 30
0.000000000000000
  0
ARC
  5
48
100
AcDbEntity
  8
0
  6
CONTINUOUS
 62
7
100
AcDbCircle
 10
172.1477817434934
 20
103.7021831838268
 30
0.000000000000000
 40
2.000000000000000
100
AcDbArc
 50
221.7436920631135
 51
284.9999997802962
  0
ARC
  5
49
100
AcDbEntity
  8
0
  6
CONTINUOUS
 62
7
100
AcDbCircle
 10
167.7219730810515
 20
120.2195110482300
 30
0.000000000000000
 40
2.000000000000000
100
AcDbArc
 50
105.0000037318842
 51
168.2563338289299
  0
ARC
  5
4A
100
AcDbEntity
  8
0
  6
CONTINUOUS
 62
7
100
AcDbCircle
 10
58.11177553335466
 20
119.0358231581145
 30
0.000000000000000
 40
2.000000000000000
100
AcDbArc
 50
42.07252622125148
 51
105.0000019523731
  0
ARC
  5
4B
100
AcDbEntity
  8
0
  6
CONTINUOUS
 62
7
100
AcDbCircle
 10
63.06259617212527
 20
100.5886187198252
 30
0.000000000000000
 40
2.000000000000000
100
AcDbArc
 50
285.0000050649834
 51
347.9732964787828
  0
ARC
  5
4C
100
AcDbEntity
  8
0
  6
CONTINUOUS
 62
7
100
AcDbCircle
 10
40.26594989481097
 20
117.8775146027567
 30
0.000000000000000
 40
1.500000000000000
100
AcDbArc
 50
161.2453764200488
 51
285.0000019523739
  0
ARC
  5
4D
100
AcDbEntity
  8
0
  6
CONTINUOUS
 62
7
100
AcDbCircle
 10
47.01148046107599
 20
92.66426698936357
 30
0.000000000000000
 40
1.500000000000000
100
AcDbArc
 50
105.0000050649842
 51
228.7107781044488
  0
ARC
  5
4E
100
AcDbEntity
  8
0
  6
CONTINUOUS
 62
7
100
AcDbCircle
 10
182.1486104596992
 20
127.7085845851335
 30
0.000000000000000
 40
1.500000000000000
100
AcDbArc
 50
285.0000037318840
 51
409.0879526349029
  0
ARC
  5
4F
100
AcDbEntity
  8
0
  6
CONTINUOUS
 62
7
100
AcDbCircle
 10
188.3861431964232
 20
104.4297723270942
 30
0.000000000000000
 40
1.500000000000000
100
AcDbArc
 50
340.9120188502384
 51
464.9999997802954
  0
LINE
  5
50
100
AcDbEntity
  8
0
  6
CONTINUOUS
 62
7
100
AcDbLine
 10
40.65417851183619
 20
116.4286258765521
 30
0.000000000000000
 11
57.59413737732107
 21
120.9676747930538
 31
0.000000000000000
  0
LINE
  5
51
100
AcDbEntity
  8
0
  6
CONTINUOUS
 62
7
100
AcDbLine
 10
46.62325176533949
 20
94.11315569447751
 30
0.000000000000000
 11
63.58023443310724
 21
98.65676711300651
 31
0.000000000000000
  0
LINE
  5
52
100
AcDbEntity
  8
0
  6
CONTINUOUS
 62
7
100
AcDbLine
 10
182.5368391217244
 20
126.2596958709866
 30
0.000000000000000
 11
167.2043348650179
 21
122.1513626670923
 31
0.000000000000000
  0
LINE
  5
53
100
AcDbEntity
  8
0
  6
CONTINUOUS
 62
7
100
AcDbLine
 10
187.9979146343252
 20
105.8786610680165
 30
0.000000000000000
 11
172.6654198262906
 21
101.7703315292637
 31
0.000000000000000
  0
ARC
  5
54
100
AcDbEntity
  8
0
  6
CONTINUOUS
 62
7
100
AcDbCircle
 10
89.91822247459527
 20
145.9245519690539
 30
0.000000000000000
 40
23.00000000000000
100
AcDbArc
 50
224.7554319948338
 51
268.8689370220130
  0
ARC
  5
55
100
AcDbEntity
  8
0
  6
CONTINUOUS
 62
7
100
AcDbCircle
 10
143.6268531080563
 20
132.3617283268086
 30
0.000000000000000
 40
10.50000000000000
100
AcDbArc
 50
268.8689370220130
 51
326.9961856734358
  0
ARC
  5
56
100
AcDbEntity
  8
0
  6
CONTINUOUS
 62
7
100
AcDbCircle
 10
142.8060542420411
 20
78.95437064539746
 30
0.000000000000000
 40
21.00000000000000
100
AcDbArc
 50
44.49299577832338
 51
91.13106297798706
  0
ARC
  5
57
100
AcDbEntity
  8
0
  6
CONTINUOUS
 62
7
100
AcDbCircle
 10
89.03652393787556
 20
87.39463201585326
 30
0.000000000000000
 40
11.50000000000000
100
AcDbArc
 50
91.13106297798706
 51
146.6738357638949
  0
ARC
  5
58
100
AcDbEntity
  8
0
  6
CONTINUOUS
 62
7
100
AcDbCircle
 10
168.0682662718050
 20
111.4606952591186
 30
0.000000000000000
 40
23.00000000000000
100
AcDbArc
 50
285.0000000000004
 51
340.9120188502384
  0
ARC
  5
59
100
AcDbEntity
  8
0
  6
CONTINUOUS
 62
7
100
AcDbCircle
 10
168.0682662718050
 20
111.4606952591186
 30
0.000000000000000
 40
23.00000000000000
100
AcDbArc
 50
49.08795263490290
 51
105.0000000000004
  0
ARC
  5
5A
100
AcDbEntity
  8
0
  6
CONTINUOUS
 62
7
100
AcDbCircle
 10
169.6988262559508
 20
105.3753625534974
 30
0.000000000000000
 40
16.70000000000000
100
AcDbArc
 50
224.4929957783234
 51
285.0000000000004
  0
ARC
  5
5B
100
AcDbEntity
  8
0
  6
CONTINUOUS
 62
7
100
AcDbCircle
 10
166.4377062876590
 20
117.5460279647397
 30
0.000000000000000
 40
16.70000000000000
100
AcDbArc
 50
105.0000000000004
 51
146.9961856734357
  0
ARC
  5
5C
100
AcDbEntity
  8
0
  6
CONTINUOUS
 62
7
100
AcDbCircle
 10
60.73234688538807
 20
116.9867796620619
 30
0.000000000000000
 40
18.09999999999999
100
AcDbArc
 50
44.75543199483382
 51
105.0000000000004
  0
ARC
  5
5D
100
AcDbEntity
  8
0
  6
CONTINUOUS
 62
7
100
AcDbCircle
 10
62.51819829659547
 20
110.3218914606672
 30
0.000000000000000
 40
25.00000000000000
100
AcDbArc
 50
105.0000000000004
 51
161.2453764200495
  0
ARC
  5
5E
100
AcDbEntity
  8
0
  6
CONTINUOUS
 62
7
100
AcDbCircle
 10
62.51819829659556
 20
110.3218914606672
 30
0.000000000000000
 40
25.00000000000000
100
AcDbArc
 50
228.7107781044488
 51
284.9999999999996
  0
ARC
  5
5F
100
AcDbEntity
  8
0
  6
CONTINUOUS
 62
7
100
AcDbCircle
 10
64.30404970780287
 20
103.6570032592726
 30
0.000000000000000
 40
18.10000000000005
100
AcDbArc
 50
284.9999999999996
 51
326.6738357638949
  0
LINE
  5
60
100
AcDbEntity
  8
A0
  6
CONTINUOUS
 62
4
100
AcDbLine
 10
92.32069137960806
 20
107.8672638036301
 30
0.000000000000000
 11
95.67191798320977
 21
106.0264344427872
 31
0.000000000000000
  0
LINE
  5
61
100
AcDbEntity
  8
A0
  6
CONTINUOUS
 62
4
100
AcDbLine
 10
92.55984633537308
 20
109.6262668919979
 30
0.000000000000000
 11
92.32069137960808
 21
107.8672638036301
 31
0.000000000000000
  0
LINE
  5
62
100
AcDbEntity
  8
A0
  6
CONTINUOUS
 62
4
100
AcDbLine
 10
95.67191798320980
 20
106.0264344427872
 30
0.000000000000000
 11
97.02814847350869
 21
107.1718277442074
 31
0.000000000000000
  0
ARC
  5
63
100
AcDbEntity
  8
A0
  6
CONTINUOUS
 62
4
100
AcDbCircle
 10
92.42298294586337
 20
114.9363193689102
 30
0.000000000000000
 40
7.901959519999999
100
AcDbArc
 50
304.3727866739949
 51
360.1585277401801
  0
ARC
  5
64
100
AcDbEntity
  8
A0
  6
CONTINUOUS
 62
4
100
AcDbCircle
 10
101.5830023290415
 20
109.9047191159394
 30
0.000000000000000
 40
7.901959519999999
100
AcDbArc
 50
122.1992957896548
 51
178.0672133260042
  0
LINE
  5
65
100
AcDbEntity
  8
A0
  6
CONTINUOUS
 62
4
100
AcDbLine
 10
93.68553839391413
 20
110.1712292453607
 30
0.000000000000000
 11
92.55984633537305
 21
109.6262668919978
 31
0.000000000000000
  0
LINE
  5
66
100
AcDbEntity
  8
A0
  6
CONTINUOUS
 62
4
100
AcDbLine
 10
96.88423207408380
 20
108.4141862460988
 30
0.000000000000000
 11
97.02814847350871
 21
107.1718277442074
 31
0.000000000000000
  0
ARC
  5
67
100
AcDbEntity
  8
A0
  6
CONTINUOUS
 62
4
100
AcDbCircle
 10
98.78246101960056
 20
115.6600382925731
 30
0.000000000000000
 40
3.058823040000000
100
AcDbArc
 50
61.21999999999971
 51
82.54368626349984
  0
ARC
  5
68
100
AcDbEntity
  8
A0
  6
CONTINUOUS
 62
4
100
AcDbCircle
 10
98.96439373342338
 20
117.0501440077749
 30
0.000000000000000
 40
1.656862480000000
100
AcDbArc
 50
82.54368626349984
 51
196.0754096007781
  0
ARC
  5
69
100
AcDbEntity
  8
A0
  6
CONTINUOUS
 62
4
100
AcDbCircle
 10
99.85805416105066
 20
116.5592561782167
 30
0.000000000000000
 40
1.656862480000000
100
AcDbArc
 50
286.3645903992214
 51
399.8963137365004
  0
ARC
  5
6A
100
AcDbEntity
  8
A0
  6
CONTINUOUS
 62
4
100
AcDbCircle
 10
98.78246101960056
 20
115.6600382925731
 30
0.000000000000000
 40
3.058823040000000
100
AcDbArc
 50
39.89631373650042
 51
61.21999999999971
  0
LINE
  5
6B
100
AcDbEntity
  8
A0
  6
CONTINUOUS
 62
4
100
AcDbLine
 10
107.2234520213918
 20
108.2605506092089
 30
0.000000000000000
 11
105.9962324474962
 21
106.0263995401409
 31
0.000000000000000
  0
LINE
  5
6C
100
AcDbEntity
  8
A0
  6
CONTINUOUS
 62
4
100
AcDbLine
 10
94.19300043816745
 20
114.9819404987466
 30
0.000000000000000
 11
93.33394673644075
 21
113.4180347503991
 31
0.000000000000000
  0
LINE
  5
6D
100
AcDbEntity
  8
A0
  6
CONTINUOUS
 62
4
100
AcDbLine
 10
107.2234520213918
 20
108.2605506092089
 30
0.000000000000000
 11
99.79533516222449
 21
112.0921345905185
 31
0.000000000000000
  0
LINE
  5
6E
100
AcDbEntity
  8
A0
  6
CONTINUOUS
 62
4
100
AcDbLine
 10
93.33394673644078
 20
113.4180347503992
 30
0.000000000000000
 11
94.26124335410310
 21
112.8767234511697
 31
0.000000000000000
  0
LINE
  5
6F
100
AcDbEntity
  8
A0
  6
CONTINUOUS
 62
4
100
AcDbLine
 10
95.14725893110187
 20
114.4897132458806
 30
0.000000000000000
 11
94.19300043816747
 21
114.9819404987466
 31
0.000000000000000
  0
LINE
  5
70
100
AcDbEntity
  8
A0
  6
CONTINUOUS
 62
4
100
AcDbLine
 10
98.77799159335927
 20
110.2400624183194
 30
0.000000000000000
 11
105.9962324474963
 21
106.0263995401410
 31
0.000000000000000
  0
LINE
  5
71
100
AcDbEntity
  8
0
  6
CONTINUOUS
 62
7
100
AcDbLine
 10
189.9057878404392
 20
39.93757849755363
 30
0.000000000000000
 11
38.80472092369894
 21
39.93757849755363
 31
0.000000000000000
  0
LINE
  5
72
100
AcDbEntity
  8
0
  6
CONTINUOUS
 62
7
100
AcDbLine
 10
142.3915249335348
 20
99.95027894802608
 30
0.000000000000000
 11
88.80951979274116
 21
98.89239132443559
 31
0.000000000000000
  0
LINE
  5
73
100
AcDbEntity
  8
0
  6
CONTINUOUS
 62
7
100
AcDbLine
 10
89.46421418432661
 20
122.9290333518891
 30
0.000000000000000
 11
143.4195884538031
 21
121.8637741754941
 31
0.000000000000000
  0
MTEXT
  5
74
100
AcDbEntity
  8
A0
  6
CONTINUOUS
 62
4
100
AcDbMText
 10
152.0398217872643
 20
115.6790798168684
 30
0.000000000000000
 40
8.000000000000000
 41
0.000000000000000
 71
     7
 72
     1
  1
{\H0.88x;{21}}
 11
5.235983717104588e-08
 21
-0.9999999999999987
 31
0.000000000000000
  7
STANDARD
  0
MTEXT
  5
75
100
AcDbEntity
  8
A0
  6
CONTINUOUS
 62
4
100
AcDbMText
 10
78.72894640887597
 20
104.4342766081734
 30
0.000000000000000
 40
8.000000000000000
 41
0.000000000000000
 71
     7
 72
     1
  1
{\H0.88x;{23}}
 11
0.001679327983879454
 21
0.9999985899277671
 31
0.000000000000000
  7
STANDARD
  0
ARC
  5
76
100
AcDbEntity
  8
0
  6
CONTINUOUS
 62
7
100
AcDbCircle
 10
42.52353369241186
 20
104.9643372270451
 30
0.000000000000000
 40
23.00000000000000
100
AcDbArc
 50
347.9732964787836
 51
402.0725262212515
  0
ARC
  5
77
100
AcDbEntity
  8
0
  6
CONTINUOUS
 62
7
100
AcDbCircle
 10
186.3242646690898
 20
116.3523741650048
 30
0.000000000000000
 40
21.00000000000000
100
AcDbArc
 50
168.2563338289299
 51
221.7436920631135
  0
LINE
  5
78
100
AcDbEntity
  8
0
  6
CONTINUOUS
 62
7
100
AcDbLine
 10
38.80472092369887
 20
37.93757849755361
 30
0.000000000000000
 11
38.80472092369893
 21
39.93757849755361
 31
0.000000000000000
  0
LINE
  5
79
100
AcDbEntity
  8
0
  6
CONTINUOUS
 62
7
100
AcDbLine
 10
45.51148046107602
 20
37.93757849755363
 30
0.000000000000000
 11
45.51148046107602
 21
39.93757849755363
 31
0.000000000000000
  0
LINE
  5
7A
100
AcDbEntity
  8
0
  6
CONTINUOUS
 62
7
100
AcDbLine
 10
189.9057878404392
 20
37.93757849755363
 30
0.000000000000000
 11
189.9057878404392
 21
39.93757849755363
 31
0.000000000000000
  0
LINE
  5
7B
100
AcDbEntity
  8
0
  6
CONTINUOUS
 62
7
100
AcDbLine
 10
189.9057878404392
 20
37.93757849755363
 30
0.000000000000000
 11
38.80472092369888
 21
37.93757849755363
 31
0.000000000000000
  0
LINE
  5
7C
100
AcDbEntity
  8
A4
  6
CENTER
 62
1
100
AcDbLine
 10
145.5629526026051
 20
110.9171752644029
 30
0.000000000000000
 11
138.1167027915159
 21
110.9171752644030
 31
0.000000000000000
  0
LINE
  5
7D
100
AcDbEntity
  8
A4
  6
CENTER
 62
1
100
AcDbLine
 10
87.83982769706037
 20
107.1940503588584
 30
0.000000000000000
 11
87.83982769706046
 21
114.6403001699476
 31
0.000000000000000
  0
CIRCLE
  5
7E
100
AcDbEntity
  8
0
  6
CONTINUOUS
 62
7
100
AcDbCircle
 10
87.83982769706046
 20
110.9171752644030
 30
0.000000000000000
 40
2.150000000000000
  0
CIRCLE
  5
7F
100
AcDbEntity
  8
0
  6
CONTINUOUS
 62
7
100
AcDbCircle
 10
114.8398276970605
 20
110.9171752644030
 30
0.000000000000000
 40
2.150000000000000
  0
LINE
  5
80
100
AcDbEntity
  8
A4
  6
CENTER
 62
1
100
AcDbLine
 10
114.8398276970605
 20
107.1940503588584
 30
0.000000000000000
 11
114.8398276970605
 21
114.6403001699476
 31
0.000000000000000
  0
LINE
  5
81
100
AcDbEntity
  8
A4
  6
CENTER
 62
1
100
AcDbLine
 10
141.8398276970605
 20
107.1940503588577
 30
0.000000000000000
 11
141.8398276970605
 21
114.6403001699468
 31
0.000000000000000
  0
CIRCLE
  5
82
100
AcDbEntity
  8
0
  6
CONTINUOUS
 62
7
100
AcDbCircle
 10
141.8398276970605
 20
110.9171752644023
 30
0.000000000000000
 40
2.150000000000000
  0
LINE
  5
83
100
AcDbEntity
  8
A4
  6
CENTER
 62
1
100
AcDbLine
 10
141.8398276970605
 20
35.70577035222007
 30
0.000000000000000
 11
141.8398276970605
 21
42.16938664288719
 31
0.000000000000000
  0
LINE
  5
84
100
AcDbEntity
  8
A4
  6
CENTER
 62
1
100
AcDbLine
 10
114.8398276970605
 20
35.70577035222081
 30
0.000000000000000
 11
114.8398276970605
 21
42.16938664288719
 31
0.000000000000000
  0
LINE
  5
85
100
AcDbEntity
  8
A4
  6
CENTER
 62
1
100
AcDbLine
 10
87.83982769706046
 20
35.70577035222081
 30
0.000000000000000
 11
87.83982769706046
 21
42.16938664288719
 31
0.000000000000000
  0
LINE
  5
86
100
AcDbEntity
  8
A4
  6
CENTER
 62
1
100
AcDbLine
 10
118.5629526026051
 20
110.9171752644030
 30
0.000000000000000
 11
111.1167027915159
 21
110.9171752644030
 31
0.000000000000000
  0
LINE
  5
87
100
AcDbEntity
  8
A4
  6
CENTER
 62
1
100
AcDbLine
 10
91.56295260260495
 20
110.9171752644030
 30
0.000000000000000
 11
84.11670279151588
 21
110.9171752644030
 31
0.000000000000000
  0
ENDSEC
  0
SECTION
  2
OBJECTS
  0
DICTIONARY
  5
B4
100
AcDbDictionary
  3
ACAD_GROUP
350
B5
  3
ACAD_MLINESTYLE
350
B6
  0
DICTIONARY
  5
B5
102
{ACAD_REACTORS
330
B4
102
}
100
AcDbDictionary
  0
DICTIONARY
  5
B6
102
{ACAD_REACTORS
330
B4
102
}
100
AcDbDictionary
  3
STANDARD
350
B7
  0
MLINESTYLE
  5
B7
102
{ACAD_REACTORS
330
B6
102
}
100
AcDbMlineStyle
  2
STANDARD
 70
     0
  3

 62
   256
 51
90.00
 52
90.00
 71
     2
 49
0.50
 62
   256
  6
BYLAYER
 49
-0.50
 62
   256
  6
BYLAYER
  0
ENDSEC
  0
EOF
