  0
SECTION
  2
HEADER
  9
$ACADVER
  1
AC1015
  9
$ACADMAINTVER
 70
    20
  9
$DWGCODEPAGE
  3
ANSI_932
  9
$INSBASE
 10
0.0
 20
0.0
 30
0.0
  9
$EXTMIN
 10
9.99995
 20
9.999999999999998
 30
0.0
  9
$EXTMAX
 10
461.700012
 20
636.3499759999997
 30
0.0
  9
$LIMMIN
 10
0.0
 20
0.0
  9
$LIMMAX
 10
950.3999999999999
 20
655.2000000000001
  9
$ORTHOMODE
 70
     1
  9
$REGENMODE
 70
     1
  9
$FILLMODE
 70
     1
  9
$QTEXTMODE
 70
     0
  9
$MIRRTEXT
 70
     1
  9
$LTSCALE
 40
20.0
  9
$ATTMODE
 70
     1
  9
$TEXTSIZE
 40
5.0
  9
$TRACEWID
 40
1.0
  9
$TEXTSTYLE
  7
STANDARD
  9
$CLAYER
  8
0
  9
$CELTYPE
  6
BYLAYER
  9
$CECOLOR
 62
   256
  9
$CELTSCALE
 40
1.0
  9
$DISPSILH
 70
     0
  9
$DIMSCALE
 40
1.0
  9
$DIMASZ
 40
3.0
  9
$DIMEXO
 40
1.0
  9
$DIMDLI
 40
10.0
  9
$DIMRND
 40
0.0
  9
$DIMDLE
 40
0.0
  9
$DIMEXE
 40
1.0
  9
$DIMTP
 40
0.0
  9
$DIMTM
 40
0.0
  9
$DIMTXT
 40
3.2
  9
$DIMCEN
 40
0.0
  9
$DIMTSZ
 40
0.0
  9
$DIMTOL
 70
     0
  9
$DIMLIM
 70
     0
  9
$DIMTIH
 70
     0
  9
$DIMTOH
 70
     0
  9
$DIMSE1
 70
     0
  9
$DIMSE2
 70
     0
  9
$DIMTAD
 70
     3
  9
$DIMZIN
 70
     8
  9
$DIMBLK
  1

  9
$DIMASO
 70
     1
  9
$DIMSHO
 70
     1
  9
$DIMPOST
  1

  9
$DIMAPOST
  1

  9
$DIMALT
 70
     0
  9
$DIMALTD
 70
     2
  9
$DIMALTF
 40
25.4
  9
$DIMLFAC
 40
1.0
  9
$DIMTOFL
 70
     1
  9
$DIMTVP
 40
0.0
  9
$DIMTIX
 70
     0
  9
$DIMSOXD
 70
     0
  9
$DIMSAH
 70
     1
  9
$DIMBLK1
  1

  9
$DIMBLK2
  1

  9
$DIMSTYLE
  2
STANDARD
  9
$DIMCLRD
 70
     0
  9
$DIMCLRE
 70
     0
  9
$DIMCLRT
 70
     0
  9
$DIMTFAC
 40
1.0
  9
$DIMGAP
 40
1.0
  9
$DIMJUST
 70
     0
  9
$DIMSD1
 70
     0
  9
$DIMSD2
 70
     0
  9
$DIMTOLJ
 70
     1
  9
$DIMTZIN
 70
     0
  9
$DIMALTZ
 70
     0
  9
$DIMALTTZ
 70
     0
  9
$DIMUPT
 70
     0
  9
$DIMDEC
 70
     4
  9
$DIMTDEC
 70
     4
  9
$DIMALTU
 70
     2
  9
$DIMALTTD
 70
     2
  9
$DIMTXSTY
  7
STANDARD
  9
$DIMAUNIT
 70
     0
  9
$DIMADEC
 70
     0
  9
$DIMALTRND
 40
0.0
  9
$DIMAZIN
 70
     0
  9
$DIMDSEP
 70
    46
  9
$DIMATFIT
 70
     3
  9
$DIMFRAC
 70
     0
  9
$DIMLDRBLK
  1

  9
$DIMLUNIT
 70
     2
  9
$DIMLWD
 70
    -2
  9
$DIMLWE
 70
    -2
  9
$DIMTMOVE
 70
     0
  9
$LUNITS
 70
     2
  9
$LUPREC
 70
     4
  9
$SKETCHINC
 40
1.0
  9
$FILLETRAD
 40
2.0
  9
$AUNITS
 70
     0
  9
$AUPREC
 70
     2
  9
$MENU
  1
.
  9
$ELEVATION
 40
0.0
  9
$PELEVATION
 40
0.0
  9
$THICKNESS
 40
0.0
  9
$LIMCHECK
 70
     0
  9
$CHAMFERA
 40
10.0
  9
$CHAMFERB
 40
10.0
  9
$CHAMFERC
 40
0.0
  9
$CHAMFERD
 40
0.0
  9
$SKPOLY
 70
     0
  9
$TDCREATE
 40
2451065.506527430
  9
$TDUCREATE
 40
2451065.131527430
  9
$TDUPDATE
 40
2457192.622729387
  9
$TDUUPDATE
 40
2457192.247729387
  9
$TDINDWG
 40
0.0231043403
  9
$TDUSRTIMER
 40
0.0231038310
  9
$USRTIMER
 70
     1
  9
$ANGBASE
 50
0.0
  9
$ANGDIR
 70
     0
  9
$PDMODE
 70
     0
  9
$PDSIZE
 40
0.0
  9
$PLINEWID
 40
0.0
  9
$SPLFRAME
 70
     0
  9
$SPLINETYPE
 70
     6
  9
$SPLINESEGS
 70
     8
  9
$HANDSEED
  5
A185
  9
$SURFTAB1
 70
     6
  9
$SURFTAB2
 70
     6
  9
$SURFTYPE
 70
     6
  9
$SURFU
 70
     6
  9
$SURFV
 70
     6
  9
$UCSBASE
  2

  9
$UCSNAME
  2

  9
$UCSORG
 10
0.0
 20
0.0
 30
0.0
  9
$UCSXDIR
 10
1.0
 20
0.0
 30
0.0
  9
$UCSYDIR
 10
0.0
 20
1.0
 30
0.0
  9
$UCSORTHOREF
  2

  9
$UCSORTHOVIEW
 70
     0
  9
$UCSORGTOP
 10
0.0
 20
0.0
 30
0.0
  9
$UCSORGBOTTOM
 10
0.0
 20
0.0
 30
0.0
  9
$UCSORGLEFT
 10
0.0
 20
0.0
 30
0.0
  9
$UCSORGRIGHT
 10
0.0
 20
0.0
 30
0.0
  9
$UCSORGFRONT
 10
0.0
 20
0.0
 30
0.0
  9
$UCSORGBACK
 10
0.0
 20
0.0
 30
0.0
  9
$PUCSBASE
  2

  9
$PUCSNAME
  2

  9
$PUCSORG
 10
0.0
 20
0.0
 30
0.0
  9
$PUCSXDIR
 10
1.0
 20
0.0
 30
0.0
  9
$PUCSYDIR
 10
0.0
 20
1.0
 30
0.0
  9
$PUCSORTHOREF
  2

  9
$PUCSORTHOVIEW
 70
     0
  9
$PUCSORGTOP
 10
0.0
 20
0.0
 30
0.0
  9
$PUCSORGBOTTOM
 10
0.0
 20
0.0
 30
0.0
  9
$PUCSORGLEFT
 10
0.0
 20
0.0
 30
0.0
  9
$PUCSORGRIGHT
 10
0.0
 20
0.0
 30
0.0
  9
$PUCSORGFRONT
 10
0.0
 20
0.0
 30
0.0
  9
$PUCSORGBACK
 10
0.0
 20
0.0
 30
0.0
  9
$USERI1
 70
     0
  9
$USERI2
 70
     0
  9
$USERI3
 70
     0
  9
$USERI4
 70
     0
  9
$USERI5
 70
     0
  9
$USERR1
 40
0.0
  9
$USERR2
 40
0.0
  9
$USERR3
 40
0.0
  9
$USERR4
 40
0.0
  9
$USERR5
 40
0.0
  9
$WORLDVIEW
 70
     1
  9
$SHADEDGE
 70
     3
  9
$SHADEDIF
 70
    70
  9
$TILEMODE
 70
     1
  9
$MAXACTVP
 70
    16
  9
$PINSBASE
 10
0.0
 20
0.0
 30
0.0
  9
$PLIMCHECK
 70
     0
  9
$PEXTMIN
 10
1.000000000000000E+20
 20
1.000000000000000E+20
 30
1.000000000000000E+20
  9
$PEXTMAX
 10
-1.000000000000000E+20
 20
-1.000000000000000E+20
 30
-1.000000000000000E+20
  9
$PLIMMIN
 10
0.0
 20
0.0
  9
$PLIMMAX
 10
420.0
 20
297.0
  9
$UNITMODE
 70
     0
  9
$VISRETAIN
 70
     0
  9
$PLINEGEN
 70
     0
  9
$PSLTSCALE
 70
     0
  9
$TREEDEPTH
 70
  3020
  9
$CMLSTYLE
  2
STANDARD
  9
$CMLJUST
 70
     0
  9
$CMLSCALE
 40
1.0
  9
$PROXYGRAPHICS
 70
     1
  9
$MEASUREMENT
 70
     0
  9
$CELWEIGHT
370
    -1
  9
$ENDCAPS
280
     0
  9
$JOINSTYLE
280
     0
  9
$LWDISPLAY
290
     0
  9
$INSUNITS
 70
     0
  9
$HYPERLINKBASE
  1

  9
$STYLESHEET
  1

  9
$XEDIT
290
     1
  9
$CEPSNTYPE
380
     0
  9
$PSTYLEMODE
290
     1
  9
$FINGERPRINTGUID
  2
{E455ADC8-3E3A-42DA-AAC3-095ED7B03259}
  9
$VERSIONGUID
  2
{2736C684-F166-40A1-B311-EEB704B65F6E}
  9
$EXTNAMES
290
     1
  9
$PSVPSCALE
 40
0.0
  9
$OLESTARTUP
290
     0
  0
ENDSEC
  0
SECTION
  2
CLASSES
  0
CLASS
  1
ACDBDICTIONARYWDFLT
  2
AcDbDictionaryWithDefault
  3
ObjectDBX Classes
 90
        0
280
     0
281
     0
  0
CLASS
  1
ACDBPLACEHOLDER
  2
AcDbPlaceHolder
  3
ObjectDBX Classes
 90
        0
280
     0
281
     0
  0
CLASS
  1
LAYOUT
  2
AcDbLayout
  3
ObjectDBX Classes
 90
        0
280
     0
281
     0
  0
CLASS
  1
DICTIONARYVAR
  2
AcDbDictionaryVar
  3
ObjectDBX Classes
 90
        0
280
     0
281
     0
  0
CLASS
  1
MATERIAL
  2
AcDbMaterial
  3
ObjectDBX Classes
 90
     1153
280
     0
281
     0
  0
CLASS
  1
VISUALSTYLE
  2
AcDbVisualStyle
  3
ObjectDBX Classes
 90
     4095
280
     0
281
     0
  0
CLASS
  1
TABLESTYLE
  2
AcDbTableStyle
  3
ObjectDBX Classes
 90
     4095
280
     0
281
     0
  0
CLASS
  1
SCALE
  2
AcDbScale
  3
ObjectDBX Classes
 90
     1153
280
     0
281
     0
  0
CLASS
  1
MLEADERSTYLE
  2
AcDbMLeaderStyle
  3
ACDB_MLEADERSTYLE_CLASS
 90
     4095
280
     0
281
     0
  0
CLASS
  1
ACDBSECTIONVIEWSTYLE
  2
AcDbSectionViewStyle
  3
ObjectDBX Classes
 90
     1025
280
     0
281
     0
  0
CLASS
  1
ACDBDETAILVIEWSTYLE
  2
AcDbDetailViewStyle
  3
ObjectDBX Classes
 90
     1025
280
     0
281
     0
  0
CLASS
  1
CELLSTYLEMAP
  2
AcDbCellStyleMap
  3
ObjectDBX Classes
 90
     1152
280
     0
281
     0
  0
ENDSEC
  0
SECTION
  2
TABLES
  0
TABLE
  2
VPORT
  5
9B55
330
0
100
AcDbSymbolTable
 70
     1
  0
VPORT
  5
A0D0
330
9B55
100
AcDbSymbolTableRecord
100
AcDbViewportTableRecord
  2
*ACTIVE
 70
     0
 10
0.0
 20
0.0
 11
1.0
 21
1.0
 12
493.6535685763642
 22
323.176081842622
 13
0.0
 23
0.0
 14
10.0
 24
10.0
 15
10.0
 25
10.0
 16
0.0
 26
0.0
 36
1.0
 17
0.0
 27
0.0
 37
0.0
 40
631.2688692960265
 41
1.899603698811096
 42
50.0
 43
0.0
 44
0.0
 50
0.0
 51
0.0
 71
     0
 72
   100
 73
     1
 74
     0
 75
     0
 76
     0
 77
     0
 78
     0
281
     0
 65
     1
110
0.0
120
0.0
130
0.0
111
1.0
121
0.0
131
0.0
112
0.0
122
1.0
132
0.0
 79
     0
146
0.0
1001
ACAD_NAV_VCDISPLAY
1070
     3
  0
ENDTAB
  0
TABLE
  2
LTYPE
  5
9B52
330
0
100
AcDbSymbolTable
 70
     4
  0
LTYPE
  5
9B60
330
9B52
100
AcDbSymbolTableRecord
100
AcDbLinetypeTableRecord
  2
BYBLOCK
 70
     0
  3

 72
    65
 73
     0
 40
0.0
  0
LTYPE
  5
9B61
330
9B52
100
AcDbSymbolTableRecord
100
AcDbLinetypeTableRecord
  2
BYLAYER
 70
     0
  3

 72
    65
 73
     0
 40
0.0
  0
LTYPE
  5
9B62
330
9B52
100
AcDbSymbolTableRecord
100
AcDbLinetypeTableRecord
  2
CONTINUOUS
 70
     0
  3
Solid line
 72
    65
 73
     0
 40
0.0
  0
LTYPE
  5
9B70
330
9B52
100
AcDbSymbolTableRecord
100
AcDbLinetypeTableRecord
  2
DASHED
 70
     0
  3
__ __ __ __ __ __ __ __ __ __ __ __ __ __ __ __
 72
    65
 73
     2
 40
0.75
 49
0.5
 74
     0
 49
-0.25
 74
     0
  0
LTYPE
  5
9B71
330
9B52
100
AcDbSymbolTableRecord
100
AcDbLinetypeTableRecord
  2
CENTER
 70
     0
  3
____ _ ____ _ ____ _ ____ _ ____ _ ____ _ ____ 
 72
    65
 73
     4
 40
2.0
 49
1.25
 74
     0
 49
-0.25
 74
     0
 49
0.25
 74
     0
 49
-0.25
 74
     0
  0
LTYPE
  5
9B72
330
9B52
100
AcDbSymbolTableRecord
100
AcDbLinetypeTableRecord
  2
PHANTOM
 70
     0
  3
______  __  __  ______  __  __  ______  __  __ 
 72
    65
 73
     6
 40
2.5
 49
1.25
 74
     0
 49
-0.25
 74
     0
 49
0.25
 74
     0
 49
-0.25
 74
     0
 49
0.25
 74
     0
 49
-0.25
 74
     0
  0
ENDTAB
  0
TABLE
  2
LAYER
  5
9B4F
330
0
100
AcDbSymbolTable
 70
     8
  0
LAYER
  5
9B5D
102
{ACAD_XDICTIONARY
360
A129
102
}
330
9B4F
100
AcDbSymbolTableRecord
100
AcDbLayerTableRecord
  2
0
 70
     0
 62
     7
  6
CONTINUOUS
370
    -3
390
A0D7
  0
LAYER
  5
9B73
102
{ACAD_XDICTIONARY
360
A12B
102
}
330
9B4F
100
AcDbSymbolTableRecord
100
AcDbLayerTableRecord
  2
4
 70
     0
 62
     1
  6
CENTER
370
    -3
390
A0D7
  0
LAYER
  5
9B74
102
{ACAD_XDICTIONARY
360
A12D
102
}
330
9B4F
100
AcDbSymbolTableRecord
100
AcDbLayerTableRecord
  2
5
 70
     0
 62
     6
  6
PHANTOM
370
    -3
390
A0D7
  0
LAYER
  5
9B75
102
{ACAD_XDICTIONARY
360
A12F
102
}
330
9B4F
100
AcDbSymbolTableRecord
100
AcDbLayerTableRecord
  2
1
 70
     0
 62
     7
  6
CONTINUOUS
370
    -3
390
A0D7
  0
LAYER
  5
9B76
102
{ACAD_XDICTIONARY
360
A131
102
}
330
9B4F
100
AcDbSymbolTableRecord
100
AcDbLayerTableRecord
  2
2
 70
     0
 62
     4
  6
CONTINUOUS
370
    -3
390
A0D7
  0
LAYER
  5
9B77
102
{ACAD_XDICTIONARY
360
A133
102
}
330
9B4F
100
AcDbSymbolTableRecord
100
AcDbLayerTableRecord
  2
3
 70
     0
 62
     2
  6
DASHED
370
    -3
390
A0D7
  0
LAYER
  5
9B78
102
{ACAD_XDICTIONARY
360
A135
102
}
330
9B4F
100
AcDbSymbolTableRecord
100
AcDbLayerTableRecord
  2
6
 70
     0
 62
     5
  6
CONTINUOUS
370
    -3
390
A0D7
  0
LAYER
  5
9B79
102
{ACAD_XDICTIONARY
360
A137
102
}
330
9B4F
100
AcDbSymbolTableRecord
100
AcDbLayerTableRecord
  2
7
 70
     0
 62
     3
  6
CONTINUOUS
370
    -3
390
A0D7
  0
ENDTAB
  0
TABLE
  2
STYLE
  5
9B50
330
0
100
AcDbSymbolTable
 70
     1
  0
STYLE
  5
9B5E
330
9B50
100
AcDbSymbolTableRecord
100
AcDbTextStyleTableRecord
  2
STANDARD
 70
     0
 40
0.0
 41
1.0
 50
0.0
 71
     0
 42
5.0
  3
txt
  4

  0
ENDTAB
  0
TABLE
  2
VIEW
  5
9B53
330
0
100
AcDbSymbolTable
 70
     0
  0
ENDTAB
  0
TABLE
  2
UCS
  5
9B54
330
0
100
AcDbSymbolTable
 70
     0
  0
ENDTAB
  0
TABLE
  2
APPID
  5
9B56
330
0
100
AcDbSymbolTable
 70
     3
  0
APPID
  5
9B5F
330
9B56
100
AcDbSymbolTableRecord
100
AcDbRegAppTableRecord
  2
ACAD
 70
     0
  0
APPID
  5
A143
330
9B56
100
AcDbSymbolTableRecord
100
AcDbRegAppTableRecord
  2
ACAD_NAV_VCDISPLAY
 70
     0
  0
APPID
  5
A17C
330
9B56
100
AcDbSymbolTableRecord
100
AcDbRegAppTableRecord
  2
ACAD_MLEADERVER
 70
     0
  0
ENDTAB
  0
TABLE
  2
DIMSTYLE
  5
9B57
330
0
100
AcDbSymbolTable
 70
     1
100
AcDbDimStyleTable
 71
     0
  0
DIMSTYLE
105
9B7B
330
9B57
100
AcDbSymbolTableRecord
100
AcDbDimStyleTableRecord
  2
STANDARD
 70
     0
 41
3.0
 42
1.0
 43
10.0
 44
1.0
 73
     0
 74
     0
 77
     3
 78
     8
140
3.2
141
0.0
147
1.0
172
     1
173
     1
284
     8
285
     8
286
     8
340
9B5E
  0
ENDTAB
  0
TABLE
  2
BLOCK_RECORD
  5
9B4E
330
0
100
AcDbSymbolTable
 70
     0
  0
BLOCK_RECORD
  5
9B6B
102
{ACAD_XDICTIONARY
360
9E15
102
}
330
9B4E
100
AcDbSymbolTableRecord
100
AcDbBlockTableRecord
  2
*MODEL_SPACE
340
A125
  0
BLOCK_RECORD
  5
9B67
102
{ACAD_XDICTIONARY
360
9E13
102
}
330
9B4E
100
AcDbSymbolTableRecord
100
AcDbBlockTableRecord
  2
*PAPER_SPACE
340
A126
  0
ENDTAB
  0
ENDSEC
  0
SECTION
  2
BLOCKS
  0
BLOCK
  5
9B6C
330
9B6B
100
AcDbEntity
  8
0
100
AcDbBlockBegin
  2
*MODEL_SPACE
 70
     0
 10
0.0
 20
0.0
 30
0.0
  3
*MODEL_SPACE
  1

  0
ENDBLK
  5
9B6D
330
9B6B
100
AcDbEntity
  8
0
100
AcDbBlockEnd
  0
BLOCK
  5
9B68
330
9B67
100
AcDbEntity
 67
     1
  8
0
100
AcDbBlockBegin
  2
*PAPER_SPACE
 70
     0
 10
0.0
 20
0.0
 30
0.0
  3
*PAPER_SPACE
  1

  0
ENDBLK
  5
9B69
330
9B67
100
AcDbEntity
 67
     1
  8
0
100
AcDbBlockEnd
  0
ENDSEC
  0
SECTION
  2
ENTITIES
  0
LINE
  5
9B83
330
9B6B
100
AcDbEntity
  8
1
  6
Continuous
100
AcDbLine
 10
189.0
 20
174.5
 30
0.0
 11
189.0
 21
374.5
 31
0.0
  0
LINE
  5
9B84
330
9B6B
100
AcDbEntity
  8
1
  6
Continuous
100
AcDbLine
 10
177.0
 20
174.5
 30
0.0
 11
177.0
 21
374.5
 31
0.0
  0
LINE
  5
9B85
330
9B6B
100
AcDbEntity
  8
1
  6
Continuous
100
AcDbLine
 10
189.0
 20
174.5
 30
0.0
 11
177.0
 21
174.5
 31
0.0
  0
LINE
  5
9B86
330
9B6B
100
AcDbEntity
  8
1
  6
Continuous
100
AcDbLine
 10
189.0
 20
374.5
 30
0.0
 11
177.0
 21
374.5
 31
0.0
  0
LINE
  5
9B87
330
9B6B
100
AcDbEntity
  8
1
  6
Continuous
100
AcDbLine
 10
184.4999999999997
 20
356.0
 30
0.0
 11
181.0
 21
356.0
 31
0.0
  0
LINE
  5
9B88
330
9B6B
100
AcDbEntity
  8
1
  6
Continuous
100
AcDbLine
 10
184.4999999999997
 20
328.0
 30
0.0
 11
181.0
 21
328.0
 31
0.0
  0
LINE
  5
9B89
330
9B6B
100
AcDbEntity
  8
1
  6
Continuous
100
AcDbLine
 10
180.0
 20
329.0
 30
0.0
 11
180.0
 21
355.0
 31
0.0
  0
LINE
  5
9B8A
330
9B6B
100
AcDbEntity
  8
1
  6
Continuous
100
AcDbLine
 10
185.5
 20
329.0
 30
0.0
 11
185.5
 21
355.0
 31
0.0
  0
LINE
  5
9B8B
330
9B6B
100
AcDbEntity
  8
4
  6
CENTER
 48
0.2
100
AcDbLine
 10
204.3000029999999
 20
184.0
 30
0.0
 11
164.300003
 21
184.0
 31
0.0
  0
LINE
  5
9B8C
330
9B6B
100
AcDbEntity
  8
4
  6
CENTER
 48
0.2
100
AcDbLine
 10
197.5038909999999
 20
494.0
 30
0.0
 11
164.371384
 21
494.0
 31
0.0
  0
LINE
  5
9B8D
330
9B6B
100
AcDbEntity
  8
1
  6
Continuous
100
AcDbLine
 10
186.8999939999999
 20
504.0
 30
0.0
 11
178.600006
 21
504.0
 31
0.0
  0
LINE
  5
9B8E
330
9B6B
100
AcDbEntity
  8
1
  6
Continuous
100
AcDbLine
 10
178.600006
 20
374.5
 30
0.0
 11
178.600006
 21
504.0
 31
0.0
  0
LINE
  5
9B8F
330
9B6B
100
AcDbEntity
  8
1
  6
Continuous
100
AcDbLine
 10
186.8999939999999
 20
374.5
 30
0.0
 11
186.8999939999999
 21
504.0
 31
0.0
  0
LINE
  5
9B90
330
9B6B
100
AcDbEntity
  8
1
  6
Continuous
100
AcDbLine
 10
169.300003
 20
169.0
 30
0.0
 11
169.300003
 21
199.0
 31
0.0
  0
LINE
  5
9B91
330
9B6B
100
AcDbEntity
  8
1
  6
Continuous
100
AcDbLine
 10
199.300003
 20
171.0
 30
0.0
 11
199.300003
 21
197.0
 31
0.0
  0
LINE
  5
9B92
330
9B6B
100
AcDbEntity
  8
1
  6
Continuous
100
AcDbLine
 10
197.300003
 20
169.0
 30
0.0
 11
169.300003
 21
169.0
 31
0.0
  0
LINE
  5
9B93
330
9B6B
100
AcDbEntity
  8
1
  6
Continuous
100
AcDbLine
 10
197.300003
 20
199.0
 30
0.0
 11
189.0
 21
199.0
 31
0.0
  0
LINE
  5
9B94
330
9B6B
100
AcDbEntity
  8
4
  6
CENTER
 48
0.2
100
AcDbLine
 10
191.300003
 20
169.699997
 30
0.0
 11
191.300003
 21
180.3000029999997
 31
0.0
  0
LINE
  5
9B95
330
9B6B
100
AcDbEntity
  8
4
  6
CENTER
 48
0.2
100
AcDbLine
 10
196.600006
 20
175.0
 30
0.0
 11
186.0
 21
175.0
 31
0.0
  0
LINE
  5
9B96
330
9B6B
100
AcDbEntity
  8
4
  6
CENTER
 48
0.2
100
AcDbLine
 10
191.300003
 20
187.6999969999999
 30
0.0
 11
191.300003
 21
198.300003
 31
0.0
  0
LINE
  5
9B97
330
9B6B
100
AcDbEntity
  8
4
  6
CENTER
 48
0.2
100
AcDbLine
 10
196.600006
 20
193.0
 30
0.0
 11
186.0
 21
193.0
 31
0.0
  0
LINE
  5
9B98
330
9B6B
100
AcDbEntity
  8
1
  6
Continuous
100
AcDbLine
 10
177.0
 20
199.0
 30
0.0
 11
169.300003
 21
199.0
 31
0.0
  0
LINE
  5
9B99
330
9B6B
100
AcDbEntity
  8
1
  6
Continuous
100
AcDbLine
 10
192.0
 20
177.5
 30
0.0
 11
192.0
 21
190.5
 31
0.0
  0
LINE
  5
9B9A
330
9B6B
100
AcDbEntity
  8
1
  6
Continuous
100
AcDbLine
 10
191.0
 20
191.5
 30
0.0
 11
189.0
 21
191.5
 31
0.0
  0
LINE
  5
9B9B
330
9B6B
100
AcDbEntity
  8
1
  6
Continuous
100
AcDbLine
 10
191.0
 20
176.5
 30
0.0
 11
189.0
 21
176.5
 31
0.0
  0
LINE
  5
9B9C
330
9B6B
100
AcDbEntity
  8
1
  6
Continuous
100
AcDbLine
 10
192.0000149999999
 20
177.5000149999999
 30
0.0
 11
191.0000149999999
 21
176.5000149999999
 31
0.0
  0
LINE
  5
9B9D
330
9B6B
100
AcDbEntity
  8
1
  6
Continuous
100
AcDbLine
 10
192.0
 20
190.500015
 30
0.0
 11
191.0
 21
191.500015
 31
0.0
  0
LINE
  5
9B9E
330
9B6B
100
AcDbEntity
  8
1
  6
Continuous
100
AcDbLine
 10
191.0
 20
176.5
 30
0.0
 11
191.0
 21
191.5
 31
0.0
  0
LINE
  5
9B9F
330
9B6B
100
AcDbEntity
  8
1
  6
Continuous
100
AcDbLine
 10
170.9
 20
181.0
 30
0.0
 11
170.9
 21
183.4999999999998
 31
0.0
  0
LINE
  5
9BA0
330
9B6B
100
AcDbEntity
  8
1
  6
Continuous
100
AcDbLine
 10
177.0
 20
192.850006
 30
0.0
 11
175.3999939999999
 21
192.850006
 31
0.0
  0
LINE
  5
9BA1
330
9B6B
100
AcDbEntity
  8
1
  6
Continuous
100
AcDbLine
 10
177.0
 20
175.1499939999999
 30
0.0
 11
175.3999939999999
 21
175.1499939999999
 31
0.0
  0
LINE
  5
9BA2
330
9B6B
100
AcDbEntity
  8
1
  6
Continuous
100
AcDbLine
 10
172.4
 20
169.0
 30
0.0
 11
172.4
 21
199.0
 31
0.0
  0
LINE
  5
9BA3
330
9B6B
100
AcDbEntity
  8
1
  6
Continuous
100
AcDbLine
 10
188.8999939999999
 20
501.4999999999998
 30
0.0
 11
186.8999939999999
 21
501.4999999999998
 31
0.0
  0
LINE
  5
9BA4
330
9B6B
100
AcDbEntity
  8
1
  6
Continuous
100
AcDbLine
 10
188.8999939999999
 20
486.5
 30
0.0
 11
186.8999939999999
 21
486.5
 31
0.0
  0
LINE
  5
9BA5
330
9B6B
100
AcDbEntity
  8
1
  6
Continuous
100
AcDbLine
 10
189.8999939999999
 20
487.5
 30
0.0
 11
189.8999939999999
 21
500.4999999999998
 31
0.0
  0
LINE
  5
9BA6
330
9B6B
100
AcDbEntity
  8
1
  6
Continuous
100
AcDbLine
 10
189.900009
 20
487.5
 30
0.0
 11
188.900009
 21
486.5
 31
0.0
  0
LINE
  5
9BA7
330
9B6B
100
AcDbEntity
  8
1
  6
Continuous
100
AcDbLine
 10
189.8999939999999
 20
500.4999999999998
 30
0.0
 11
188.8999939999999
 21
501.4999999999998
 31
0.0
  0
LINE
  5
9BA8
330
9B6B
100
AcDbEntity
  8
1
  6
Continuous
100
AcDbLine
 10
188.8999939999999
 20
486.5
 30
0.0
 11
188.8999939999999
 21
501.4999999999998
 31
0.0
  0
LINE
  5
9BA9
330
9B6B
100
AcDbEntity
  8
1
  6
Continuous
100
AcDbLine
 10
177.0
 20
485.149994
 30
0.0
 11
177.0
 21
504.100006
 31
0.0
  0
LINE
  5
9BAA
330
9B6B
100
AcDbEntity
  8
1
  6
Continuous
100
AcDbLine
 10
178.600006
 20
502.8500059999998
 30
0.0
 11
177.0
 21
502.8500059999998
 31
0.0
  0
LINE
  5
9BAB
330
9B6B
100
AcDbEntity
  8
1
  6
Continuous
100
AcDbLine
 10
178.600006
 20
485.149994
 30
0.0
 11
177.0
 21
485.149994
 31
0.0
  0
LINE
  5
9BAC
330
9B6B
100
AcDbEntity
  8
1
  6
Continuous
100
AcDbLine
 10
174.100006
 20
486.0
 30
0.0
 11
174.100006
 21
504.100006
 31
0.0
  0
LINE
  5
9BAD
330
9B6B
100
AcDbEntity
  8
1
  6
Continuous
100
AcDbLine
 10
201.0
 20
522.0
 30
0.0
 11
173.899994
 21
522.0
 31
0.0
  0
LINE
  5
9BAE
330
9B6B
100
AcDbEntity
  8
1
  6
Continuous
100
AcDbLine
 10
174.100006
 20
507.0
 30
0.0
 11
173.899994
 21
507.0
 31
0.0
  0
LINE
  5
9BAF
330
9B6B
100
AcDbEntity
  8
1
  6
Continuous
100
AcDbLine
 10
171.0
 20
507.0
 30
0.0
 11
171.0
 21
519.0999759999998
 31
0.0
  0
LINE
  5
9BB0
330
9B6B
100
AcDbEntity
  8
1
  6
Continuous
100
AcDbLine
 10
174.100006
 20
504.100006
 30
0.0
 11
173.899994
 21
504.100006
 31
0.0
  0
LINE
  5
9BB1
330
9B6B
100
AcDbEntity
  8
1
  6
Continuous
100
AcDbLine
 10
201.0
 20
519.0999759999998
 30
0.0
 11
173.899994
 21
519.0999759999998
 31
0.0
  0
LINE
  5
9BB2
330
9B6B
100
AcDbEntity
  8
4
  6
CENTER
 48
0.2
100
AcDbLine
 10
178.2499999999997
 20
513.0
 30
0.0
 11
166.649994
 21
513.0
 31
0.0
  0
LINE
  5
9BB3
330
9B6B
100
AcDbEntity
  8
4
  6
CENTER
 48
0.2
100
AcDbLine
 10
193.0
 20
514.7499999999999
 30
0.0
 11
193.0
 21
526.349976
 31
0.0
  0
LINE
  5
9BB4
330
9B6B
100
AcDbEntity
  8
1
  6
Continuous
100
AcDbLine
 10
341.0
 20
169.0
 30
0.0
 11
320.0
 21
169.0
 31
0.0
  0
LINE
  5
9BB5
330
9B6B
100
AcDbEntity
  8
1
  6
Continuous
100
AcDbLine
 10
341.0
 20
199.0
 30
0.0
 11
325.4999999999999
 21
199.0
 31
0.0
  0
LINE
  5
9BB6
330
9B6B
100
AcDbEntity
  8
4
  6
CENTER
100
AcDbLine
 10
53.0
 20
164.0
 30
0.0
 11
53.0
 21
527.0
 31
0.0
  0
LINE
  5
9BB7
330
9B6B
100
AcDbEntity
  8
1
  6
Continuous
100
AcDbLine
 10
300.4999999999999
 20
174.5
 30
0.0
 11
300.4999999999999
 21
374.5
 31
0.0
  0
LINE
  5
9BB8
330
9B6B
100
AcDbEntity
  8
1
  6
Continuous
100
AcDbLine
 10
325.4999999999999
 20
174.5
 30
0.0
 11
325.4999999999999
 21
374.5
 31
0.0
  0
LINE
  5
9BB9
330
9B6B
100
AcDbEntity
  8
1
  6
Continuous
100
AcDbLine
 10
57.608189
 20
174.5
 30
0.0
 11
65.5
 21
174.5
 31
0.0
  0
LINE
  5
9BBA
330
9B6B
100
AcDbEntity
  8
1
  6
Continuous
100
AcDbLine
 10
341.0
 20
169.0
 30
0.0
 11
341.0
 21
199.0
 31
0.0
  0
LINE
  5
9BBB
330
9B6B
100
AcDbEntity
  8
4
  6
CENTER
 48
0.2
100
AcDbLine
 10
346.0
 20
184.0
 30
0.0
 11
300.4999999999999
 21
184.0
 31
0.0
  0
LINE
  5
9BBC
330
9B6B
100
AcDbEntity
  8
1
  6
Continuous
100
AcDbLine
 10
177.0
 20
486.0
 30
0.0
 11
174.100006
 21
486.0
 31
0.0
  0
LINE
  5
9BBD
330
9B6B
100
AcDbEntity
  8
1
  6
Continuous
100
AcDbLine
 10
338.100006
 20
169.0
 30
0.0
 11
338.100006
 21
199.0
 31
0.0
  0
LINE
  5
9BBE
330
9B6B
100
AcDbEntity
  8
4
  6
CENTER
 48
0.2
100
AcDbLine
 10
332.0
 20
169.699997
 30
0.0
 11
332.0
 21
180.3000029999997
 31
0.0
  0
LINE
  5
9BBF
330
9B6B
100
AcDbEntity
  8
4
  6
CENTER
 48
0.2
100
AcDbLine
 10
346.0
 20
175.0
 30
0.0
 11
326.700012
 21
175.0
 31
0.0
  0
LINE
  5
9BC0
330
9B6B
100
AcDbEntity
  8
4
  6
CENTER
 48
0.2
100
AcDbLine
 10
332.0
 20
187.6999969999999
 30
0.0
 11
332.0
 21
198.300003
 31
0.0
  0
LINE
  5
9BC1
330
9B6B
100
AcDbEntity
  8
4
  6
CENTER
 48
0.2
100
AcDbLine
 10
346.0
 20
193.0
 30
0.0
 11
326.700012
 21
193.0
 31
0.0
  0
LINE
  5
9BC2
330
9B6B
100
AcDbEntity
  8
1
  6
Continuous
100
AcDbLine
 10
338.100006
 20
187.0
 30
0.0
 11
332.999994
 21
187.0
 31
0.0
  0
LINE
  5
9BC3
330
9B6B
100
AcDbEntity
  8
1
  6
Continuous
100
AcDbLine
 10
338.100006
 20
181.0
 30
0.0
 11
332.999994
 21
181.0
 31
0.0
  0
LINE
  5
9BC4
330
9B6B
100
AcDbEntity
  8
1
  6
Continuous
100
AcDbLine
 10
337.0000059999998
 20
182.0
 30
0.0
 11
337.0000059999998
 21
186.0
 31
0.0
  0
LINE
  5
9BC5
330
9B6B
100
AcDbEntity
  8
1
  6
Continuous
100
AcDbLine
 10
328.0
 20
522.0
 30
0.0
 11
298.0
 21
522.0
 31
0.0
  0
LINE
  5
9BC6
330
9B6B
100
AcDbEntity
  8
1
  6
Continuous
100
AcDbLine
 10
328.0
 20
519.0999759999998
 30
0.0
 11
298.0
 21
519.0999759999998
 31
0.0
  0
LINE
  5
9BC7
330
9B6B
100
AcDbEntity
  8
1
  6
Continuous
100
AcDbLine
 10
328.0
 20
507.0
 30
0.0
 11
298.0
 21
507.0
 31
0.0
  0
LINE
  5
9BC8
330
9B6B
100
AcDbEntity
  8
1
  6
Continuous
100
AcDbLine
 10
328.0
 20
501.0
 30
0.0
 11
328.0
 21
522.0
 31
0.0
  0
LINE
  5
9BC9
330
9B6B
100
AcDbEntity
  8
1
  6
Continuous
100
AcDbLine
 10
298.0
 20
501.0
 30
0.0
 11
298.0
 21
522.0
 31
0.0
  0
LINE
  5
9BCA
330
9B6B
100
AcDbEntity
  8
1
  6
Continuous
100
AcDbLine
 10
323.4999999999998
 20
504.0
 30
0.0
 11
302.4999999999999
 21
504.0
 31
0.0
  0
LINE
  5
9BCB
330
9B6B
100
AcDbEntity
  8
4
  6
CENTER
 48
0.2
100
AcDbLine
 10
304.0
 20
508.3500059999998
 30
0.0
 11
304.0
 21
527.0
 31
0.0
  0
LINE
  5
9BCC
330
9B6B
100
AcDbEntity
  8
4
  6
CENTER
 48
0.2
100
AcDbLine
 10
308.6499939999999
 20
513.0
 30
0.0
 11
299.350006
 21
513.0
 31
0.0
  0
LINE
  5
9BCD
330
9B6B
100
AcDbEntity
  8
4
  6
CENTER
 48
0.2
100
AcDbLine
 10
322.0
 20
508.3500059999998
 30
0.0
 11
322.0
 21
527.0
 31
0.0
  0
LINE
  5
9BCE
330
9B6B
100
AcDbEntity
  8
4
  6
CENTER
 48
0.2
100
AcDbLine
 10
326.649994
 20
513.0
 30
0.0
 11
317.350006
 21
513.0
 31
0.0
  0
LINE
  5
9BCF
330
9B6B
100
AcDbEntity
  8
4
  6
CENTER
 48
0.2
100
AcDbLine
 10
325.4999999999999
 20
494.0
 30
0.0
 11
300.4999999999999
 21
494.0
 31
0.0
  0
LINE
  5
9BD0
330
9B6B
100
AcDbEntity
  8
1
  6
Continuous
100
AcDbLine
 10
316.0
 20
514.000024
 30
0.0
 11
316.0
 21
519.0999759999998
 31
0.0
  0
LINE
  5
9BD1
330
9B6B
100
AcDbEntity
  8
1
  6
Continuous
100
AcDbLine
 10
310.0
 20
514.000024
 30
0.0
 11
310.0
 21
519.0999759999998
 31
0.0
  0
LINE
  5
9BD2
330
9B6B
100
AcDbEntity
  8
1
  6
Continuous
100
AcDbLine
 10
315.0
 20
517.9999759999998
 30
0.0
 11
311.0
 21
517.9999759999998
 31
0.0
  0
LINE
  5
9BD3
330
9B6B
100
AcDbEntity
  8
1
  6
Continuous
100
AcDbLine
 10
326.0
 20
169.0
 30
0.0
 11
326.0
 21
199.0
 31
0.0
  0
LINE
  5
9BD4
330
9B6B
100
AcDbEntity
  8
1
  6
Continuous
100
AcDbLine
 10
25.0
 20
199.0
 30
0.0
 11
46.0
 21
199.0
 31
0.0
  0
LINE
  5
9BD5
330
9B6B
100
AcDbEntity
  8
1
  6
Continuous
100
AcDbLine
 10
25.0
 20
169.0
 30
0.0
 11
46.0
 21
169.0
 31
0.0
  0
LINE
  5
9BD6
330
9B6B
100
AcDbEntity
  8
4
  6
CENTER
100
AcDbLine
 10
313.0
 20
164.0
 30
0.0
 11
313.0
 21
527.0
 31
0.0
  0
LINE
  5
9BD7
330
9B6B
100
AcDbEntity
  8
1
  6
Continuous
100
AcDbLine
 10
325.4999999999999
 20
174.5
 30
0.0
 11
300.4999999999999
 21
174.5
 31
0.0
  0
LINE
  5
9BD8
330
9B6B
100
AcDbEntity
  8
4
  6
CENTER
 48
0.2
100
AcDbLine
 10
34.0
 20
169.699997
 30
0.0
 11
34.0
 21
180.3000029999997
 31
0.0
  0
LINE
  5
9BD9
330
9B6B
100
AcDbEntity
  8
1
  6
Continuous
100
AcDbLine
 10
25.0
 20
169.0
 30
0.0
 11
25.0
 21
199.0
 31
0.0
  0
LINE
  5
9BDA
330
9B6B
100
AcDbEntity
  8
4
  6
CENTER
 48
0.2
100
AcDbLine
 10
20.0
 20
184.0
 30
0.0
 11
66.0
 21
184.0
 31
0.0
  0
LINE
  5
9BDB
330
9B6B
100
AcDbEntity
  8
4
  6
CENTER
 48
0.2
100
AcDbLine
 10
20.0
 20
175.0
 30
0.0
 11
39.299999
 21
175.0
 31
0.0
  0
LINE
  5
9BDC
330
9B6B
100
AcDbEntity
  8
4
  6
CENTER
 48
0.2
100
AcDbLine
 10
34.0
 20
187.6999969999999
 30
0.0
 11
34.0
 21
198.300003
 31
0.0
  0
LINE
  5
9BDD
330
9B6B
100
AcDbEntity
  8
4
  6
CENTER
 48
0.2
100
AcDbLine
 10
20.0
 20
193.0
 30
0.0
 11
39.299999
 21
193.0
 31
0.0
  0
LINE
  5
9BDE
330
9B6B
100
AcDbEntity
  8
1
  6
Continuous
100
AcDbLine
 10
199.0
 20
589.0
 30
0.0
 11
171.0
 21
589.0
 31
0.0
  0
LINE
  5
9BDF
330
9B6B
100
AcDbEntity
  8
1
  6
Continuous
100
AcDbLine
 10
199.0
 20
619.0
 30
0.0
 11
171.0
 21
619.0
 31
0.0
  0
LINE
  5
9BE0
330
9B6B
100
AcDbEntity
  8
1
  6
Continuous
100
AcDbLine
 10
184.3000029999998
 20
337.0
 30
0.0
 11
180.3000029999997
 21
337.0
 31
0.0
  0
LINE
  5
9BE1
330
9B6B
100
AcDbEntity
  8
1
  6
Continuous
100
AcDbLine
 10
184.3000029999998
 20
336.0
 30
0.0
 11
180.3000029999997
 21
336.0
 31
0.0
  0
LINE
  5
9BE2
330
9B6B
100
AcDbEntity
  8
1
  6
Continuous
100
AcDbLine
 10
184.074997
 20
338.0
 30
0.0
 11
181.0749969999999
 21
338.0
 31
0.0
  0
LINE
  5
9BE3
330
9B6B
100
AcDbEntity
  8
1
  6
Continuous
100
AcDbLine
 10
300.4999999999999
 20
344.0
 30
0.0
 11
299.0568539999998
 21
338.9090879999999
 31
0.0
  0
LINE
  5
9BE4
330
9B6B
100
AcDbEntity
  8
1
  6
Continuous
100
AcDbLine
 10
325.4999999999999
 20
374.5
 30
0.0
 11
300.4999999999999
 21
374.5
 31
0.0
  0
LINE
  5
9BE5
330
9B6B
100
AcDbEntity
  8
1
  6
Continuous
100
AcDbLine
 10
63.5
 20
374.5
 30
0.0
 11
63.5
 21
490.287872
 31
0.0
  0
LINE
  5
9BE6
330
9B6B
100
AcDbEntity
  8
1
  6
Continuous
100
AcDbLine
 10
42.5
 20
374.5
 30
0.0
 11
42.5
 21
490.287872
 31
0.0
  0
LINE
  5
9BE7
330
9B6B
100
AcDbEntity
  8
1
  6
Continuous
100
AcDbLine
 10
323.4999999999998
 20
374.5
 30
0.0
 11
323.4999999999998
 21
504.0
 31
0.0
  0
LINE
  5
9BE8
330
9B6B
100
AcDbEntity
  8
1
  6
Continuous
100
AcDbLine
 10
302.4999999999999
 20
374.5
 30
0.0
 11
302.4999999999999
 21
504.0
 31
0.0
  0
LINE
  5
9BE9
330
9B6B
100
AcDbEntity
  8
1
  6
Continuous
100
AcDbLine
 10
325.4999999999999
 20
360.4999999999998
 30
0.0
 11
325.4999999999999
 21
360.4999999999998
 31
0.0
  0
LINE
  5
9BEA
330
9B6B
100
AcDbEntity
  8
1
  6
Continuous
100
AcDbLine
 10
325.4999999999999
 20
356.4999999999998
 30
0.0
 11
325.4999999999999
 21
356.4999999999998
 31
0.0
  0
LINE
  5
9BEB
330
9B6B
100
AcDbEntity
  8
1
  6
Continuous
100
AcDbLine
 10
325.4999999999999
 20
370.5
 30
0.0
 11
325.4999999999999
 21
370.5
 31
0.0
  0
LINE
  5
9BEC
330
9B6B
100
AcDbEntity
  8
1
  6
Continuous
100
AcDbLine
 10
325.4999999999999
 20
366.5
 30
0.0
 11
325.4999999999999
 21
366.5
 31
0.0
  0
LINE
  5
9BED
330
9B6B
100
AcDbEntity
  8
1
  6
Continuous
100
AcDbLine
 10
170.9
 20
184.5000149999999
 30
0.0
 11
171.65
 21
184.0000149999999
 31
0.0
  0
LINE
  5
9BEE
330
9B6B
100
AcDbEntity
  8
1
  6
Continuous
100
AcDbLine
 10
171.65
 20
184.0
 30
0.0
 11
170.9
 21
183.4999999999998
 31
0.0
  0
LINE
  5
9BEF
330
9B6B
100
AcDbEntity
  8
1
  6
Continuous
100
AcDbLine
 10
170.9
 20
184.4999999999997
 30
0.0
 11
170.9
 21
187.0
 31
0.0
  0
LINE
  5
9BF0
330
9B6B
100
AcDbEntity
  8
1
  6
Continuous
100
AcDbLine
 10
201.0
 20
519.0999759999998
 30
0.0
 11
201.0
 21
522.0
 31
0.0
  0
LINE
  5
9BF1
330
9B6B
100
AcDbEntity
  8
1
  6
Continuous
100
AcDbLine
 10
172.600006
 20
494.5
 30
0.0
 11
172.600006
 21
497.0
 31
0.0
  0
LINE
  5
9BF2
330
9B6B
100
AcDbEntity
  8
1
  6
Continuous
100
AcDbLine
 10
172.600006
 20
491.0
 30
0.0
 11
172.600006
 21
493.5
 31
0.0
  0
LINE
  5
9BF3
330
9B6B
100
AcDbEntity
  8
1
  6
Continuous
100
AcDbLine
 10
172.5999909999999
 20
494.5
 30
0.0
 11
173.3499909999999
 21
494.0
 31
0.0
  0
LINE
  5
9BF4
330
9B6B
100
AcDbEntity
  8
1
  6
Continuous
100
AcDbLine
 10
173.3499909999999
 20
494.0
 30
0.0
 11
172.5999909999999
 21
493.5
 31
0.0
  0
LINE
  5
9BF5
330
9B6B
100
AcDbEntity
  8
1
  6
Continuous
100
AcDbLine
 10
55.958038
 20
183.4999999999998
 30
0.0
 11
53.5
 21
183.4999999999998
 31
0.0
  0
LINE
  5
9BF6
330
9B6B
100
AcDbEntity
  8
1
  6
Continuous
100
AcDbLine
 10
55.958038
 20
184.4999999999997
 30
0.0
 11
53.5
 21
184.4999999999997
 31
0.0
  0
LINE
  5
9BF7
330
9B6B
100
AcDbEntity
  8
1
  6
Continuous
100
AcDbLine
 10
53.5
 20
181.041962
 30
0.0
 11
53.5
 21
183.4999999999998
 31
0.0
  0
LINE
  5
9BF8
330
9B6B
100
AcDbEntity
  8
1
  6
Continuous
100
AcDbLine
 10
52.5
 20
181.041962
 30
0.0
 11
52.5
 21
183.4999999999998
 31
0.0
  0
LINE
  5
9BF9
330
9B6B
100
AcDbEntity
  8
1
  6
Continuous
100
AcDbLine
 10
53.5
 20
184.4999999999997
 30
0.0
 11
53.5
 21
186.958038
 31
0.0
  0
LINE
  5
9BFA
330
9B6B
100
AcDbEntity
  8
1
  6
Continuous
100
AcDbLine
 10
52.5
 20
184.4999999999997
 30
0.0
 11
52.5
 21
186.958038
 31
0.0
  0
LINE
  5
9BFB
330
9B6B
100
AcDbEntity
  8
1
  6
Continuous
100
AcDbLine
 10
52.5
 20
183.4999999999998
 30
0.0
 11
50.04196199999999
 21
183.4999999999998
 31
0.0
  0
LINE
  5
9BFC
330
9B6B
100
AcDbEntity
  8
1
  6
Continuous
100
AcDbLine
 10
52.5
 20
184.4999999999997
 30
0.0
 11
50.04196199999999
 21
184.4999999999997
 31
0.0
  0
LINE
  5
9BFD
330
9B6B
100
AcDbEntity
  8
1
  6
Continuous
100
AcDbLine
 10
42.900002
 20
169.0
 30
0.0
 11
42.900002
 21
199.0
 31
0.0
  0
LINE
  5
9BFE
330
9B6B
100
AcDbEntity
  8
1
  6
Continuous
100
AcDbLine
 10
26.1
 20
182.0
 30
0.0
 11
26.1
 21
186.0
 31
0.0
  0
LINE
  5
9BFF
330
9B6B
100
AcDbEntity
  8
1
  6
Continuous
100
AcDbLine
 10
174.100006
 20
491.0
 30
0.0
 11
172.600006
 21
491.0
 31
0.0
  0
LINE
  5
9C00
330
9B6B
100
AcDbEntity
  8
1
  6
Continuous
100
AcDbLine
 10
174.100006
 20
497.0
 30
0.0
 11
172.600006
 21
497.0
 31
0.0
  0
LINE
  5
9C01
330
9B6B
100
AcDbEntity
  8
1
  6
Continuous
100
AcDbLine
 10
172.4
 20
181.0
 30
0.0
 11
170.9
 21
181.0
 31
0.0
  0
LINE
  5
9C02
330
9B6B
100
AcDbEntity
  8
1
  6
Continuous
100
AcDbLine
 10
172.4
 20
187.0
 30
0.0
 11
170.9
 21
187.0
 31
0.0
  0
LINE
  5
9C03
330
9B6B
100
AcDbEntity
  8
1
  6
Continuous
100
AcDbLine
 10
68.0
 20
522.0
 30
0.0
 11
68.0
 21
501.0
 31
0.0
  0
LINE
  5
9C04
330
9B6B
100
AcDbEntity
  8
1
  6
Continuous
100
AcDbLine
 10
38.0
 20
522.0
 30
0.0
 11
38.0
 21
501.0
 31
0.0
  0
LINE
  5
9C05
330
9B6B
100
AcDbEntity
  8
1
  6
Continuous
100
AcDbLine
 10
51.0
 20
520.8999999999998
 30
0.0
 11
55.0
 21
520.8999999999998
 31
0.0
  0
LINE
  5
9C06
330
9B6B
100
AcDbEntity
  8
4
  6
CENTER
 48
0.2
100
AcDbLine
 10
39.34999799999999
 20
513.0
 30
0.0
 11
48.650002
 21
513.0
 31
0.0
  0
LINE
  5
9C07
330
9B6B
100
AcDbEntity
  8
1
  6
Continuous
100
AcDbLine
 10
38.0
 20
522.0
 30
0.0
 11
68.0
 21
522.0
 31
0.0
  0
LINE
  5
9C08
330
9B6B
100
AcDbEntity
  8
4
  6
CENTER
 48
0.2
100
AcDbLine
 10
44.0
 20
527.0
 30
0.0
 11
44.0
 21
508.3500059999998
 31
0.0
  0
LINE
  5
9C09
330
9B6B
100
AcDbEntity
  8
4
  6
CENTER
 48
0.2
100
AcDbLine
 10
57.349998
 20
513.0
 30
0.0
 11
66.650002
 21
513.0
 31
0.0
  0
LINE
  5
9C0A
330
9B6B
100
AcDbEntity
  8
4
  6
CENTER
 48
0.2
100
AcDbLine
 10
62.0
 20
527.0
 30
0.0
 11
62.0
 21
508.3500059999998
 31
0.0
  0
LINE
  5
9C0B
330
9B6B
100
AcDbEntity
  8
1
  6
Continuous
100
AcDbLine
 10
52.5
 20
491.0419619999998
 30
0.0
 11
52.5
 21
493.5
 31
0.0
  0
LINE
  5
9C0C
330
9B6B
100
AcDbEntity
  8
1
  6
Continuous
100
AcDbLine
 10
53.5
 20
491.0419619999998
 30
0.0
 11
53.5
 21
493.5
 31
0.0
  0
LINE
  5
9C0D
330
9B6B
100
AcDbEntity
  8
1
  6
Continuous
100
AcDbLine
 10
50.04196199999999
 20
493.5
 30
0.0
 11
52.5
 21
493.5
 31
0.0
  0
LINE
  5
9C0E
330
9B6B
100
AcDbEntity
  8
1
  6
Continuous
100
AcDbLine
 10
50.04196199999999
 20
494.5
 30
0.0
 11
52.5
 21
494.5
 31
0.0
  0
LINE
  5
9C0F
330
9B6B
100
AcDbEntity
  8
1
  6
Continuous
100
AcDbLine
 10
53.5
 20
493.5
 30
0.0
 11
55.958038
 21
493.5
 31
0.0
  0
LINE
  5
9C10
330
9B6B
100
AcDbEntity
  8
1
  6
Continuous
100
AcDbLine
 10
53.5
 20
494.5
 30
0.0
 11
55.958038
 21
494.5
 31
0.0
  0
LINE
  5
9C11
330
9B6B
100
AcDbEntity
  8
1
  6
Continuous
100
AcDbLine
 10
52.5
 20
494.5
 30
0.0
 11
52.5
 21
496.958038
 31
0.0
  0
LINE
  5
9C12
330
9B6B
100
AcDbEntity
  8
1
  6
Continuous
100
AcDbLine
 10
53.5
 20
494.5
 30
0.0
 11
53.5
 21
496.958038
 31
0.0
  0
LINE
  5
9C13
330
9B6B
100
AcDbEntity
  8
1
  6
Continuous
100
AcDbLine
 10
38.0
 20
504.100006
 30
0.0
 11
68.0
 21
504.100006
 31
0.0
  0
LINE
  5
9C14
330
9B6B
100
AcDbEntity
  8
4
  6
CENTER
 48
0.2
100
AcDbLine
 10
59.5
 20
494.0
 30
0.0
 11
46.5
 21
494.0
 31
0.0
  0
LINE
  5
9C15
330
9B6B
100
AcDbEntity
  8
1
  6
Continuous
100
AcDbLine
 10
201.0
 20
591.0
 30
0.0
 11
201.0
 21
617.0
 31
0.0
  0
LINE
  5
9C16
330
9B6B
100
AcDbEntity
  8
1
  6
Continuous
100
AcDbLine
 10
171.0
 20
589.0
 30
0.0
 11
171.0
 21
619.0
 31
0.0
  0
LINE
  5
9C17
330
9B6B
100
AcDbEntity
  8
4
  6
CENTER
 48
0.2
100
AcDbLine
 10
205.850006
 20
604.0
 30
0.0
 11
166.0
 21
604.0
 31
0.0
  0
LINE
  5
9C18
330
9B6B
100
AcDbEntity
  8
4
  6
CENTER
 48
0.2
100
AcDbLine
 10
187.6999969999999
 20
595.0
 30
0.0
 11
198.300003
 21
595.0
 31
0.0
  0
LINE
  5
9C19
330
9B6B
100
AcDbEntity
  8
4
  6
CENTER
 48
0.2
100
AcDbLine
 10
193.0
 20
589.700012
 30
0.0
 11
193.0
 21
600.2999879999999
 31
0.0
  0
LINE
  5
9C1A
330
9B6B
100
AcDbEntity
  8
4
  6
CENTER
 48
0.2
100
AcDbLine
 10
187.6999969999999
 20
613.0
 30
0.0
 11
198.300003
 21
613.0
 31
0.0
  0
LINE
  5
9C1B
330
9B6B
100
AcDbEntity
  8
4
  6
CENTER
 48
0.2
100
AcDbLine
 10
193.0
 20
607.700012
 30
0.0
 11
193.0
 21
618.2999879999997
 31
0.0
  0
LINE
  5
9C1C
330
9B6B
100
AcDbEntity
  8
1
  6
Continuous
100
AcDbLine
 10
172.1
 20
602.0
 30
0.0
 11
172.1
 21
606.0
 31
0.0
  0
LINE
  5
9C1D
330
9B6B
100
AcDbEntity
  8
1
  6
Continuous
100
AcDbLine
 10
199.300003
 20
629.099976
 30
0.0
 11
199.300003
 21
632.0
 31
0.0
  0
LINE
  5
9C1E
330
9B6B
100
AcDbEntity
  8
1
  6
Continuous
100
AcDbLine
 10
169.300003
 20
617.0
 30
0.0
 11
169.300003
 21
629.099976
 31
0.0
  0
LINE
  5
9C1F
330
9B6B
100
AcDbEntity
  8
1
  6
Continuous
100
AcDbLine
 10
199.300003
 20
632.0
 30
0.0
 11
172.1999969999999
 21
632.0
 31
0.0
  0
LINE
  5
9C20
330
9B6B
100
AcDbEntity
  8
1
  6
Continuous
100
AcDbLine
 10
199.300003
 20
629.099976
 30
0.0
 11
172.1999969999999
 21
629.099976
 31
0.0
  0
LINE
  5
9C21
330
9B6B
100
AcDbEntity
  8
4
  6
CENTER
 48
0.2
100
AcDbLine
 10
176.550003
 20
623.0
 30
0.0
 11
164.9499969999999
 21
623.0
 31
0.0
  0
LINE
  5
9C22
330
9B6B
100
AcDbEntity
  8
1
  6
Continuous
100
AcDbLine
 10
171.0
 20
84.0
 30
0.0
 11
171.0
 21
72.0
 31
0.0
  0
LINE
  5
9C23
330
9B6B
100
AcDbEntity
  8
4
  6
CENTER
 48
0.2
100
AcDbLine
 10
191.300003
 20
48.25
 30
0.0
 11
191.300003
 21
36.650002
 31
0.0
  0
LINE
  5
9C24
330
9B6B
100
AcDbEntity
  8
1
  6
Continuous
100
AcDbLine
 10
172.4
 20
56.0
 30
0.0
 11
172.1999969999999
 21
56.0
 31
0.0
  0
LINE
  5
9C25
330
9B6B
100
AcDbEntity
  8
1
  6
Continuous
100
AcDbLine
 10
175.3999939999999
 20
77.849998
 30
0.0
 11
175.3999939999999
 21
60.150002
 31
0.0
  0
LINE
  5
9C26
330
9B6B
100
AcDbEntity
  8
1
  6
Continuous
100
AcDbLine
 10
177.0
 20
79.900002
 30
0.0
 11
177.0
 21
58.09999799999999
 31
0.0
  0
LINE
  5
9C27
330
9B6B
100
AcDbEntity
  8
1
  6
Continuous
100
AcDbLine
 10
172.4
 20
58.900002
 30
0.0
 11
172.1999969999999
 21
58.900002
 31
0.0
  0
LINE
  5
9C28
330
9B6B
100
AcDbEntity
  8
1
  6
Continuous
100
AcDbLine
 10
192.0
 20
75.5
 30
0.0
 11
192.0
 21
62.5
 31
0.0
  0
LINE
  5
9C29
330
9B6B
100
AcDbEntity
  8
1
  6
Continuous
100
AcDbLine
 10
169.300003
 20
56.0
 30
0.0
 11
169.300003
 21
43.900002
 31
0.0
  0
LINE
  5
9C2A
330
9B6B
100
AcDbEntity
  8
4
  6
CENTER
 48
0.2
100
AcDbLine
 10
176.550003
 20
50.0
 30
0.0
 11
164.9499969999999
 21
50.0
 31
0.0
  0
LINE
  5
9C2B
330
9B6B
100
AcDbEntity
  8
1
  6
Continuous
100
AcDbLine
 10
199.300003
 20
43.900002
 30
0.0
 11
172.1999969999999
 21
43.900002
 31
0.0
  0
LINE
  5
9C2C
330
9B6B
100
AcDbEntity
  8
1
  6
Continuous
100
AcDbLine
 10
199.300003
 20
41.0
 30
0.0
 11
172.1999969999999
 21
41.0
 31
0.0
  0
LINE
  5
9C2D
330
9B6B
100
AcDbEntity
  8
1
  6
Continuous
100
AcDbLine
 10
199.300003
 20
43.900002
 30
0.0
 11
199.300003
 21
41.0
 31
0.0
  0
LINE
  5
9C2E
330
9B6B
100
AcDbEntity
  8
1
  6
Continuous
100
AcDbLine
 10
177.0
 20
60.150002
 30
0.0
 11
175.3999939999999
 21
60.150002
 31
0.0
  0
LINE
  5
9C2F
330
9B6B
100
AcDbEntity
  8
1
  6
Continuous
100
AcDbLine
 10
170.9
 20
68.499992
 30
0.0
 11
171.65
 21
69.0
 31
0.0
  0
LINE
  5
9C30
330
9B6B
100
AcDbEntity
  8
1
  6
Continuous
100
AcDbLine
 10
175.2999939999999
 20
77.0
 30
0.0
 11
172.4
 21
77.0
 31
0.0
  0
LINE
  5
9C31
330
9B6B
100
AcDbEntity
  8
1
  6
Continuous
100
AcDbLine
 10
172.4
 20
77.0
 30
0.0
 11
172.4
 21
58.900002
 31
0.0
  0
LINE
  5
9C32
330
9B6B
100
AcDbEntity
  8
1
  6
Continuous
100
AcDbLine
 10
191.0
 20
76.5
 30
0.0
 11
191.0
 21
61.5
 31
0.0
  0
LINE
  5
9C33
330
9B6B
100
AcDbEntity
  8
1
  6
Continuous
100
AcDbLine
 10
177.0
 20
77.849998
 30
0.0
 11
175.3999939999999
 21
77.849998
 31
0.0
  0
LINE
  5
9C34
330
9B6B
100
AcDbEntity
  8
1
  6
Continuous
100
AcDbLine
 10
191.0
 20
61.5
 30
0.0
 11
189.0
 21
61.5
 31
0.0
  0
LINE
  5
9C35
330
9B6B
100
AcDbEntity
  8
1
  6
Continuous
100
AcDbLine
 10
191.0
 20
76.5
 30
0.0
 11
189.0
 21
76.5
 31
0.0
  0
LINE
  5
9C36
330
9B6B
100
AcDbEntity
  8
1
  6
Continuous
100
AcDbLine
 10
192.0
 20
62.5
 30
0.0
 11
191.0
 21
61.5
 31
0.0
  0
LINE
  5
9C37
330
9B6B
100
AcDbEntity
  8
1
  6
Continuous
100
AcDbLine
 10
192.0
 20
75.5
 30
0.0
 11
191.0
 21
76.50000799999998
 31
0.0
  0
LINE
  5
9C38
330
9B6B
100
AcDbEntity
  8
1
  6
Continuous
100
AcDbLine
 10
172.4
 20
66.0
 30
0.0
 11
170.9
 21
66.0
 31
0.0
  0
LINE
  5
9C39
330
9B6B
100
AcDbEntity
  8
1
  6
Continuous
100
AcDbLine
 10
172.4
 20
72.0
 30
0.0
 11
170.9
 21
72.0
 31
0.0
  0
LINE
  5
9C3A
330
9B6B
100
AcDbEntity
  8
1
  6
Continuous
100
AcDbLine
 10
179.299994
 20
45.000002
 30
0.0
 11
173.2999969999999
 21
45.000002
 31
0.0
  0
LINE
  5
9C3B
330
9B6B
100
AcDbEntity
  8
1
  6
Continuous
100
AcDbLine
 10
173.2999969999999
 20
50.99999799999999
 30
0.0
 11
173.2999969999999
 21
45.000002
 31
0.0
  0
LINE
  5
9C3C
330
9B6B
100
AcDbEntity
  8
1
  6
Continuous
100
AcDbLine
 10
171.65
 20
69.0
 30
0.0
 11
170.9
 21
69.5
 31
0.0
  0
LINE
  5
9C3D
330
9B6B
100
AcDbEntity
  8
1
  6
Continuous
100
AcDbLine
 10
199.0
 20
84.0
 30
0.0
 11
171.0
 21
84.0
 31
0.0
  0
LINE
  5
9C3E
330
9B6B
100
AcDbEntity
  8
1
  6
Continuous
100
AcDbLine
 10
199.0
 20
54.0
 30
0.0
 11
172.1999969999999
 21
54.0
 31
0.0
  0
LINE
  5
9C3F
330
9B6B
100
AcDbEntity
  8
4
  6
CENTER
 48
0.2
100
AcDbLine
 10
205.850006
 20
69.0
 30
0.0
 11
166.0
 21
69.0
 31
0.0
  0
LINE
  5
9C40
330
9B6B
100
AcDbEntity
  8
1
  6
Continuous
100
AcDbLine
 10
201.0
 20
82.0
 30
0.0
 11
201.0
 21
56.0
 31
0.0
  0
LINE
  5
9C41
330
9B6B
100
AcDbEntity
  8
1
  6
Continuous
100
AcDbLine
 10
189.0
 20
58.09999799999999
 30
0.0
 11
189.0
 21
79.900002
 31
0.0
  0
LINE
  5
9C42
330
9B6B
100
AcDbEntity
  8
1
  6
Continuous
100
AcDbLine
 10
187.399994
 20
81.5
 30
0.0
 11
178.600006
 21
81.5
 31
0.0
  0
LINE
  5
9C43
330
9B6B
100
AcDbEntity
  8
1
  6
Continuous
100
AcDbLine
 10
187.399994
 20
56.5
 30
0.0
 11
178.600006
 21
56.5
 31
0.0
  0
LINE
  5
9C44
330
9B6B
100
AcDbEntity
  8
1
  6
Continuous
100
AcDbLine
 10
174.1999969999999
 20
84.0
 30
0.0
 11
174.1999969999999
 21
77.0
 31
0.0
  0
LINE
  5
9C45
330
9B6B
100
AcDbEntity
  8
1
  6
Continuous
100
AcDbLine
 10
174.1999969999999
 20
56.55053299999998
 30
0.0
 11
174.1999969999999
 21
54.0
 31
0.0
  0
LINE
  5
9C46
330
9B6B
100
AcDbEntity
  8
1
  6
Continuous
100
AcDbLine
 10
177.100006
 20
57.543224
 30
0.0
 11
177.100006
 21
54.0
 31
0.0
  0
LINE
  5
9C47
330
9B6B
100
AcDbEntity
  8
1
  6
Continuous
100
AcDbLine
 10
187.399994
 20
58.09999799999999
 30
0.0
 11
187.399994
 21
79.900002
 31
0.0
  0
LINE
  5
9C48
330
9B6B
100
AcDbEntity
  8
1
  6
Continuous
100
AcDbLine
 10
187.399994
 20
58.09999799999999
 30
0.0
 11
178.600006
 21
58.09999799999999
 31
0.0
  0
LINE
  5
9C49
330
9B6B
100
AcDbEntity
  8
1
  6
Continuous
100
AcDbLine
 10
178.600006
 20
79.900002
 30
0.0
 11
178.600006
 21
58.09999799999999
 31
0.0
  0
LINE
  5
9C4A
330
9B6B
100
AcDbEntity
  8
1
  6
Continuous
100
AcDbLine
 10
187.399994
 20
79.900002
 30
0.0
 11
178.600006
 21
79.900002
 31
0.0
  0
LINE
  5
9C4B
330
9B6B
100
AcDbEntity
  8
1
  6
Continuous
100
AcDbLine
 10
187.399994
 20
65.0
 30
0.0
 11
178.600006
 21
65.0
 31
0.0
  0
LINE
  5
9C4C
330
9B6B
100
AcDbEntity
  8
1
  6
Continuous
100
AcDbLine
 10
187.399994
 20
73.0
 30
0.0
 11
178.600006
 21
73.0
 31
0.0
  0
LINE
  5
9C4D
330
9B6B
100
AcDbEntity
  8
1
  6
Continuous
100
AcDbLine
 10
186.8999939999999
 20
58.5
 30
0.0
 11
186.8999939999999
 21
65.0
 31
0.0
  0
LINE
  5
9C4E
330
9B6B
100
AcDbEntity
  8
1
  6
Continuous
100
AcDbLine
 10
185.300003
 20
79.5
 30
0.0
 11
180.1999969999999
 21
79.5
 31
0.0
  0
LINE
  5
9C4F
330
9B6B
100
AcDbEntity
  8
1
  6
Continuous
100
AcDbLine
 10
186.8999939999999
 20
58.5
 30
0.0
 11
185.300003
 21
58.5
 31
0.0
  0
LINE
  5
9C50
330
9B6B
100
AcDbEntity
  8
1
  6
Continuous
100
AcDbLine
 10
185.300003
 20
58.5
 30
0.0
 11
185.300003
 21
65.0
 31
0.0
  0
LINE
  5
9C51
330
9B6B
100
AcDbEntity
  8
1
  6
Continuous
100
AcDbLine
 10
180.1999969999999
 20
58.5
 30
0.0
 11
180.1999969999999
 21
65.0
 31
0.0
  0
LINE
  5
9C52
330
9B6B
100
AcDbEntity
  8
1
  6
Continuous
100
AcDbLine
 10
185.300003
 20
77.900002
 30
0.0
 11
180.1999969999999
 21
77.900002
 31
0.0
  0
LINE
  5
9C53
330
9B6B
100
AcDbEntity
  8
1
  6
Continuous
100
AcDbLine
 10
180.1999969999999
 20
58.5
 30
0.0
 11
178.600006
 21
58.5
 31
0.0
  0
LINE
  5
9C54
330
9B6B
100
AcDbEntity
  8
1
  6
Continuous
100
AcDbLine
 10
185.300003
 20
73.0
 30
0.0
 11
185.300003
 21
77.900002
 31
0.0
  0
LINE
  5
9C55
330
9B6B
100
AcDbEntity
  8
1
  6
Continuous
100
AcDbLine
 10
186.8999939999999
 20
73.0
 30
0.0
 11
186.8999939999999
 21
77.900002
 31
0.0
  0
LINE
  5
9C56
330
9B6B
100
AcDbEntity
  8
1
  6
Continuous
100
AcDbLine
 10
180.1999969999999
 20
73.0
 30
0.0
 11
180.1999969999999
 21
77.900002
 31
0.0
  0
LINE
  5
9C57
330
9B6B
100
AcDbEntity
  8
1
  6
Continuous
100
AcDbLine
 10
184.3000029999998
 20
61.599998
 30
0.0
 11
180.3000029999997
 21
61.599998
 31
0.0
  0
LINE
  5
9C58
330
9B6B
100
AcDbEntity
  8
1
  6
Continuous
100
AcDbLine
 10
184.3000029999998
 20
76.400002
 30
0.0
 11
180.3000029999997
 21
76.400002
 31
0.0
  0
LINE
  5
9C59
330
9B6B
100
AcDbEntity
  8
1
  6
Continuous
100
AcDbLine
 10
184.3000029999998
 20
58.09999799999999
 30
0.0
 11
184.3000029999998
 21
65.0
 31
0.0
  0
LINE
  5
9C5A
330
9B6B
100
AcDbEntity
  8
1
  6
Continuous
100
AcDbLine
 10
181.6999969999999
 20
58.09999799999999
 30
0.0
 11
181.6999969999999
 21
61.599998
 31
0.0
  0
LINE
  5
9C5B
330
9B6B
100
AcDbEntity
  8
4
  6
CENTER
 48
0.1
100
AcDbLine
 10
328.0
 20
358.4999999999998
 30
0.0
 11
323.349088
 21
358.4999999999998
 31
0.0
  0
LINE
  5
9C5C
330
9B6B
100
AcDbEntity
  8
4
  6
CENTER
 48
0.1
100
AcDbLine
 10
328.0
 20
368.5
 30
0.0
 11
323.349088
 21
368.5
 31
0.0
  0
LINE
  5
9C5D
330
9B6B
100
AcDbEntity
  8
4
  6
CENTER
 48
0.2
100
AcDbLine
 10
191.300003
 20
624.75
 30
0.0
 11
191.300003
 21
636.3499759999997
 31
0.0
  0
LINE
  5
9C5E
330
9B6B
100
AcDbEntity
  8
4
  6
CENTER
 48
0.2
100
AcDbLine
 10
447.0
 20
358.4999999999998
 30
0.0
 11
439.0
 21
358.4999999999998
 31
0.0
  0
LINE
  5
9C5F
330
9B6B
100
AcDbEntity
  8
4
  6
CENTER
 48
0.2
100
AcDbLine
 10
447.0
 20
368.5
 30
0.0
 11
439.0
 21
368.5
 31
0.0
  0
LINE
  5
9C60
330
9B6B
100
AcDbEntity
  8
4
  6
CENTER
100
AcDbLine
 10
183.0
 20
164.0
 30
0.0
 11
183.0
 21
526.349976
 31
0.0
  0
LINE
  5
9C61
330
9B6B
100
AcDbEntity
  8
4
  6
CENTER
 48
0.2
100
AcDbLine
 10
183.0
 20
584.0
 30
0.0
 11
183.0
 21
624.0
 31
0.0
  0
LINE
  5
9C62
330
9B6B
100
AcDbEntity
  8
4
  6
CENTER
 48
0.2
100
AcDbLine
 10
183.0
 20
49.0
 30
0.0
 11
183.0
 21
89.0
 31
0.0
  0
LINE
  5
9C63
330
9B6B
100
AcDbEntity
  8
1
  6
Continuous
100
AcDbLine
 10
172.1999969999999
 20
619.0
 30
0.0
 11
172.1999969999999
 21
629.099976
 31
0.0
  0
LINE
  5
9C64
330
9B6B
100
AcDbEntity
  8
1
  6
Continuous
100
AcDbLine
 10
175.2999939999999
 20
169.0
 30
0.0
 11
175.2999939999999
 21
199.0
 31
0.0
  0
LINE
  5
9C65
330
9B6B
100
AcDbEntity
  8
1
  6
Continuous
100
AcDbLine
 10
173.899994
 20
507.0
 30
0.0
 11
173.899994
 21
519.0999759999998
 31
0.0
  0
LINE
  5
9C66
330
9B6B
100
AcDbEntity
  8
1
  6
Continuous
100
AcDbLine
 10
180.3000029999997
 20
61.599998
 30
0.0
 11
180.3000029999997
 21
65.0
 31
0.0
  0
LINE
  5
9C67
330
9B6B
100
AcDbEntity
  8
1
  6
Continuous
100
AcDbLine
 10
184.3000029999998
 20
73.0
 30
0.0
 11
184.3000029999998
 21
77.900002
 31
0.0
  0
LINE
  5
9C68
330
9B6B
100
AcDbEntity
  8
1
  6
Continuous
100
AcDbLine
 10
180.3000029999997
 20
73.0
 30
0.0
 11
180.3000029999997
 21
77.900002
 31
0.0
  0
LINE
  5
9C69
330
9B6B
100
AcDbEntity
  8
1
  6
Continuous
100
AcDbLine
 10
180.1999969999999
 20
333.0
 30
0.0
 11
180.1999969999999
 21
355.600006
 31
0.0
  0
LINE
  5
9C6A
330
9B6B
100
AcDbEntity
  8
1
  6
Continuous
100
AcDbLine
 10
185.300003
 20
333.0
 30
0.0
 11
185.300003
 21
355.600006
 31
0.0
  0
LINE
  5
9C6B
330
9B6B
100
AcDbEntity
  8
1
  6
Continuous
100
AcDbLine
 10
185.300003
 20
349.0
 30
0.0
 11
185.1335599999999
 21
349.0
 31
0.0
  0
LINE
  5
9C6C
330
9B6B
100
AcDbEntity
  8
1
  6
Continuous
100
AcDbLine
 10
185.300003
 20
345.0
 30
0.0
 11
185.1335599999999
 21
345.0
 31
0.0
  0
LINE
  5
9C6D
330
9B6B
100
AcDbEntity
  8
1
  6
Continuous
100
AcDbLine
 10
185.0321659999999
 20
345.0
 30
0.0
 11
184.3000029999998
 21
345.0
 31
0.0
  0
LINE
  5
9C6E
330
9B6B
100
AcDbEntity
  8
1
  6
Continuous
100
AcDbLine
 10
185.0321659999999
 20
349.0
 30
0.0
 11
184.3000029999998
 21
349.0
 31
0.0
  0
LINE
  5
9C6F
330
9B6B
100
AcDbEntity
  8
1
  6
Continuous
100
AcDbLine
 10
184.3000029999998
 20
333.0
 30
0.0
 11
184.3000029999998
 21
356.0
 31
0.0
  0
LINE
  5
9C70
330
9B6B
100
AcDbEntity
  8
1
  6
Continuous
100
AcDbLine
 10
180.3000029999997
 20
333.0
 30
0.0
 11
180.3000029999997
 21
355.7141419999999
 31
0.0
  0
LINE
  5
9C71
330
9B6B
100
AcDbEntity
  8
4
  6
CENTER
 48
0.2
100
AcDbLine
 10
194.0
 20
347.0
 30
0.0
 11
172.0
 21
347.0
 31
0.0
  0
LINE
  5
9C72
330
9B6B
100
AcDbEntity
  8
1
  6
Continuous
100
AcDbLine
 10
428.700012
 20
169.0
 30
0.0
 11
456.700012
 21
169.0
 31
0.0
  0
LINE
  5
9C73
330
9B6B
100
AcDbEntity
  8
1
  6
Continuous
100
AcDbLine
 10
456.700012
 20
169.0
 30
0.0
 11
456.700012
 21
199.0
 31
0.0
  0
LINE
  5
9C74
330
9B6B
100
AcDbEntity
  8
1
  6
Continuous
100
AcDbLine
 10
428.700012
 20
199.0
 30
0.0
 11
456.700012
 21
199.0
 31
0.0
  0
LINE
  5
9C75
330
9B6B
100
AcDbEntity
  8
4
  6
CENTER
 48
0.2
100
AcDbLine
 10
434.700012
 20
170.350006
 30
0.0
 11
434.700012
 21
179.6499939999999
 31
0.0
  0
LINE
  5
9C76
330
9B6B
100
AcDbEntity
  8
4
  6
CENTER
 48
0.2
100
AcDbLine
 10
434.700012
 20
188.350006
 30
0.0
 11
434.700012
 21
197.649994
 31
0.0
  0
LINE
  5
9C77
330
9B6B
100
AcDbEntity
  8
1
  6
Continuous
100
AcDbLine
 10
426.700012
 20
171.0
 30
0.0
 11
426.700012
 21
197.0
 31
0.0
  0
LINE
  5
9C78
330
9B6B
100
AcDbEntity
  8
4
  6
CENTER
 48
0.2
100
AcDbLine
 10
430.049988
 20
193.0
 30
0.0
 11
439.350006
 21
193.0
 31
0.0
  0
LINE
  5
9C79
330
9B6B
100
AcDbEntity
  8
4
  6
CENTER
 48
0.2
100
AcDbLine
 10
430.049988
 20
175.0
 30
0.0
 11
439.350006
 21
175.0
 31
0.0
  0
LINE
  5
9C7A
330
9B6B
100
AcDbEntity
  8
1
  6
Continuous
100
AcDbLine
 10
437.0
 20
374.5
 30
0.0
 11
449.0
 21
374.5
 31
0.0
  0
LINE
  5
9C7B
330
9B6B
100
AcDbEntity
  8
1
  6
Continuous
100
AcDbLine
 10
449.0
 20
199.0
 30
0.0
 11
449.0
 21
374.5
 31
0.0
  0
LINE
  5
9C7C
330
9B6B
100
AcDbEntity
  8
1
  6
Continuous
100
AcDbLine
 10
437.0
 20
199.0
 30
0.0
 11
437.0
 21
374.5
 31
0.0
  0
LINE
  5
9C7D
330
9B6B
100
AcDbEntity
  8
4
  6
CENTER
 48
0.2
100
AcDbLine
 10
421.7000119999998
 20
184.0
 30
0.0
 11
461.700012
 21
184.0
 31
0.0
  0
LINE
  5
9C7E
330
9B6B
100
AcDbEntity
  8
4
  6
CENTER
 48
0.2
100
AcDbLine
 10
432.0
 20
347.0
 30
0.0
 11
454.0
 21
347.0
 31
0.0
  0
LINE
  5
9C7F
330
9B6B
100
AcDbEntity
  8
4
  6
CENTER
 48
0.2
100
AcDbLine
 10
330.5
 20
347.0
 30
0.0
 11
295.5
 21
347.0
 31
0.0
  0
LINE
  5
9C80
330
9B6B
100
AcDbEntity
  8
4
  6
CENTER
 48
0.2
100
AcDbLine
 10
70.0
 20
347.0
 30
0.0
 11
35.0
 21
347.0
 31
0.0
  0
LINE
  5
9C81
330
9B6B
100
AcDbEntity
  8
1
  6
Continuous
100
AcDbLine
 10
455.600012
 20
182.0
 30
0.0
 11
455.600012
 21
186.0
 31
0.0
  0
LINE
  5
9C82
330
9B6B
100
AcDbEntity
  8
4
  6
CENTER
 48
0.2
100
AcDbLine
 10
461.700012
 20
175.0
 30
0.0
 11
448.799988
 21
175.0
 31
0.0
  0
LINE
  5
9C83
330
9B6B
100
AcDbEntity
  8
4
  6
CENTER
 48
0.2
100
AcDbLine
 10
461.700012
 20
193.0
 30
0.0
 11
448.799988
 21
193.0
 31
0.0
  0
LINE
  5
9C84
330
9B6B
100
AcDbEntity
  8
4
  6
CENTER
 48
0.2
100
AcDbLine
 10
179.75
 20
175.0
 30
0.0
 11
168.1499939999999
 21
175.0
 31
0.0
  0
LINE
  5
9C85
330
9B6B
100
AcDbEntity
  8
4
  6
CENTER
 48
0.2
100
AcDbLine
 10
179.75
 20
193.0
 30
0.0
 11
168.1499939999999
 21
193.0
 31
0.0
  0
LINE
  5
9C86
330
9B6B
100
AcDbEntity
  8
5
  6
PHANTOM
 48
0.1
100
AcDbLine
 10
183.800003
 20
341.200012
 30
0.0
 11
180.800003
 21
341.200012
 31
0.0
  0
LINE
  5
9C87
330
9B6B
100
AcDbEntity
  8
4
  6
CENTER
 48
0.2
100
AcDbLine
 10
194.0
 20
348.600006
 30
0.0
 11
172.0
 21
348.600006
 31
0.0
  0
LINE
  5
9C88
330
9B6B
100
AcDbEntity
  8
5
  6
PHANTOM
 48
0.1
100
AcDbLine
 10
184.3000029999998
 20
349.600006
 30
0.0
 11
180.3000029999997
 21
349.600006
 31
0.0
  0
LINE
  5
9C89
330
9B6B
100
AcDbEntity
  8
5
  6
PHANTOM
 48
0.1
100
AcDbLine
 10
184.3000029999998
 20
347.600006
 30
0.0
 11
180.3000029999997
 21
347.600006
 31
0.0
  0
LINE
  5
9C8A
330
9B6B
100
AcDbEntity
  8
5
  6
PHANTOM
 48
0.1
100
AcDbLine
 10
183.800003
 20
342.700012
 30
0.0
 11
181.1000059999997
 21
342.700012
 31
0.0
  0
LINE
  5
9C8B
330
9B6B
100
AcDbEntity
  8
5
  6
PHANTOM
 48
0.1
100
AcDbLine
 10
183.800003
 20
354.4999999999998
 30
0.0
 11
181.1000059999997
 21
354.4999999999998
 31
0.0
  0
LINE
  5
9C8C
330
9B6B
100
AcDbEntity
  8
5
  6
PHANTOM
 48
0.1
100
AcDbLine
 10
185.5
 20
334.600006
 30
0.0
 11
180.0
 21
334.600006
 31
0.0
  0
LINE
  5
9C8D
330
9B6B
100
AcDbEntity
  8
5
  6
PHANTOM
 48
0.1
100
AcDbLine
 10
300.0
 20
341.200012
 30
0.0
 11
298.4999999999999
 21
341.200012
 31
0.0
  0
LINE
  5
9C8E
330
9B6B
100
AcDbEntity
  8
5
  6
PHANTOM
 48
0.1
100
AcDbLine
 10
300.0
 20
356.0
 30
0.0
 11
298.4999999999999
 21
356.0
 31
0.0
  0
LINE
  5
9C8F
330
9B6B
100
AcDbEntity
  8
1
  6
Continuous
100
AcDbLine
 10
185.5
 20
333.0
 30
0.0
 11
180.0
 21
333.0
 31
0.0
  0
LINE
  5
9C90
330
9B6B
100
AcDbEntity
  8
1
  6
Continuous
100
AcDbLine
 10
172.1999969999999
 20
56.0
 30
0.0
 11
172.1999969999999
 21
43.900002
 31
0.0
  0
LINE
  5
9C91
330
9B6B
100
AcDbEntity
  8
4
  6
CENTER
 48
0.2
100
AcDbLine
 10
187.6999969999999
 20
60.0
 30
0.0
 11
198.300003
 21
60.0
 31
0.0
  0
LINE
  5
9C92
330
9B6B
100
AcDbEntity
  8
4
  6
CENTER
 48
0.2
100
AcDbLine
 10
193.0
 20
54.700001
 30
0.0
 11
193.0
 21
65.30000300000001
 31
0.0
  0
LINE
  5
9C93
330
9B6B
100
AcDbEntity
  8
4
  6
CENTER
 48
0.2
100
AcDbLine
 10
187.6999969999999
 20
78.0
 30
0.0
 11
198.300003
 21
78.0
 31
0.0
  0
LINE
  5
9C94
330
9B6B
100
AcDbEntity
  8
4
  6
CENTER
 48
0.2
100
AcDbLine
 10
193.0
 20
72.69999699999998
 30
0.0
 11
193.0
 21
83.300003
 31
0.0
  0
LINE
  5
9C95
330
9B6B
100
AcDbEntity
  8
1
  6
Continuous
100
AcDbLine
 10
65.5
 20
174.5
 30
0.0
 11
65.5
 21
374.5
 31
0.0
  0
LINE
  5
9C96
330
9B6B
100
AcDbEntity
  8
1
  6
Continuous
100
AcDbLine
 10
40.49999999999999
 20
199.0
 30
0.0
 11
40.49999999999999
 21
374.5
 31
0.0
  0
LINE
  5
9C97
330
9B6B
100
AcDbEntity
  8
1
  6
Continuous
100
AcDbLine
 10
40.49999999999999
 20
374.5
 30
0.0
 11
65.5
 21
374.5
 31
0.0
  0
LINE
  5
9C98
330
9B6B
100
AcDbEntity
  8
1
  6
Continuous
100
AcDbLine
 10
65.50000799999999
 20
344.0
 30
0.0
 11
66.943146
 21
338.9090879999999
 31
0.0
  0
LINE
  5
9C99
330
9B6B
100
AcDbEntity
  8
1
  6
Continuous
100
AcDbLine
 10
40.49999999999999
 20
360.4999999999998
 30
0.0
 11
40.49999999999999
 21
360.4999999999998
 31
0.0
  0
LINE
  5
9C9A
330
9B6B
100
AcDbEntity
  8
1
  6
Continuous
100
AcDbLine
 10
40.49999999999999
 20
356.4999999999998
 30
0.0
 11
40.49999999999999
 21
356.4999999999998
 31
0.0
  0
LINE
  5
9C9B
330
9B6B
100
AcDbEntity
  8
1
  6
Continuous
100
AcDbLine
 10
40.49999999999999
 20
370.5
 30
0.0
 11
40.49999999999999
 21
370.5
 31
0.0
  0
LINE
  5
9C9C
330
9B6B
100
AcDbEntity
  8
1
  6
Continuous
100
AcDbLine
 10
40.49999999999999
 20
366.5
 30
0.0
 11
40.49999999999999
 21
366.5
 31
0.0
  0
LINE
  5
9C9D
330
9B6B
100
AcDbEntity
  8
4
  6
CENTER
 48
0.1
100
AcDbLine
 10
38.0
 20
368.5
 30
0.0
 11
42.705301
 21
368.5
 31
0.0
  0
LINE
  5
9C9E
330
9B6B
100
AcDbEntity
  8
4
  6
CENTER
 48
0.1
100
AcDbLine
 10
38.0
 20
358.4999999999998
 30
0.0
 11
42.705301
 21
358.4999999999998
 31
0.0
  0
LINE
  5
9C9F
330
9B6B
100
AcDbEntity
  8
5
  6
PHANTOM
 48
0.1
100
AcDbLine
 10
66.0
 20
341.200012
 30
0.0
 11
67.5
 21
341.200012
 31
0.0
  0
LINE
  5
9CA0
330
9B6B
100
AcDbEntity
  8
5
  6
PHANTOM
 48
0.1
100
AcDbLine
 10
66.0
 20
356.0
 30
0.0
 11
67.5
 21
356.0
 31
0.0
  0
LINE
  5
9CA1
330
9B6B
100
AcDbEntity
  8
1
  6
Continuous
100
AcDbLine
 10
184.3000029999998
 20
83.0
 30
0.0
 11
180.3000029999997
 21
83.0
 31
0.0
  0
LINE
  5
9CA2
330
9B6B
100
AcDbEntity
  8
1
  6
Continuous
100
AcDbLine
 10
184.3000029999998
 20
81.5
 30
0.0
 11
184.3000029999998
 21
83.0
 31
0.0
  0
LINE
  5
9CA3
330
9B6B
100
AcDbEntity
  8
1
  6
Continuous
100
AcDbLine
 10
180.3000029999997
 20
81.5
 30
0.0
 11
180.3000029999997
 21
83.0
 31
0.0
  0
LINE
  5
9CA4
330
9B6B
100
AcDbEntity
  8
1
  6
Continuous
100
AcDbLine
 10
183.800003
 20
82.5
 30
0.0
 11
180.800003
 21
82.5
 31
0.0
  0
LINE
  5
9CA5
330
9B6B
100
AcDbEntity
  8
1
  6
Continuous
100
AcDbLine
 10
185.325684
 20
366.3335879999999
 30
0.0
 11
180.674316
 21
366.3335879999999
 31
0.0
  0
LINE
  5
9CA6
330
9B6B
100
AcDbEntity
  8
1
  6
Continuous
100
AcDbLine
 10
185.270203
 20
366.99942
 30
0.0
 11
180.729797
 21
366.99942
 31
0.0
  0
LINE
  5
9CA7
330
9B6B
100
AcDbEntity
  8
1
  6
Continuous
100
AcDbLine
 10
180.927383
 20
367.6666259999998
 30
0.0
 11
182.2008669999999
 21
367.6666259999998
 31
0.0
  0
LINE
  5
9CA8
330
9B6B
100
AcDbEntity
  8
1
  6
Continuous
100
AcDbLine
 10
184.731583
 20
368.3338009999998
 30
0.0
 11
181.2684169999999
 21
368.3338009999998
 31
0.0
  0
LINE
  5
9CA9
330
9B6B
100
AcDbEntity
  8
1
  6
Continuous
100
AcDbLine
 10
183.0006709999999
 20
366.3335879999999
 30
0.0
 11
183.0006709999999
 21
366.99942
 31
0.0
  0
LINE
  5
9CAA
330
9B6B
100
AcDbEntity
  8
1
  6
Continuous
100
AcDbLine
 10
183.800491
 20
367.6666259999998
 30
0.0
 11
185.0726169999999
 21
367.6666259999998
 31
0.0
  0
LINE
  5
9CAB
330
9B6B
100
AcDbEntity
  8
1
  6
Continuous
100
AcDbLine
 10
184.6449739999999
 20
368.9996339999999
 30
0.0
 11
181.356384
 21
368.9996339999999
 31
0.0
  0
LINE
  5
9CAC
330
9B6B
100
AcDbEntity
  8
1
  6
Continuous
100
AcDbLine
 10
181.7705079999998
 20
369.66684
 30
0.0
 11
184.229492
 21
369.66684
 31
0.0
  0
LINE
  5
9CAD
330
9B6B
100
AcDbEntity
  8
1
  6
Continuous
100
AcDbLine
 10
184.8290249999998
 20
370.332672
 30
0.0
 11
181.9545589999999
 21
370.332672
 31
0.0
  0
LINE
  5
9CAE
330
9B6B
100
AcDbEntity
  8
1
  6
Continuous
100
AcDbLine
 10
185.191711
 20
363.6675419999999
 30
0.0
 11
181.018051
 21
363.6675419999999
 31
0.0
  0
LINE
  5
9CAF
330
9B6B
100
AcDbEntity
  8
1
  6
Continuous
100
AcDbLine
 10
181.1181949999999
 20
364.333374
 30
0.0
 11
183.0006709999999
 21
364.333374
 31
0.0
  0
LINE
  5
9CB0
330
9B6B
100
AcDbEntity
  8
1
  6
Continuous
100
AcDbLine
 10
185.1944119999997
 20
365.0005799999998
 30
0.0
 11
180.8055879999997
 21
365.0005799999998
 31
0.0
  0
LINE
  5
9CB1
330
9B6B
100
AcDbEntity
  8
1
  6
Continuous
100
AcDbLine
 10
185.325684
 20
365.6664119999998
 30
0.0
 11
180.674316
 21
365.6664119999998
 31
0.0
  0
LINE
  5
9CB2
330
9B6B
100
AcDbEntity
  8
1
  6
Continuous
100
AcDbLine
 10
183.0006709999999
 20
360.282867
 30
0.0
 11
183.0006709999999
 21
361.660553
 31
0.0
  0
LINE
  5
9CB3
330
9B6B
100
AcDbEntity
  8
1
  6
Continuous
100
AcDbLine
 10
181.7529139999997
 20
361.994812
 30
0.0
 11
184.562408
 21
361.2410279999999
 31
0.0
  0
LINE
  5
9CB4
330
9B6B
100
AcDbEntity
  8
1
  6
Continuous
100
AcDbLine
 10
183.0006709999999
 20
362.66745
 30
0.0
 11
181.401047
 21
362.66745
 31
0.0
  0
LINE
  5
9CB5
330
9B6B
100
AcDbEntity
  8
1
  6
Continuous
100
AcDbLine
 10
183.333603
 20
362.33316
 30
0.0
 11
184.757294
 21
362.33316
 31
0.0
  0
LINE
  5
9CB6
330
9B6B
100
AcDbEntity
  8
1
  6
Continuous
100
AcDbLine
 10
184.8777469999999
 20
363.0003659999999
 30
0.0
 11
183.333603
 21
363.0003659999999
 31
0.0
  0
LINE
  5
9CB7
330
9B6B
100
AcDbEntity
  8
1
  6
Continuous
100
AcDbLine
 10
183.0006709999999
 20
364.333374
 30
0.0
 11
183.0006709999999
 21
364.6662899999999
 31
0.0
  0
LINE
  5
9CB8
330
9B6B
100
AcDbEntity
  8
1
  6
Continuous
100
AcDbLine
 10
183.800491
 20
364.333374
 30
0.0
 11
184.881805
 21
364.333374
 31
0.0
  0
LINE
  5
9CB9
330
9B6B
100
AcDbEntity
  8
4
  6
CENTER
100
AcDbLine
 10
443.0
 20
164.0
 30
0.0
 11
443.0
 21
527.0
 31
0.0
  0
LINE
  5
9CBA
330
9B6B
100
AcDbEntity
  8
1
  6
Continuous
100
AcDbLine
 10
177.100006
 20
84.0
 30
0.0
 11
177.100006
 21
80.45677899999999
 31
0.0
  0
LINE
  5
9CBB
330
9B6B
100
AcDbEntity
  8
1
  6
Continuous
100
AcDbLine
 10
453.399994
 20
491.0
 30
0.0
 11
453.399994
 21
493.5
 31
0.0
  0
LINE
  5
9CBC
330
9B6B
100
AcDbEntity
  8
4
  6
CENTER
 48
0.2
100
AcDbLine
 10
433.0
 20
514.0999759999998
 30
0.0
 11
433.0
 21
527.0
 31
0.0
  0
LINE
  5
9CBD
330
9B6B
100
AcDbEntity
  8
1
  6
Continuous
100
AcDbLine
 10
451.8999939999998
 20
507.0
 30
0.0
 11
452.1000059999998
 21
507.0
 31
0.0
  0
LINE
  5
9CBE
330
9B6B
100
AcDbEntity
  8
1
  6
Continuous
100
AcDbLine
 10
439.1000059999998
 20
374.5
 30
0.0
 11
439.1000059999998
 21
504.0
 31
0.0
  0
LINE
  5
9CBF
330
9B6B
100
AcDbEntity
  8
1
  6
Continuous
100
AcDbLine
 10
449.0
 20
485.149994
 30
0.0
 11
449.0
 21
504.100006
 31
0.0
  0
LINE
  5
9CC0
330
9B6B
100
AcDbEntity
  8
4
  6
CENTER
 48
0.2
100
AcDbLine
 10
428.496094
 20
494.0
 30
0.0
 11
461.6286319999998
 21
494.0
 31
0.0
  0
LINE
  5
9CC1
330
9B6B
100
AcDbEntity
  8
1
  6
Continuous
100
AcDbLine
 10
447.3999939999997
 20
374.5
 30
0.0
 11
447.3999939999997
 21
504.0
 31
0.0
  0
LINE
  5
9CC2
330
9B6B
100
AcDbEntity
  8
1
  6
Continuous
100
AcDbLine
 10
451.8999939999998
 20
504.100006
 30
0.0
 11
452.1000059999998
 21
504.100006
 31
0.0
  0
LINE
  5
9CC3
330
9B6B
100
AcDbEntity
  8
1
  6
Continuous
100
AcDbLine
 10
436.1000059999998
 20
487.5
 30
0.0
 11
436.1000059999998
 21
500.4999999999998
 31
0.0
  0
LINE
  5
9CC4
330
9B6B
100
AcDbEntity
  8
1
  6
Continuous
100
AcDbLine
 10
455.0
 20
507.0
 30
0.0
 11
455.0
 21
519.0999759999998
 31
0.0
  0
LINE
  5
9CC5
330
9B6B
100
AcDbEntity
  8
4
  6
CENTER
 48
0.2
100
AcDbLine
 10
447.1000059999998
 20
513.0
 30
0.0
 11
460.149994
 21
513.0
 31
0.0
  0
LINE
  5
9CC6
330
9B6B
100
AcDbEntity
  8
1
  6
Continuous
100
AcDbLine
 10
425.0
 20
519.0999759999998
 30
0.0
 11
452.1000059999998
 21
519.0999759999998
 31
0.0
  0
LINE
  5
9CC7
330
9B6B
100
AcDbEntity
  8
1
  6
Continuous
100
AcDbLine
 10
425.0
 20
522.0
 30
0.0
 11
452.1000059999998
 21
522.0
 31
0.0
  0
LINE
  5
9CC8
330
9B6B
100
AcDbEntity
  8
1
  6
Continuous
100
AcDbLine
 10
425.0
 20
519.0999759999998
 30
0.0
 11
425.0
 21
522.0
 31
0.0
  0
LINE
  5
9CC9
330
9B6B
100
AcDbEntity
  8
1
  6
Continuous
100
AcDbLine
 10
447.3999939999997
 20
502.8500059999998
 30
0.0
 11
449.0
 21
502.8500059999998
 31
0.0
  0
LINE
  5
9CCA
330
9B6B
100
AcDbEntity
  8
1
  6
Continuous
100
AcDbLine
 10
453.399994
 20
494.5
 30
0.0
 11
452.6500239999998
 21
494.0
 31
0.0
  0
LINE
  5
9CCB
330
9B6B
100
AcDbEntity
  8
1
  6
Continuous
100
AcDbLine
 10
449.0
 20
486.0
 30
0.0
 11
451.8999939999998
 21
486.0
 31
0.0
  0
LINE
  5
9CCC
330
9B6B
100
AcDbEntity
  8
1
  6
Continuous
100
AcDbLine
 10
453.399994
 20
494.5
 30
0.0
 11
453.399994
 21
497.0
 31
0.0
  0
LINE
  5
9CCD
330
9B6B
100
AcDbEntity
  8
1
  6
Continuous
100
AcDbLine
 10
451.8999939999998
 20
486.0
 30
0.0
 11
451.8999939999998
 21
504.100006
 31
0.0
  0
LINE
  5
9CCE
330
9B6B
100
AcDbEntity
  8
1
  6
Continuous
100
AcDbLine
 10
437.1000059999998
 20
486.5
 30
0.0
 11
437.1000059999998
 21
501.4999999999998
 31
0.0
  0
LINE
  5
9CCF
330
9B6B
100
AcDbEntity
  8
1
  6
Continuous
100
AcDbLine
 10
447.3999939999997
 20
485.149994
 30
0.0
 11
449.0
 21
485.149994
 31
0.0
  0
LINE
  5
9CD0
330
9B6B
100
AcDbEntity
  8
1
  6
Continuous
100
AcDbLine
 10
437.1000059999998
 20
501.4999999999998
 30
0.0
 11
439.1000059999998
 21
501.4999999999998
 31
0.0
  0
LINE
  5
9CD1
330
9B6B
100
AcDbEntity
  8
1
  6
Continuous
100
AcDbLine
 10
437.1000059999998
 20
486.5
 30
0.0
 11
439.1000059999998
 21
486.5
 31
0.0
  0
LINE
  5
9CD2
330
9B6B
100
AcDbEntity
  8
1
  6
Continuous
100
AcDbLine
 10
436.0999759999998
 20
500.499969
 30
0.0
 11
437.1000059999998
 21
501.4999999999998
 31
0.0
  0
LINE
  5
9CD3
330
9B6B
100
AcDbEntity
  8
1
  6
Continuous
100
AcDbLine
 10
439.1000059999998
 20
504.0
 30
0.0
 11
447.3999939999997
 21
504.0
 31
0.0
  0
LINE
  5
9CD4
330
9B6B
100
AcDbEntity
  8
1
  6
Continuous
100
AcDbLine
 10
436.0999759999998
 20
487.5
 30
0.0
 11
437.099976
 21
486.5
 31
0.0
  0
LINE
  5
9CD5
330
9B6B
100
AcDbEntity
  8
1
  6
Continuous
100
AcDbLine
 10
451.8999939999998
 20
497.0
 30
0.0
 11
453.399994
 21
497.0
 31
0.0
  0
LINE
  5
9CD6
330
9B6B
100
AcDbEntity
  8
1
  6
Continuous
100
AcDbLine
 10
451.8999939999998
 20
491.0
 30
0.0
 11
453.399994
 21
491.0
 31
0.0
  0
LINE
  5
9CD7
330
9B6B
100
AcDbEntity
  8
1
  6
Continuous
100
AcDbLine
 10
444.999994
 20
517.9999759999998
 30
0.0
 11
451.000006
 21
517.9999759999998
 31
0.0
  0
LINE
  5
9CD8
330
9B6B
100
AcDbEntity
  8
1
  6
Continuous
100
AcDbLine
 10
451.000006
 20
511.999994
 30
0.0
 11
451.000006
 21
517.9999759999998
 31
0.0
  0
LINE
  5
9CD9
330
9B6B
100
AcDbEntity
  8
1
  6
Continuous
100
AcDbLine
 10
452.6499629999998
 20
493.999969
 30
0.0
 11
453.399963
 21
493.499969
 31
0.0
  0
LINE
  5
9CDA
330
9B6B
100
AcDbEntity
  8
1
  6
Continuous
100
AcDbLine
 10
452.1000059999998
 20
507.0
 30
0.0
 11
452.1000059999998
 21
519.0999759999998
 31
0.0
  0
LINE
  5
9CDB
330
9B6B
100
AcDbEntity
  8
1
  6
Continuous
100
AcDbLine
 10
440.700012
 20
374.5
 30
0.0
 11
440.700012
 21
504.0
 31
0.0
  0
LINE
  5
9CDC
330
9B6B
100
AcDbEntity
  8
1
  6
Continuous
100
AcDbLine
 10
445.799988
 20
374.5
 30
0.0
 11
445.799988
 21
504.0
 31
0.0
  0
LINE
  5
9CDD
330
9B6B
100
AcDbEntity
  8
4
  6
CENTER
 48
0.2
100
AcDbLine
 10
35.0
 20
348.600006
 30
0.0
 11
70.0
 21
348.600006
 31
0.0
  0
LINE
  5
9CDE
330
9B6B
100
AcDbEntity
  8
4
  6
CENTER
 48
0.2
100
AcDbLine
 10
295.5
 20
348.600006
 30
0.0
 11
330.5
 21
348.600006
 31
0.0
  0
LINE
  5
9CDF
330
9B6B
100
AcDbEntity
  8
4
  6
CENTER
 48
0.2
100
AcDbLine
 10
432.0
 20
348.600006
 30
0.0
 11
454.0
 21
348.600006
 31
0.0
  0
LINE
  5
9CE0
330
9B6B
100
AcDbEntity
  8
1
  6
Continuous
100
AcDbLine
 10
51.0
 20
521.4999999999998
 30
0.0
 11
51.0
 21
513.000024
 31
0.0
  0
LINE
  5
9CE1
330
9B6B
100
AcDbEntity
  8
1
  6
Continuous
100
AcDbLine
 10
55.0
 20
521.4999999999998
 30
0.0
 11
55.0
 21
513.000024
 31
0.0
  0
LINE
  5
9CE2
330
9B6B
100
AcDbEntity
  8
1
  6
Continuous
100
AcDbLine
 10
180.000006
 20
602.0
 30
0.0
 11
171.5
 21
602.0
 31
0.0
  0
LINE
  5
9CE3
330
9B6B
100
AcDbEntity
  8
1
  6
Continuous
100
AcDbLine
 10
180.000006
 20
606.0
 30
0.0
 11
171.5
 21
606.0
 31
0.0
  0
LINE
  5
9CE4
330
9B6B
100
AcDbEntity
  8
1
  6
Continuous
100
AcDbLine
 10
25.5
 20
182.0
 30
0.0
 11
33.99999799999999
 21
182.0
 31
0.0
  0
LINE
  5
9CE5
330
9B6B
100
AcDbEntity
  8
1
  6
Continuous
100
AcDbLine
 10
25.5
 20
186.0
 30
0.0
 11
33.99999799999999
 21
186.0
 31
0.0
  0
LINE
  5
9CE6
330
9B6B
100
AcDbEntity
  8
1
  6
Continuous
100
AcDbLine
 10
447.7000059999999
 20
182.0
 30
0.0
 11
456.200012
 21
182.0
 31
0.0
  0
LINE
  5
9CE7
330
9B6B
100
AcDbEntity
  8
1
  6
Continuous
100
AcDbLine
 10
447.7000059999999
 20
186.0
 30
0.0
 11
456.200012
 21
186.0
 31
0.0
  0
ARC
  5
9CE8
330
9B6B
100
AcDbEntity
  8
1
  6
Continuous
100
AcDbCircle
 10
184.4999999999997
 20
329.0
 30
0.0
 40
1.0
100
AcDbArc
 50
269.9999969999999
 51
0.0
  0
ARC
  5
9CE9
330
9B6B
100
AcDbEntity
  8
1
  6
Continuous
100
AcDbCircle
 10
181.0
 20
329.0
 30
0.0
 40
1.0
100
AcDbArc
 50
179.9999909999999
 51
270.000001
  0
ARC
  5
9CEA
330
9B6B
100
AcDbEntity
  8
1
  6
Continuous
100
AcDbCircle
 10
184.4999999999997
 20
355.0
 30
0.0
 40
1.0
100
AcDbArc
 50
0.0
 51
90.00000300000001
  0
ARC
  5
9CEB
330
9B6B
100
AcDbEntity
  8
1
  6
Continuous
100
AcDbCircle
 10
181.0
 20
355.0
 30
0.0
 40
1.0
100
AcDbArc
 50
90.00000300000001
 51
180.000005
  0
ARC
  5
9CEC
330
9B6B
100
AcDbEntity
  8
1
  6
Continuous
100
AcDbCircle
 10
191.300003
 20
175.0
 30
0.0
 40
2.649999999999999
100
AcDbArc
 50
190.875719
 51
74.68349499999998
  0
ARC
  5
9CED
330
9B6B
100
AcDbEntity
  8
1
  6
Continuous
100
AcDbCircle
 10
191.300003
 20
193.0
 30
0.0
 40
2.649999999999999
100
AcDbArc
 50
285.316505
 51
150.2183449999999
  0
ARC
  5
9CEE
330
9B6B
100
AcDbEntity
  8
1
  6
Continuous
100
AcDbCircle
 10
174.100006
 20
504.100006
 30
0.0
 40
2.9
100
AcDbArc
 50
0.0
 51
90.00000300000001
  0
CIRCLE
  5
9CEF
330
9B6B
100
AcDbEntity
  8
1
  6
Continuous
100
AcDbCircle
 10
313.0
 20
184.0
 30
0.0
 40
7.5
  0
CIRCLE
  5
9CF0
330
9B6B
100
AcDbEntity
  8
1
  6
Continuous
100
AcDbCircle
 10
313.0
 20
184.0
 30
0.0
 40
6.5
  0
ARC
  5
9CF1
330
9B6B
100
AcDbEntity
  8
1
  6
Continuous
100
AcDbCircle
 10
320.0
 20
184.0
 30
0.0
 40
15.0
100
AcDbArc
 50
219.296478
 51
269.9999969999999
  0
CIRCLE
  5
9CF2
330
9B6B
100
AcDbEntity
  8
1
  6
Continuous
100
AcDbCircle
 10
332.0
 20
175.0
 30
0.0
 40
2.649999999999999
  0
CIRCLE
  5
9CF3
330
9B6B
100
AcDbEntity
  8
1
  6
Continuous
100
AcDbCircle
 10
332.0
 20
193.0
 30
0.0
 40
2.649999999999999
  0
ARC
  5
9CF4
330
9B6B
100
AcDbEntity
  8
1
  6
Continuous
100
AcDbCircle
 10
332.999994
 20
184.0
 30
0.0
 40
3.0
100
AcDbArc
 50
90.00000300000001
 51
270.000001
  0
ARC
  5
9CF5
330
9B6B
100
AcDbEntity
  8
1
  6
Continuous
100
AcDbCircle
 10
338.0000059999998
 20
182.0
 30
0.0
 40
1.0
100
AcDbArc
 50
179.9999909999999
 51
270.000001
  0
ARC
  5
9CF6
330
9B6B
100
AcDbEntity
  8
1
  6
Continuous
100
AcDbCircle
 10
338.0000059999998
 20
186.0
 30
0.0
 40
1.0
100
AcDbArc
 50
90.00000300000001
 51
180.000005
  0
ARC
  5
9CF7
330
9B6B
100
AcDbEntity
  8
1
  6
Continuous
100
AcDbCircle
 10
313.0
 20
501.0
 30
0.0
 40
15.0
100
AcDbArc
 50
179.9999909999999
 51
225.5729939999999
  0
ARC
  5
9CF8
330
9B6B
100
AcDbEntity
  8
1
  6
Continuous
100
AcDbCircle
 10
313.0
 20
501.0
 30
0.0
 40
15.0
100
AcDbArc
 50
314.427004
 51
0.0
  0
CIRCLE
  5
9CF9
330
9B6B
100
AcDbEntity
  8
1
  6
Continuous
100
AcDbCircle
 10
313.0
 20
494.0
 30
0.0
 40
6.5
  0
CIRCLE
  5
9CFA
330
9B6B
100
AcDbEntity
  8
1
  6
Continuous
100
AcDbCircle
 10
313.0
 20
494.0
 30
0.0
 40
7.5
  0
CIRCLE
  5
9CFB
330
9B6B
100
AcDbEntity
  8
1
  6
Continuous
100
AcDbCircle
 10
322.0
 20
513.0
 30
0.0
 40
2.649999999999999
  0
CIRCLE
  5
9CFC
330
9B6B
100
AcDbEntity
  8
1
  6
Continuous
100
AcDbCircle
 10
304.0
 20
513.0
 30
0.0
 40
2.649999999999999
  0
ARC
  5
9CFD
330
9B6B
100
AcDbEntity
  8
1
  6
Continuous
100
AcDbCircle
 10
313.0
 20
514.000024
 30
0.0
 40
3.0
100
AcDbArc
 50
179.9999909999999
 51
0.00001
  0
ARC
  5
9CFE
330
9B6B
100
AcDbEntity
  8
1
  6
Continuous
100
AcDbCircle
 10
315.0
 20
518.9999759999998
 30
0.0
 40
1.0
100
AcDbArc
 50
269.9999969999999
 51
0.0
  0
ARC
  5
9CFF
330
9B6B
100
AcDbEntity
  8
1
  6
Continuous
100
AcDbCircle
 10
311.0
 20
518.9999759999998
 30
0.0
 40
1.0
100
AcDbArc
 50
179.9999909999999
 51
270.000001
  0
ARC
  5
9D00
330
9B6B
100
AcDbEntity
  8
1
  6
Continuous
100
AcDbCircle
 10
46.0
 20
184.0
 30
0.0
 40
15.0
100
AcDbArc
 50
269.9999969999999
 51
90.00000300000001
  0
CIRCLE
  5
9D01
330
9B6B
100
AcDbEntity
  8
1
  6
Continuous
100
AcDbCircle
 10
34.0
 20
193.0
 30
0.0
 40
2.649999999999999
  0
CIRCLE
  5
9D02
330
9B6B
100
AcDbEntity
  8
1
  6
Continuous
100
AcDbCircle
 10
34.0
 20
175.0
 30
0.0
 40
2.649999999999999
  0
ARC
  5
9D03
330
9B6B
100
AcDbEntity
  8
1
  6
Continuous
100
AcDbCircle
 10
300.4999999999999
 20
338.5
 30
0.0
 40
1.5
100
AcDbArc
 50
164.173378
 51
270.000001
  0
ARC
  5
9D04
330
9B6B
100
AcDbEntity
  8
1
  6
Continuous
100
AcDbCircle
 10
173.899994
 20
507.0
 30
0.0
 40
2.9
100
AcDbArc
 50
179.9999909999999
 51
270.000001
  0
ARC
  5
9D05
330
9B6B
100
AcDbEntity
  8
1
  6
Continuous
100
AcDbCircle
 10
173.899994
 20
519.0999759999998
 30
0.0
 40
2.9
100
AcDbArc
 50
90.00000300000001
 51
180.000005
  0
ARC
  5
9D06
330
9B6B
100
AcDbEntity
  8
1
  6
Continuous
100
AcDbCircle
 10
25.5
 20
181.4999999999997
 30
0.0
 40
0.5
100
AcDbArc
 50
90.00000300000001
 51
180.000005
  0
ARC
  5
9D07
330
9B6B
100
AcDbEntity
  8
1
  6
Continuous
100
AcDbCircle
 10
25.5
 20
186.5
 30
0.0
 40
0.5
100
AcDbArc
 50
179.9999909999999
 51
270.000001
  0
CIRCLE
  5
9D08
330
9B6B
100
AcDbEntity
  8
1
  6
Continuous
100
AcDbCircle
 10
53.0
 20
184.0
 30
0.0
 40
3.0
  0
CIRCLE
  5
9D09
330
9B6B
100
AcDbEntity
  8
1
  6
Continuous
100
AcDbCircle
 10
53.0
 20
184.0
 30
0.0
 40
3.25
  0
CIRCLE
  5
9D0A
330
9B6B
100
AcDbEntity
  8
1
  6
Continuous
100
AcDbCircle
 10
53.0
 20
494.0
 30
0.0
 40
3.0
  0
CIRCLE
  5
9D0B
330
9B6B
100
AcDbEntity
  8
1
  6
Continuous
100
AcDbCircle
 10
53.0
 20
494.0
 30
0.0
 40
3.25
  0
ARC
  5
9D0C
330
9B6B
100
AcDbEntity
  8
1
  6
Continuous
100
AcDbCircle
 10
53.0
 20
501.0
 30
0.0
 40
15.0
100
AcDbArc
 50
179.9999909999999
 51
0.00001
  0
CIRCLE
  5
9D0D
330
9B6B
100
AcDbEntity
  8
1
  6
Continuous
100
AcDbCircle
 10
62.0
 20
513.0
 30
0.0
 40
2.649999999999999
  0
CIRCLE
  5
9D0E
330
9B6B
100
AcDbEntity
  8
1
  6
Continuous
100
AcDbCircle
 10
44.0
 20
513.0
 30
0.0
 40
2.649999999999999
  0
ARC
  5
9D0F
330
9B6B
100
AcDbEntity
  8
1
  6
Continuous
100
AcDbCircle
 10
55.5
 20
521.4999999999998
 30
0.0
 40
0.5
100
AcDbArc
 50
90.00000300000001
 51
180.000005
  0
ARC
  5
9D10
330
9B6B
100
AcDbEntity
  8
1
  6
Continuous
100
AcDbCircle
 10
50.5
 20
521.4999999999998
 30
0.0
 40
0.5
100
AcDbArc
 50
0.0
 51
90.00000300000001
  0
CIRCLE
  5
9D11
330
9B6B
100
AcDbEntity
  8
1
  6
Continuous
100
AcDbCircle
 10
193.0
 20
595.0
 30
0.0
 40
2.649999999999999
  0
CIRCLE
  5
9D12
330
9B6B
100
AcDbEntity
  8
1
  6
Continuous
100
AcDbCircle
 10
193.0
 20
613.0
 30
0.0
 40
2.649999999999999
  0
ARC
  5
9D13
330
9B6B
100
AcDbEntity
  8
1
  6
Continuous
100
AcDbCircle
 10
171.5
 20
606.5
 30
0.0
 40
0.5
100
AcDbArc
 50
179.9999909999999
 51
270.000001
  0
ARC
  5
9D14
330
9B6B
100
AcDbEntity
  8
1
  6
Continuous
100
AcDbCircle
 10
171.5
 20
601.5
 30
0.0
 40
0.5
100
AcDbArc
 50
90.00000300000001
 51
180.000005
  0
ARC
  5
9D15
330
9B6B
100
AcDbEntity
  8
1
  6
Continuous
100
AcDbCircle
 10
172.1999969999999
 20
617.0
 30
0.0
 40
2.9
100
AcDbArc
 50
179.9999909999999
 51
245.5566659999998
  0
ARC
  5
9D16
330
9B6B
100
AcDbEntity
  8
1
  6
Continuous
100
AcDbCircle
 10
172.1999969999999
 20
629.099976
 30
0.0
 40
2.9
100
AcDbArc
 50
90.00000300000001
 51
180.000005
  0
ARC
  5
9D17
330
9B6B
100
AcDbEntity
  8
1
  6
Continuous
100
AcDbCircle
 10
172.4
 20
58.9
 30
0.0
 40
2.9
100
AcDbArc
 50
269.9999969999999
 51
0.0
  0
ARC
  5
9D18
330
9B6B
100
AcDbEntity
  8
1
  6
Continuous
100
AcDbCircle
 10
172.1999969999999
 20
56.0
 30
0.0
 40
2.9
100
AcDbArc
 50
90.00000300000001
 51
180.000005
  0
ARC
  5
9D19
330
9B6B
100
AcDbEntity
  8
1
  6
Continuous
100
AcDbCircle
 10
179.299994
 20
44.000002
 30
0.0
 40
1.0
100
AcDbArc
 50
0.0
 51
90.00000300000001
  0
ARC
  5
9D1A
330
9B6B
100
AcDbEntity
  8
1
  6
Continuous
100
AcDbCircle
 10
172.299997
 20
50.99999799999999
 30
0.0
 40
1.0
100
AcDbArc
 50
0.0
 51
90.00000300000001
  0
ARC
  5
9D1B
330
9B6B
100
AcDbEntity
  8
1
  6
Continuous
100
AcDbCircle
 10
172.1999969999999
 20
43.900002
 30
0.0
 40
2.9
100
AcDbArc
 50
179.9999909999999
 51
270.000001
  0
ARC
  5
9D1C
330
9B6B
100
AcDbEntity
  8
1
  6
Continuous
100
AcDbCircle
 10
193.0
 20
60.0
 30
0.0
 40
2.649999999999999
100
AcDbArc
 50
145.5256089999998
 51
108.7085629999997
  0
ARC
  5
9D1D
330
9B6B
100
AcDbEntity
  8
1
  6
Continuous
100
AcDbCircle
 10
193.0
 20
78.0
 30
0.0
 40
2.649999999999999
100
AcDbArc
 50
251.2914259999998
 51
214.4743879999998
  0
ARC
  5
9D1E
330
9B6B
100
AcDbEntity
  8
1
  6
Continuous
100
AcDbCircle
 10
187.399994
 20
58.09999799999999
 30
0.0
 40
1.6
100
AcDbArc
 50
269.9999969999999
 51
0.0
  0
ARC
  5
9D1F
330
9B6B
100
AcDbEntity
  8
1
  6
Continuous
100
AcDbCircle
 10
178.600006
 20
58.09999799999999
 30
0.0
 40
1.6
100
AcDbArc
 50
179.9999909999999
 51
270.000001
  0
ARC
  5
9D20
330
9B6B
100
AcDbEntity
  8
1
  6
Continuous
100
AcDbCircle
 10
187.399994
 20
79.900002
 30
0.0
 40
1.6
100
AcDbArc
 50
0.0
 51
90.00000300000001
  0
ARC
  5
9D21
330
9B6B
100
AcDbEntity
  8
1
  6
Continuous
100
AcDbCircle
 10
178.600006
 20
79.900002
 30
0.0
 40
1.6
100
AcDbArc
 50
90.00000300000001
 51
180.000005
  0
ARC
  5
9D22
330
9B6B
100
AcDbEntity
  8
1
  6
Continuous
100
AcDbCircle
 10
185.300003
 20
77.900002
 30
0.0
 40
1.6
100
AcDbArc
 50
0.0
 51
90.00000300000001
  0
ARC
  5
9D23
330
9B6B
100
AcDbEntity
  8
1
  6
Continuous
100
AcDbCircle
 10
180.1999969999999
 20
77.900002
 30
0.0
 40
1.6
100
AcDbArc
 50
90.00000300000001
 51
180.000005
  0
ARC
  5
9D24
330
9B6B
100
AcDbEntity
  8
1
  6
Continuous
100
AcDbCircle
 10
196.3999939999999
 20
69.0
 30
0.0
 40
12.0
100
AcDbArc
 50
199.471225
 51
202.33164
  0
ARC
  5
9D25
330
9B6B
100
AcDbEntity
  8
1
  6
Continuous
100
AcDbCircle
 10
196.3999939999999
 20
69.0
 30
0.0
 40
12.09999999999999
100
AcDbArc
 50
199.303899
 51
203.4575279999998
  0
ARC
  5
9D26
330
9B6B
100
AcDbEntity
  8
1
  6
Continuous
100
AcDbCircle
 10
196.3999939999999
 20
69.0
 30
0.0
 40
12.09999999999999
100
AcDbArc
 50
156.542472
 51
160.696101
  0
ARC
  5
9D27
330
9B6B
100
AcDbEntity
  8
1
  6
Continuous
100
AcDbCircle
 10
196.3999939999999
 20
69.0
 30
0.0
 40
12.0
100
AcDbArc
 50
157.66836
 51
160.528775
  0
ARC
  5
9D28
330
9B6B
100
AcDbEntity
  8
1
  6
Continuous
100
AcDbCircle
 10
173.1999969999999
 20
347.0
 30
0.0
 40
12.0
100
AcDbArc
 50
337.6683549999999
 51
22.331645
  0
ARC
  5
9D29
330
9B6B
100
AcDbEntity
  8
1
  6
Continuous
100
AcDbCircle
 10
173.1999969999999
 20
347.0
 30
0.0
 40
12.09999999999999
100
AcDbArc
 50
336.5424669999999
 51
23.45753299999999
  0
CIRCLE
  5
9D2A
330
9B6B
100
AcDbEntity
  8
1
  6
Continuous
100
AcDbCircle
 10
434.700012
 20
193.0
 30
0.0
 40
2.649999999999999
  0
CIRCLE
  5
9D2B
330
9B6B
100
AcDbEntity
  8
1
  6
Continuous
100
AcDbCircle
 10
434.700012
 20
175.0
 30
0.0
 40
2.649999999999999
  0
ARC
  5
9D2C
330
9B6B
100
AcDbEntity
  8
1
  6
Continuous
100
AcDbCircle
 10
456.200012
 20
186.5
 30
0.0
 40
0.5
100
AcDbArc
 50
269.9999969999999
 51
0.0
  0
ARC
  5
9D2D
330
9B6B
100
AcDbEntity
  8
1
  6
Continuous
100
AcDbCircle
 10
456.200012
 20
181.4999999999997
 30
0.0
 40
0.5
100
AcDbArc
 50
0.0
 51
90.00000300000001
  0
ARC
  5
9D2E
330
9B6B
100
AcDbEntity
  8
5
  6
PHANTOM
 48
0.1
100
AcDbCircle
 10
183.800003
 20
355.5
 30
0.0
 40
0.5
100
AcDbArc
 50
0.0
 51
90.00000300000001
  0
ARC
  5
9D2F
330
9B6B
100
AcDbEntity
  8
5
  6
PHANTOM
 48
0.1
100
AcDbCircle
 10
180.800003
 20
355.450012
 30
0.0
 40
0.5
100
AcDbArc
 50
324.9031989999998
 51
180.000005
  0
ARC
  5
9D30
330
9B6B
100
AcDbEntity
  8
5
  6
PHANTOM
 48
0.1
100
AcDbCircle
 10
185.300003
 20
352.2877199999999
 30
0.0
 40
5.0
100
AcDbArc
 50
144.9032009999999
 51
180.000005
  0
ARC
  5
9D31
330
9B6B
100
AcDbEntity
  8
5
  6
PHANTOM
 48
0.1
100
AcDbCircle
 10
180.800003
 20
341.700012
 30
0.0
 40
0.5
100
AcDbArc
 50
179.9999909999999
 51
35.0968
  0
ARC
  5
9D32
330
9B6B
100
AcDbEntity
  8
5
  6
PHANTOM
 48
0.1
100
AcDbCircle
 10
183.800003
 20
341.700012
 30
0.0
 40
0.5
100
AcDbArc
 50
269.9999969999999
 51
0.0
  0
ARC
  5
9D33
330
9B6B
100
AcDbEntity
  8
5
  6
PHANTOM
 48
0.1
100
AcDbCircle
 10
185.300003
 20
344.862274
 30
0.0
 40
5.0
100
AcDbArc
 50
179.9999909999999
 51
215.096795
  0
ARC
  5
9D34
330
9B6B
100
AcDbEntity
  8
5
  6
PHANTOM
 48
0.1
100
AcDbCircle
 10
298.4999999999999
 20
342.700012
 30
0.0
 40
1.5
100
AcDbArc
 50
190.9912309999999
 51
269.9999969999999
  0
ARC
  5
9D35
330
9B6B
100
AcDbEntity
  8
5
  6
PHANTOM
 48
0.1
100
AcDbCircle
 10
298.4999999999999
 20
354.4999999999998
 30
0.0
 40
1.5
100
AcDbArc
 50
90.00000300000001
 51
169.008769
  0
ARC
  5
9D36
330
9B6B
100
AcDbEntity
  8
5
  6
PHANTOM
 48
0.1
100
AcDbCircle
 10
299.0
 20
348.600006
 30
0.0
 40
1.0
100
AcDbArc
 50
299.2945559999999
 51
60.70544399999999
  0
ARC
  5
9D37
330
9B6B
100
AcDbEntity
  8
5
  6
PHANTOM
 48
0.1
100
AcDbCircle
 10
301.935791
 20
343.36731
 30
0.0
 40
5.0
100
AcDbArc
 50
119.2945539999999
 51
190.991227
  0
ARC
  5
9D38
330
9B6B
100
AcDbEntity
  8
5
  6
PHANTOM
 48
0.1
100
AcDbCircle
 10
301.935791
 20
353.832703
 30
0.0
 40
5.0
100
AcDbArc
 50
169.008769
 51
240.705456
  0
ARC
  5
9D39
330
9B6B
100
AcDbEntity
  8
1
  6
Continuous
100
AcDbCircle
 10
65.5
 20
338.5
 30
0.0
 40
1.5
100
AcDbArc
 50
269.9999969999999
 51
15.826621
  0
ARC
  5
9D3A
330
9B6B
100
AcDbEntity
  8
5
  6
PHANTOM
 48
0.1
100
AcDbCircle
 10
67.5
 20
342.700012
 30
0.0
 40
1.5
100
AcDbArc
 50
269.9999969999999
 51
349.008775
  0
ARC
  5
9D3B
330
9B6B
100
AcDbEntity
  8
5
  6
PHANTOM
 48
0.1
100
AcDbCircle
 10
67.5
 20
354.4999999999998
 30
0.0
 40
1.5
100
AcDbArc
 50
10.991225
 51
90.00000300000001
  0
ARC
  5
9D3C
330
9B6B
100
AcDbEntity
  8
5
  6
PHANTOM
 48
0.1
100
AcDbCircle
 10
64.064201
 20
343.36731
 30
0.0
 40
5.0
100
AcDbArc
 50
349.008775
 51
60.70544399999999
  0
ARC
  5
9D3D
330
9B6B
100
AcDbEntity
  8
5
  6
PHANTOM
 48
0.1
100
AcDbCircle
 10
67.0
 20
348.600006
 30
0.0
 40
1.0
100
AcDbArc
 50
119.2945539999999
 51
240.705456
  0
ARC
  5
9D3E
330
9B6B
100
AcDbEntity
  8
5
  6
PHANTOM
 48
0.1
100
AcDbCircle
 10
64.064201
 20
353.832703
 30
0.0
 40
5.0
100
AcDbArc
 50
299.2945559999999
 51
10.991225
  0
ARC
  5
9D3F
330
9B6B
100
AcDbEntity
  8
1
  6
Continuous
100
AcDbCircle
 10
188.5993799999999
 20
366.000671
 30
0.0
 40
7.932788
100
AcDbArc
 50
153.986
 51
157.0559929999998
  0
ARC
  5
9D40
330
9B6B
100
AcDbEntity
  8
1
  6
Continuous
100
AcDbCircle
 10
181.356384
 20
369.0659479999998
 30
0.0
 40
0.066678
100
AcDbArc
 50
157.0559929999998
 51
270.000001
  0
ARC
  5
9D41
330
9B6B
100
AcDbEntity
  8
1
  6
Continuous
100
AcDbCircle
 10
180.927383
 20
367.732941
 30
0.0
 40
0.066678
100
AcDbArc
 50
167.2709909999998
 51
270.000001
  0
ARC
  5
9D42
330
9B6B
100
AcDbEntity
  8
1
  6
Continuous
100
AcDbCircle
 10
188.5993799999999
 20
366.000671
 30
0.0
 40
7.932788
100
AcDbArc
 50
164.7939959999999
 51
167.2709909999998
  0
ARC
  5
9D43
330
9B6B
100
AcDbEntity
  8
1
  6
Continuous
100
AcDbCircle
 10
188.5993799999999
 20
366.000671
 30
0.0
 40
7.932788
100
AcDbArc
 50
164.7419909999999
 51
164.7939959999999
  0
ARC
  5
9D44
330
9B6B
100
AcDbEntity
  8
1
  6
Continuous
100
AcDbCircle
 10
181.2684169999999
 20
367.999542
 30
0.0
 40
0.333392
100
AcDbArc
 50
90.00000300000001
 51
164.7419909999999
  0
ARC
  5
9D45
330
9B6B
100
AcDbEntity
  8
1
  6
Continuous
100
AcDbCircle
 10
184.731583
 20
367.999542
 30
0.0
 40
0.333392
100
AcDbArc
 50
15.25749699999999
 51
90.00000300000001
  0
ARC
  5
9D46
330
9B6B
100
AcDbEntity
  8
1
  6
Continuous
100
AcDbCircle
 10
177.40062
 20
366.000671
 30
0.0
 40
7.932788
100
AcDbArc
 50
13.26810299999998
 51
15.25749699999999
  0
ARC
  5
9D47
330
9B6B
100
AcDbEntity
  8
1
  6
Continuous
100
AcDbCircle
 10
177.40062
 20
366.000671
 30
0.0
 40
7.932788
100
AcDbArc
 50
12.7289
 51
13.26810299999998
  0
ARC
  5
9D48
330
9B6B
100
AcDbEntity
  8
1
  6
Continuous
100
AcDbCircle
 10
185.0726169999999
 20
367.732941
 30
0.0
 40
0.066678
100
AcDbArc
 50
269.9999969999999
 51
12.7289
  0
ARC
  5
9D49
330
9B6B
100
AcDbEntity
  8
1
  6
Continuous
100
AcDbCircle
 10
181.7705079999998
 20
369.33255
 30
0.0
 40
0.333392
100
AcDbArc
 50
90.00000300000001
 51
153.986
  0
ARC
  5
9D4A
330
9B6B
100
AcDbEntity
  8
1
  6
Continuous
100
AcDbCircle
 10
184.6449739999999
 20
369.0659479999998
 30
0.0
 40
0.066678
100
AcDbArc
 50
269.9999969999999
 51
22.94399999999999
  0
ARC
  5
9D4B
330
9B6B
100
AcDbEntity
  8
1
  6
Continuous
100
AcDbCircle
 10
177.40062
 20
366.000671
 30
0.0
 40
7.932788
100
AcDbArc
 50
22.94399999999999
 51
26.01439599999999
  0
ARC
  5
9D4C
330
9B6B
100
AcDbEntity
  8
1
  6
Continuous
100
AcDbCircle
 10
184.229492
 20
369.33255
 30
0.0
 40
0.333392
100
AcDbArc
 50
26.01439599999999
 51
90.00000300000001
  0
ARC
  5
9D4D
330
9B6B
100
AcDbEntity
  8
1
  6
Continuous
100
AcDbCircle
 10
183.0006709999999
 20
369.9997559999998
 30
0.0
 40
1.717978999999997
100
AcDbArc
 50
90.00000300000001
 51
144.4620119999999
  0
ARC
  5
9D4E
330
9B6B
100
AcDbEntity
  8
1
  6
Continuous
100
AcDbCircle
 10
183.0006709999999
 20
369.9997559999998
 30
0.0
 40
1.717978999999997
100
AcDbArc
 50
35.537703
 51
76.53739899999997
  0
ARC
  5
9D4F
330
9B6B
100
AcDbEntity
  8
1
  6
Continuous
100
AcDbCircle
 10
188.5993799999999
 20
366.000671
 30
0.0
 40
7.932788
100
AcDbArc
 50
187.792995
 51
190.104003
  0
ARC
  5
9D50
330
9B6B
100
AcDbEntity
  8
1
  6
Continuous
100
AcDbCircle
 10
180.8055879999997
 20
364.9328919999998
 30
0.0
 40
0.066678
100
AcDbArc
 50
90.00000300000001
 51
187.7930049999999
  0
ARC
  5
9D51
330
9B6B
100
AcDbEntity
  8
1
  6
Continuous
100
AcDbCircle
 10
181.1181949999999
 20
364.6662899999999
 30
0.0
 40
0.333392
100
AcDbArc
 50
190.104003
 51
269.9999969999999
  0
ARC
  5
9D52
330
9B6B
100
AcDbEntity
  8
1
  6
Continuous
100
AcDbCircle
 10
185.1944119999997
 20
364.9328919999998
 30
0.0
 40
0.066678
100
AcDbArc
 50
352.207003
 51
90.00000300000001
  0
ARC
  5
9D53
330
9B6B
100
AcDbEntity
  8
1
  6
Continuous
100
AcDbCircle
 10
177.40062
 20
366.000671
 30
0.0
 40
7.932788
100
AcDbArc
 50
349.8960009999998
 51
352.207003
  0
ARC
  5
9D54
330
9B6B
100
AcDbEntity
  8
1
  6
Continuous
100
AcDbCircle
 10
184.881805
 20
364.6662899999999
 30
0.0
 40
0.333392
100
AcDbArc
 50
269.9999969999999
 51
349.8960009999998
  0
ARC
  5
9D55
330
9B6B
100
AcDbEntity
  8
1
  6
Continuous
100
AcDbCircle
 10
183.0006709999999
 20
362.000244
 30
0.0
 40
1.717978999999997
100
AcDbArc
 50
215.5380019999999
 51
225.6990009999999
  0
ARC
  5
9D56
330
9B6B
100
AcDbEntity
  8
1
  6
Continuous
100
AcDbCircle
 10
183.0006709999999
 20
362.000244
 30
0.0
 40
1.717978999999997
100
AcDbArc
 50
242.2499979999999
 51
324.4619999999998
  0
ARC
  5
9D57
330
9B6B
100
AcDbEntity
  8
1
  6
Continuous
100
AcDbCircle
 10
183.333603
 20
362.66745
 30
0.0
 40
0.333392
100
AcDbArc
 50
90.00000300000001
 51
270.000001
  0
ARC
  5
9D58
330
9B6B
100
AcDbEntity
  8
1
  6
Continuous
100
AcDbCircle
 10
177.40062
 20
366.000671
 30
0.0
 40
8.599396
100
AcDbArc
 50
324.4619999999998
 51
35.537703
  0
ARC
  5
9D59
330
9B6B
100
AcDbEntity
  8
1
  6
Continuous
100
AcDbCircle
 10
188.5993799999999
 20
366.000671
 30
0.0
 40
8.599396
100
AcDbArc
 50
144.461998
 51
215.5379979999999
  0
ARC
  5
9D5A
330
9B6B
100
AcDbEntity
  8
1
  6
Continuous
100
AcDbCircle
 10
451.8999939999998
 20
504.100006
 30
0.0
 40
2.9
100
AcDbArc
 50
90.00000300000001
 51
180.000005
  0
ARC
  5
9D5B
330
9B6B
100
AcDbEntity
  8
1
  6
Continuous
100
AcDbCircle
 10
452.1000059999998
 20
507.0
 30
0.0
 40
2.9
100
AcDbArc
 50
269.9999969999999
 51
0.0
  0
ARC
  5
9D5C
330
9B6B
100
AcDbEntity
  8
1
  6
Continuous
100
AcDbCircle
 10
444.999994
 20
518.9999759999998
 30
0.0
 40
1.0
100
AcDbArc
 50
180.000005
 51
270.000001
  0
ARC
  5
9D5D
330
9B6B
100
AcDbEntity
  8
1
  6
Continuous
100
AcDbCircle
 10
452.000006
 20
511.999994
 30
0.0
 40
1.0
100
AcDbArc
 50
180.000005
 51
270.000001
  0
ARC
  5
9D5E
330
9B6B
100
AcDbEntity
  8
1
  6
Continuous
100
AcDbCircle
 10
452.1000059999998
 20
519.0999759999998
 30
0.0
 40
2.9
100
AcDbArc
 50
0.0
 51
90.00000300000001
  0
ARC
  5
9D5F
330
9B6B
100
AcDbEntity
  8
1
  6
Continuous
100
AcDbCircle
 10
53.0
 20
513.000024
 30
0.0
 40
2.0
100
AcDbArc
 50
179.9999909999999
 51
0.00001
  0
ARC
  5
9D60
330
9B6B
100
AcDbEntity
  8
1
  6
Continuous
100
AcDbCircle
 10
44.24999999999999
 20
368.5
 30
0.0
 40
4.25
100
AcDbArc
 50
151.9275179999999
 51
208.0724919999999
  0
ARC
  5
9D61
330
9B6B
100
AcDbEntity
  8
1
  6
Continuous
100
AcDbCircle
 10
44.24999999999999
 20
358.4999999999998
 30
0.0
 40
4.25
100
AcDbArc
 50
151.9275179999999
 51
208.0724919999999
  0
ARC
  5
9D62
330
9B6B
100
AcDbEntity
  8
1
  6
Continuous
100
AcDbCircle
 10
321.75
 20
368.5
 30
0.0
 40
4.25
100
AcDbArc
 50
331.9275129999998
 51
28.072487
  0
ARC
  5
9D63
330
9B6B
100
AcDbEntity
  8
1
  6
Continuous
100
AcDbCircle
 10
321.75
 20
358.4999999999998
 30
0.0
 40
4.25
100
AcDbArc
 50
331.9275129999998
 51
28.072487
  0
CIRCLE
  5
9D64
330
9B6B
100
AcDbEntity
  8
1
  6
Continuous
100
AcDbCircle
 10
443.0
 20
368.5
 30
0.0
 40
2.0
  0
CIRCLE
  5
9D65
330
9B6B
100
AcDbEntity
  8
1
  6
Continuous
100
AcDbCircle
 10
443.0
 20
358.4999999999998
 30
0.0
 40
2.0
  0
ARC
  5
9D66
330
9B6B
100
AcDbEntity
  8
1
  6
Continuous
100
AcDbCircle
 10
180.000006
 20
604.0
 30
0.0
 40
2.0
100
AcDbArc
 50
269.9999969999999
 51
89.99998900000001
  0
ARC
  5
9D67
330
9B6B
100
AcDbEntity
  8
1
  6
Continuous
100
AcDbCircle
 10
33.99999799999999
 20
184.0
 30
0.0
 40
2.0
100
AcDbArc
 50
269.9999969999999
 51
89.99998900000001
  0
ARC
  5
9D68
330
9B6B
100
AcDbEntity
  8
1
  6
Continuous
100
AcDbCircle
 10
447.7000059999999
 20
184.0
 30
0.0
 40
2.0
100
AcDbArc
 50
90.00000300000001
 51
270.000001
  0
ARC
  5
9D69
330
9B6B
100
AcDbEntity
  8
1
  6
Continuous
100
AcDbCircle
 10
53.0
 20
494.0
 30
0.0
 40
8.849999999999997
100
AcDbArc
 50
232.03228
 51
307.967715
  0
TEXT
  5
9D6A
330
9B6B
100
AcDbEntity
  8
6
  6
Continuous
100
AcDbText
 10
27.97945
 20
10.0487
 30
0.0
 40
1.399999999999999
  1
6
 41
1.069393
100
AcDbText
  0
TEXT
  5
9D6B
330
9B6B
100
AcDbEntity
  8
1
  6
Continuous
100
AcDbText
 10
17.97945
 20
10.0487
 30
0.0
 40
1.399999999999999
  1
1
 41
1.069393
100
AcDbText
  0
TEXT
  5
9D6C
330
9B6B
100
AcDbEntity
  8
1
  6
Continuous
100
AcDbText
 10
9.99995
 20
10.0
 30
0.0
 40
1.399999999999999
  1
LAYER
 41
1.009912999999996
100
AcDbText
  0
TEXT
  5
9D6D
330
9B6B
100
AcDbEntity
  8
2
  6
Continuous
100
AcDbText
 10
19.97944999999998
 20
10.0487
 30
0.0
 40
1.399999999999999
  1
2
 41
1.069393
100
AcDbText
  0
TEXT
  5
9D6E
330
9B6B
100
AcDbEntity
  8
3
  6
DASHED
100
AcDbText
 10
21.97945
 20
10.0487
 30
0.0
 40
1.399999999999999
  1
3
 41
1.069393
100
AcDbText
  0
TEXT
  5
9D6F
330
9B6B
100
AcDbEntity
  8
4
  6
CENTER
100
AcDbText
 10
23.97944999999999
 20
10.0487
 30
0.0
 40
1.399999999999999
  1
4
 41
1.069393
100
AcDbText
  0
TEXT
  5
9D70
330
9B6B
100
AcDbEntity
  8
5
  6
PHANTOM
100
AcDbText
 10
25.97945
 20
10.0487
 30
0.0
 40
1.399999999999999
  1
5
 41
1.069393
100
AcDbText
  0
TEXT
  5
9D71
330
9B6B
100
AcDbEntity
  8
7
  6
Continuous
100
AcDbText
 10
10.00005
 20
26.0
 30
0.0
 40
3.0
  1
CODE No.5127
 41
1.003962999999999
100
AcDbText
  0
TEXT
  5
9D72
330
9B6B
100
AcDbEntity
  8
7
  6
Continuous
100
AcDbText
 10
10.00005
 20
18.0
 30
0.0
 40
3.0
  1
TYPE No.TM-70A-1R
 41
1.002774
100
AcDbText
  0
TEXT
  5
9D73
330
9B6B
100
AcDbEntity
  8
7
  6
Continuous
100
AcDbText
 10
29.97944999999999
 20
10.0487
 30
0.0
 40
1.399999999999999
  1
7
 41
1.069393
100
AcDbText
  0
LINE
  5
9D74
330
9B6B
100
AcDbEntity
  8
1
  6
Continuous
100
AcDbLine
 10
180.299994
 20
44.000002
 30
0.0
 11
180.299994
 21
43.900002
 31
0.0
  0
LINE
  5
9D75
330
9B6B
100
AcDbEntity
  8
1
  6
Continuous
100
AcDbLine
 10
172.299997
 20
51.999998
 30
0.0
 11
172.1999969999999
 21
51.999998
 31
0.0
  0
LINE
  5
9D76
330
9B6B
100
AcDbEntity
  8
1
  6
Continuous
100
AcDbLine
 10
452.000006
 20
510.999994
 30
0.0
 11
452.1000059999998
 21
510.999994
 31
0.0
  0
LINE
  5
9D77
330
9B6B
100
AcDbEntity
  8
1
  6
Continuous
100
AcDbLine
 10
443.9999939999998
 20
518.9999749999998
 30
0.0
 11
443.9999939999998
 21
519.0999759999998
 31
0.0
  0
ARC
  5
9D78
330
9B6B
100
AcDbEntity
  8
1
  6
Continuous
100
AcDbCircle
 10
181.000006
 20
518.9999759999998
 30
0.0
 40
1.0
100
AcDbArc
 50
269.999999
 51
359.999995
  0
LINE
  5
9D79
330
9B6B
100
AcDbEntity
  8
1
  6
Continuous
100
AcDbLine
 10
182.000006
 20
518.9999749999998
 30
0.0
 11
182.000006
 21
519.0999759999998
 31
0.0
  0
LINE
  5
9D7A
330
9B6B
100
AcDbEntity
  8
1
  6
Continuous
100
AcDbLine
 10
181.000006
 20
517.9999759999998
 30
0.0
 11
174.9999939999999
 21
517.9999759999998
 31
0.0
  0
LINE
  5
9D7B
330
9B6B
100
AcDbEntity
  8
1
  6
Continuous
100
AcDbLine
 10
174.9999939999999
 20
511.999994
 30
0.0
 11
174.9999939999999
 21
517.9999759999998
 31
0.0
  0
ARC
  5
9D7C
330
9B6B
100
AcDbEntity
  8
1
  6
Continuous
100
AcDbCircle
 10
173.9999939999999
 20
511.999994
 30
0.0
 40
1.0
100
AcDbArc
 50
269.999999
 51
359.999995
  0
LINE
  5
9D7D
330
9B6B
100
AcDbEntity
  8
1
  6
Continuous
100
AcDbLine
 10
173.9999939999999
 20
510.999994
 30
0.0
 11
173.899994
 21
510.999994
 31
0.0
  0
LINE
  5
9D7E
330
9B6B
100
AcDbEntity
  8
1
  6
Continuous
100
AcDbLine
 10
180.3000089999999
 20
628.9999749999997
 30
0.0
 11
180.3000089999999
 21
629.099976
 31
0.0
  0
ARC
  5
9D7F
330
9B6B
100
AcDbEntity
  8
1
  6
Continuous
100
AcDbCircle
 10
179.3000089999999
 20
628.9999759999997
 30
0.0
 40
1.0
100
AcDbArc
 50
269.999999
 51
359.999995
  0
LINE
  5
9D80
330
9B6B
100
AcDbEntity
  8
1
  6
Continuous
100
AcDbLine
 10
179.3000089999999
 20
627.9999759999997
 30
0.0
 11
173.2999969999999
 21
627.9999759999997
 31
0.0
  0
LINE
  5
9D81
330
9B6B
100
AcDbEntity
  8
1
  6
Continuous
100
AcDbLine
 10
173.2999969999999
 20
621.999994
 30
0.0
 11
173.2999969999999
 21
627.9999759999997
 31
0.0
  0
LINE
  5
9D82
330
9B6B
100
AcDbEntity
  8
1
  6
Continuous
100
AcDbLine
 10
172.299997
 20
620.999994
 30
0.0
 11
172.1999969999999
 21
620.999994
 31
0.0
  0
ARC
  5
9D83
330
9B6B
100
AcDbEntity
  8
1
  6
Continuous
100
AcDbCircle
 10
172.299997
 20
621.999994
 30
0.0
 40
1.0
100
AcDbArc
 50
269.999999
 51
359.999995
  0
CIRCLE
  5
9D84
330
9B6B
100
AcDbEntity
  8
5
  6
PHANTOM
 48
0.2
100
AcDbCircle
 10
304.0
 20
402.0
 30
0.0
 40
2.649999999999999
  0
LINE
  5
9D85
330
9B6B
100
AcDbEntity
  8
4
  6
CENTER
 48
0.2
100
AcDbLine
 10
325.4999999999999
 20
383.0
 30
0.0
 11
300.4999999999999
 21
383.0
 31
0.0
  0
LINE
  5
9D86
330
9B6B
100
AcDbEntity
  8
4
  6
CENTER
 48
0.2
100
AcDbLine
 10
308.6499939999999
 20
402.0
 30
0.0
 11
299.350006
 21
402.0
 31
0.0
  0
LINE
  5
9D87
330
9B6B
100
AcDbEntity
  8
5
  6
PHANTOM
 48
0.2
100
AcDbLine
 10
323.4999999999998
 20
393.0
 30
0.0
 11
302.4999999999999
 21
393.0
 31
0.0
  0
LINE
  5
9D88
330
9B6B
100
AcDbEntity
  8
5
  6
PHANTOM
 48
0.2
100
AcDbLine
 10
328.0
 20
396.0
 30
0.0
 11
298.0
 21
396.0
 31
0.0
  0
LINE
  5
9D89
330
9B6B
100
AcDbEntity
  8
5
  6
PHANTOM
 48
0.2
100
AcDbLine
 10
328.0
 20
408.099976
 30
0.0
 11
298.0
 21
408.099976
 31
0.0
  0
LINE
  5
9D8A
330
9B6B
100
AcDbEntity
  8
5
  6
PHANTOM
 48
0.2
100
AcDbLine
 10
328.0
 20
411.0
 30
0.0
 11
298.0
 21
411.0
 31
0.0
  0
LINE
  5
9D8B
330
9B6B
100
AcDbEntity
  8
4
  6
CENTER
 48
0.2
100
AcDbLine
 10
304.0
 20
397.350006
 30
0.0
 11
304.0
 21
416.0
 31
0.0
  0
ARC
  5
9D8C
330
9B6B
100
AcDbEntity
  8
5
  6
PHANTOM
 48
0.2
100
AcDbCircle
 10
313.0
 20
390.0
 30
0.0
 40
15.0
100
AcDbArc
 50
179.9999909999999
 51
225.5729939999999
  0
LINE
  5
9D8D
330
9B6B
100
AcDbEntity
  8
5
  6
PHANTOM
 48
0.2
100
AcDbLine
 10
298.0
 20
390.0
 30
0.0
 11
298.0
 21
411.0
 31
0.0
  0
LINE
  5
9D8E
330
9B6B
100
AcDbEntity
  8
4
  6
CENTER
 48
0.2
100
AcDbLine
 10
322.0
 20
397.350006
 30
0.0
 11
322.0
 21
416.0
 31
0.0
  0
CIRCLE
  5
9D8F
330
9B6B
100
AcDbEntity
  8
5
  6
PHANTOM
 48
0.2
100
AcDbCircle
 10
313.0
 20
383.0
 30
0.0
 40
7.5
  0
CIRCLE
  5
9D90
330
9B6B
100
AcDbEntity
  8
5
  6
PHANTOM
 48
0.2
100
AcDbCircle
 10
313.0
 20
383.0
 30
0.0
 40
6.5
  0
ARC
  5
9D91
330
9B6B
100
AcDbEntity
  8
5
  6
PHANTOM
 48
0.2
100
AcDbCircle
 10
313.0
 20
390.0
 30
0.0
 40
15.0
100
AcDbArc
 50
314.427004
 51
0.0
  0
CIRCLE
  5
9D92
330
9B6B
100
AcDbEntity
  8
5
  6
PHANTOM
 48
0.2
100
AcDbCircle
 10
322.0
 20
402.0
 30
0.0
 40
2.649999999999999
  0
LINE
  5
9D93
330
9B6B
100
AcDbEntity
  8
4
  6
CENTER
 48
0.2
100
AcDbLine
 10
326.649994
 20
402.0
 30
0.0
 11
317.350006
 21
402.0
 31
0.0
  0
ARC
  5
9D94
330
9B6B
100
AcDbEntity
  8
5
  6
PHANTOM
 48
0.1
100
AcDbCircle
 10
311.0
 20
407.9999759999997
 30
0.0
 40
1.0
100
AcDbArc
 50
179.9999909999999
 51
270.000001
  0
LINE
  5
9D95
330
9B6B
100
AcDbEntity
  8
5
  6
PHANTOM
 48
0.1
100
AcDbLine
 10
315.0
 20
406.9999759999998
 30
0.0
 11
311.0
 21
406.9999759999998
 31
0.0
  0
ARC
  5
9D96
330
9B6B
100
AcDbEntity
  8
5
  6
PHANTOM
 48
0.1
100
AcDbCircle
 10
315.0
 20
407.9999759999997
 30
0.0
 40
1.0
100
AcDbArc
 50
269.9999969999999
 51
0.0
  0
LINE
  5
9D97
330
9B6B
100
AcDbEntity
  8
5
  6
PHANTOM
 48
0.1
100
AcDbLine
 10
310.0
 20
403.0000239999997
 30
0.0
 11
310.0
 21
408.099976
 31
0.0
  0
LINE
  5
9D98
330
9B6B
100
AcDbEntity
  8
5
  6
PHANTOM
 48
0.1
100
AcDbLine
 10
316.0
 20
403.0000239999997
 30
0.0
 11
316.0
 21
408.099976
 31
0.0
  0
ARC
  5
9D99
330
9B6B
100
AcDbEntity
  8
5
  6
PHANTOM
 48
0.1
100
AcDbCircle
 10
313.0
 20
403.0000239999997
 30
0.0
 40
3.0
100
AcDbArc
 50
179.9999909999999
 51
0.00001
  0
LINE
  5
9D9A
330
9B6B
100
AcDbEntity
  8
5
  6
PHANTOM
 48
0.2
100
AcDbLine
 10
328.0
 20
390.0
 30
0.0
 11
328.0
 21
411.0
 31
0.0
  0
ARC
  5
9D9B
330
9B6B
100
AcDbEntity
  8
1
  6
Continuous
100
AcDbCircle
 10
199.0
 20
82.0
 30
0.0
 40
2.0
100
AcDbArc
 50
0.0
 51
90.0
  0
ARC
  5
9D9C
330
9B6B
100
AcDbEntity
  8
1
  6
Continuous
100
AcDbCircle
 10
199.0
 20
56.0
 30
0.0
 40
2.0
100
AcDbArc
 50
270.0
 51
0.0
  0
LINE
  5
9D9D
330
9B6B
100
AcDbEntity
  8
4
  6
CENTER
 48
0.2
100
AcDbLine
 10
447.1000059999998
 20
402.0
 30
0.0
 11
460.149994
 21
402.0
 31
0.0
  0
LINE
  5
9D9E
330
9B6B
100
AcDbEntity
  8
4
  6
CENTER
 48
0.2
100
AcDbLine
 10
428.496094
 20
383.0
 30
0.0
 11
461.6286319999998
 21
383.0
 31
0.0
  0
LINE
  5
9D9F
330
9B6B
100
AcDbEntity
  8
4
  6
CENTER
 48
0.2
100
AcDbLine
 10
433.0
 20
403.0999759999998
 30
0.0
 11
433.0
 21
416.0
 31
0.0
  0
LINE
  5
9DA0
330
9B6B
100
AcDbEntity
  8
5
  6
PHANTOM
 48
0.2
100
AcDbLine
 10
437.1000059999998
 20
375.4999999999999
 30
0.0
 11
437.1000059999998
 21
390.5
 31
0.0
  0
LINE
  5
9DA1
330
9B6B
100
AcDbEntity
  8
5
  6
PHANTOM
 48
0.2
100
AcDbLine
 10
451.8999939999998
 20
375.0
 30
0.0
 11
451.8999939999998
 21
393.100006
 31
0.0
  0
LINE
  5
9DA2
330
9B6B
100
AcDbEntity
  8
5
  6
PHANTOM
 48
0.2
100
AcDbLine
 10
436.1000059999998
 20
376.5
 30
0.0
 11
436.1000059999998
 21
389.4999999999998
 31
0.0
  0
LINE
  5
9DA3
330
9B6B
100
AcDbEntity
  8
5
  6
PHANTOM
 48
0.2
100
AcDbLine
 10
449.0
 20
374.5
 30
0.0
 11
449.0
 21
393.100006
 31
0.0
  0
LINE
  5
9DA4
330
9B6B
100
AcDbEntity
  8
5
  6
PHANTOM
 48
0.2
100
AcDbLine
 10
437.1000059999998
 20
375.4999999999999
 30
0.0
 11
439.1000059999998
 21
375.4999999999999
 31
0.0
  0
LINE
  5
9DA5
330
9B6B
100
AcDbEntity
  8
5
  6
PHANTOM
 48
0.2
100
AcDbLine
 10
436.0999759999998
 20
376.5
 30
0.0
 11
437.099976
 21
375.4999999999999
 31
0.0
  0
LINE
  5
9DA6
330
9B6B
100
AcDbEntity
  8
5
  6
PHANTOM
 48
0.1
100
AcDbLine
 10
452.6499629999998
 20
382.999969
 30
0.0
 11
453.399963
 21
382.499969
 31
0.0
  0
LINE
  5
9DA7
330
9B6B
100
AcDbEntity
  8
5
  6
PHANTOM
 48
0.1
100
AcDbLine
 10
451.8999939999998
 20
380.0
 30
0.0
 11
453.399994
 21
380.0
 31
0.0
  0
LINE
  5
9DA8
330
9B6B
100
AcDbEntity
  8
5
  6
PHANTOM
 48
0.1
100
AcDbLine
 10
451.8999939999998
 20
386.0
 30
0.0
 11
453.399994
 21
386.0
 31
0.0
  0
LINE
  5
9DA9
330
9B6B
100
AcDbEntity
  8
5
  6
PHANTOM
 48
0.1
100
AcDbLine
 10
453.399994
 20
383.4999999999998
 30
0.0
 11
453.399994
 21
386.0
 31
0.0
  0
LINE
  5
9DAA
330
9B6B
100
AcDbEntity
  8
5
  6
PHANTOM
 48
0.2
100
AcDbLine
 10
449.0
 20
375.0
 30
0.0
 11
451.8999939999998
 21
375.0
 31
0.0
  0
LINE
  5
9DAB
330
9B6B
100
AcDbEntity
  8
5
  6
PHANTOM
 48
0.1
100
AcDbLine
 10
453.399994
 20
383.4999999999998
 30
0.0
 11
452.6500239999998
 21
383.0
 31
0.0
  0
LINE
  5
9DAC
330
9B6B
100
AcDbEntity
  8
5
  6
PHANTOM
 48
0.1
100
AcDbLine
 10
453.399994
 20
380.0
 30
0.0
 11
453.399994
 21
382.5
 31
0.0
  0
LINE
  5
9DAD
330
9B6B
100
AcDbEntity
  8
5
  6
PHANTOM
 48
0.2
100
AcDbLine
 10
437.1000059999998
 20
390.5
 30
0.0
 11
439.1000059999998
 21
390.5
 31
0.0
  0
LINE
  5
9DAE
330
9B6B
100
AcDbEntity
  8
5
  6
PHANTOM
 48
0.2
100
AcDbLine
 10
425.0
 20
411.0
 30
0.0
 11
452.1000059999998
 21
411.0
 31
0.0
  0
LINE
  5
9DAF
330
9B6B
100
AcDbEntity
  8
5
  6
PHANTOM
 48
0.2
100
AcDbLine
 10
425.0
 20
408.099976
 30
0.0
 11
452.1000059999998
 21
408.099976
 31
0.0
  0
LINE
  5
9DB0
330
9B6B
100
AcDbEntity
  8
5
  6
PHANTOM
 48
0.2
100
AcDbLine
 10
436.0999759999998
 20
389.499969
 30
0.0
 11
437.1000059999998
 21
390.5
 31
0.0
  0
LINE
  5
9DB1
330
9B6B
100
AcDbEntity
  8
5
  6
PHANTOM
 48
0.2
100
AcDbLine
 10
425.0
 20
408.099976
 30
0.0
 11
425.0
 21
411.0
 31
0.0
  0
LINE
  5
9DB2
330
9B6B
100
AcDbEntity
  8
5
  6
PHANTOM
 48
0.1
100
AcDbLine
 10
451.000006
 20
400.999994
 30
0.0
 11
451.000006
 21
406.9999759999998
 31
0.0
  0
LINE
  5
9DB3
330
9B6B
100
AcDbEntity
  8
5
  6
PHANTOM
 48
0.1
100
AcDbLine
 10
444.999994
 20
406.9999759999998
 30
0.0
 11
451.000006
 21
406.9999759999998
 31
0.0
  0
ARC
  5
9DB4
330
9B6B
100
AcDbEntity
  8
5
  6
PHANTOM
 48
0.1
100
AcDbCircle
 10
452.000006
 20
400.999994
 30
0.0
 40
1.0
100
AcDbArc
 50
180.000005
 51
270.000001
  0
LINE
  5
9DB5
330
9B6B
100
AcDbEntity
  8
5
  6
PHANTOM
 48
0.2
100
AcDbLine
 10
452.000006
 20
399.999994
 30
0.0
 11
452.1000059999998
 21
399.999994
 31
0.0
  0
ARC
  5
9DB6
330
9B6B
100
AcDbEntity
  8
5
  6
PHANTOM
 48
0.1
100
AcDbCircle
 10
444.999994
 20
407.9999759999997
 30
0.0
 40
1.0
100
AcDbArc
 50
180.000005
 51
270.000001
  0
LINE
  5
9DB7
330
9B6B
100
AcDbEntity
  8
5
  6
PHANTOM
 48
0.2
100
AcDbLine
 10
443.9999939999998
 20
407.9999749999998
 30
0.0
 11
443.9999939999998
 21
408.099976
 31
0.0
  0
ARC
  5
9DB8
330
9B6B
100
AcDbEntity
  8
5
  6
PHANTOM
 48
0.2
100
AcDbCircle
 10
452.1000059999998
 20
408.099976
 30
0.0
 40
2.9
100
AcDbArc
 50
0.0
 51
90.00000300000001
  0
ARC
  5
9DB9
330
9B6B
100
AcDbEntity
  8
5
  6
PHANTOM
 48
0.2
100
AcDbCircle
 10
452.1000059999998
 20
396.0
 30
0.0
 40
2.9
100
AcDbArc
 50
269.9999969999999
 51
0.0
  0
ARC
  5
9DBA
330
9B6B
100
AcDbEntity
  8
5
  6
PHANTOM
 48
0.2
100
AcDbCircle
 10
451.8999939999998
 20
393.100006
 30
0.0
 40
2.9
100
AcDbArc
 50
90.00000300000001
 51
180.000005
  0
LINE
  5
9DBB
330
9B6B
100
AcDbEntity
  8
5
  6
PHANTOM
 48
0.2
100
AcDbLine
 10
452.1000059999998
 20
396.0
 30
0.0
 11
452.1000059999998
 21
408.099976
 31
0.0
  0
LINE
  5
9DBC
330
9B6B
100
AcDbEntity
  8
5
  6
PHANTOM
 48
0.1
100
AcDbLine
 10
439.1000059999998
 20
393.0
 30
0.0
 11
447.3999939999997
 21
393.0
 31
0.0
  0
LINE
  5
9DBD
330
9B6B
100
AcDbEntity
  8
5
  6
PHANTOM
 48
0.2
100
AcDbLine
 10
447.3999939999997
 20
391.8500059999999
 30
0.0
 11
449.0
 21
391.8500059999999
 31
0.0
  0
LINE
  5
9DBE
330
9B6B
100
AcDbEntity
  8
5
  6
PHANTOM
 48
0.2
100
AcDbLine
 10
455.0
 20
396.0
 30
0.0
 11
455.0
 21
408.099976
 31
0.0
  0
LINE
  5
9DBF
330
9B6B
100
AcDbEntity
  8
5
  6
PHANTOM
 48
0.2
100
AcDbLine
 10
451.8999939999998
 20
393.100006
 30
0.0
 11
452.1000059999998
 21
393.100006
 31
0.0
  0
LINE
  5
9DC0
330
9B6B
100
AcDbEntity
  8
5
  6
PHANTOM
 48
0.2
100
AcDbLine
 10
451.8999939999998
 20
396.0
 30
0.0
 11
452.1000059999998
 21
396.0
 31
0.0
  0
LINE
  5
9DC1
330
9B6B
100
AcDbEntity
  8
4
  6
CENTER
 48
0.2
100
AcDbLine
 10
62.0
 20
416.0
 30
0.0
 11
62.0
 21
397.350006
 31
0.0
  0
LINE
  5
9DC2
330
9B6B
100
AcDbEntity
  8
4
  6
CENTER
 48
0.2
100
AcDbLine
 10
44.0
 20
416.0
 30
0.0
 11
44.0
 21
397.350006
 31
0.0
  0
ARC
  5
9DC3
330
9B6B
100
AcDbEntity
  8
5
  6
PHANTOM
 48
0.2
100
AcDbCircle
 10
53.0
 20
390.0
 30
0.0
 40
15.0
100
AcDbArc
 50
179.9999909999999
 51
0.00001
  0
LINE
  5
9DC4
330
9B6B
100
AcDbEntity
  8
5
  6
PHANTOM
 48
0.2
100
AcDbLine
 10
38.0
 20
393.100006
 30
0.0
 11
68.0
 21
393.100006
 31
0.0
  0
LINE
  5
9DC5
330
9B6B
100
AcDbEntity
  8
5
  6
PHANTOM
 48
0.2
100
AcDbLine
 10
38.0
 20
411.0
 30
0.0
 11
68.0
 21
411.0
 31
0.0
  0
LINE
  5
9DC6
330
9B6B
100
AcDbEntity
  8
5
  6
PHANTOM
 48
0.2
100
AcDbLine
 10
38.0
 20
411.0
 30
0.0
 11
38.0
 21
390.0
 31
0.0
  0
LINE
  5
9DC7
330
9B6B
100
AcDbEntity
  8
4
  6
CENTER
 48
0.2
100
AcDbLine
 10
59.5
 20
383.0
 30
0.0
 11
46.5
 21
383.0
 31
0.0
  0
CIRCLE
  5
9DC8
330
9B6B
100
AcDbEntity
  8
5
  6
PHANTOM
 48
0.2
100
AcDbCircle
 10
53.0
 20
383.0
 30
0.0
 40
3.25
  0
CIRCLE
  5
9DC9
330
9B6B
100
AcDbEntity
  8
5
  6
PHANTOM
 48
0.2
100
AcDbCircle
 10
53.0
 20
383.0
 30
0.0
 40
3.0
  0
LINE
  5
9DCA
330
9B6B
100
AcDbEntity
  8
5
  6
PHANTOM
 48
0.1
100
AcDbLine
 10
53.5
 20
383.4999999999998
 30
0.0
 11
53.5
 21
385.958038
 31
0.0
  0
LINE
  5
9DCB
330
9B6B
100
AcDbEntity
  8
5
  6
PHANTOM
 48
0.1
100
AcDbLine
 10
52.5
 20
383.4999999999998
 30
0.0
 11
52.5
 21
385.958038
 31
0.0
  0
LINE
  5
9DCC
330
9B6B
100
AcDbEntity
  8
5
  6
PHANTOM
 48
0.1
100
AcDbLine
 10
53.5
 20
383.4999999999998
 30
0.0
 11
55.958038
 21
383.4999999999998
 31
0.0
  0
LINE
  5
9DCD
330
9B6B
100
AcDbEntity
  8
5
  6
PHANTOM
 48
0.1
100
AcDbLine
 10
53.5
 20
382.5
 30
0.0
 11
55.958038
 21
382.5
 31
0.0
  0
LINE
  5
9DCE
330
9B6B
100
AcDbEntity
  8
5
  6
PHANTOM
 48
0.1
100
AcDbLine
 10
50.04196199999999
 20
383.4999999999998
 30
0.0
 11
52.5
 21
383.4999999999998
 31
0.0
  0
LINE
  5
9DCF
330
9B6B
100
AcDbEntity
  8
5
  6
PHANTOM
 48
0.1
100
AcDbLine
 10
50.04196199999999
 20
382.5
 30
0.0
 11
52.5
 21
382.5
 31
0.0
  0
LINE
  5
9DD0
330
9B6B
100
AcDbEntity
  8
5
  6
PHANTOM
 48
0.1
100
AcDbLine
 10
53.5
 20
380.0419619999999
 30
0.0
 11
53.5
 21
382.5
 31
0.0
  0
LINE
  5
9DD1
330
9B6B
100
AcDbEntity
  8
5
  6
PHANTOM
 48
0.1
100
AcDbLine
 10
52.5
 20
380.0419619999999
 30
0.0
 11
52.5
 21
382.5
 31
0.0
  0
ARC
  5
9DD2
330
9B6B
100
AcDbEntity
  8
5
  6
PHANTOM
 48
0.1
100
AcDbCircle
 10
53.0
 20
402.0000239999998
 30
0.0
 40
2.0
100
AcDbArc
 50
179.9999909999999
 51
0.00001
  0
ARC
  5
9DD3
330
9B6B
100
AcDbEntity
  8
5
  6
PHANTOM
 48
0.1
100
AcDbCircle
 10
50.5
 20
410.5
 30
0.0
 40
0.5
100
AcDbArc
 50
0.0
 51
90.00000300000001
  0
ARC
  5
9DD4
330
9B6B
100
AcDbEntity
  8
5
  6
PHANTOM
 48
0.1
100
AcDbCircle
 10
55.5
 20
410.5
 30
0.0
 40
0.5
100
AcDbArc
 50
90.00000300000001
 51
180.000005
  0
CIRCLE
  5
9DD5
330
9B6B
100
AcDbEntity
  8
5
  6
PHANTOM
 48
0.2
100
AcDbCircle
 10
44.0
 20
402.0
 30
0.0
 40
2.649999999999999
  0
LINE
  5
9DD6
330
9B6B
100
AcDbEntity
  8
5
  6
PHANTOM
 48
0.1
100
AcDbLine
 10
55.0
 20
410.5
 30
0.0
 11
55.0
 21
402.0000239999998
 31
0.0
  0
LINE
  5
9DD7
330
9B6B
100
AcDbEntity
  8
5
  6
PHANTOM
 48
0.1
100
AcDbLine
 10
51.0
 20
410.5
 30
0.0
 11
51.0
 21
402.0000239999998
 31
0.0
  0
LINE
  5
9DD8
330
9B6B
100
AcDbEntity
  8
4
  6
CENTER
 48
0.2
100
AcDbLine
 10
39.34999799999999
 20
402.0
 30
0.0
 11
48.650002
 21
402.0
 31
0.0
  0
LINE
  5
9DD9
330
9B6B
100
AcDbEntity
  8
5
  6
PHANTOM
 48
0.1
100
AcDbLine
 10
51.0
 20
409.9
 30
0.0
 11
55.0
 21
409.9
 31
0.0
  0
CIRCLE
  5
9DDA
330
9B6B
100
AcDbEntity
  8
5
  6
PHANTOM
 48
0.2
100
AcDbCircle
 10
62.0
 20
402.0
 30
0.0
 40
2.649999999999999
  0
LINE
  5
9DDB
330
9B6B
100
AcDbEntity
  8
4
  6
CENTER
 48
0.2
100
AcDbLine
 10
57.349998
 20
402.0
 30
0.0
 11
66.650002
 21
402.0
 31
0.0
  0
LINE
  5
9DDC
330
9B6B
100
AcDbEntity
  8
5
  6
PHANTOM
 48
0.2
100
AcDbLine
 10
68.0
 20
411.0
 30
0.0
 11
68.0
 21
390.0
 31
0.0
  0
LINE
  5
9DDD
330
9B6B
100
AcDbEntity
  8
4
  6
CENTER
 48
0.2
100
AcDbLine
 10
193.0
 20
403.7499999999998
 30
0.0
 11
193.0
 21
415.3499759999998
 31
0.0
  0
LINE
  5
9DDE
330
9B6B
100
AcDbEntity
  8
5
  6
PHANTOM
 48
0.2
100
AcDbLine
 10
201.0
 20
408.099976
 30
0.0
 11
173.899994
 21
408.099976
 31
0.0
  0
LINE
  5
9DDF
330
9B6B
100
AcDbEntity
  8
5
  6
PHANTOM
 48
0.2
100
AcDbLine
 10
201.0
 20
411.0
 30
0.0
 11
173.899994
 21
411.0
 31
0.0
  0
LINE
  5
9DE0
330
9B6B
100
AcDbEntity
  8
4
  6
CENTER
 48
0.2
100
AcDbLine
 10
197.5038909999999
 20
383.0
 30
0.0
 11
164.371384
 21
383.0
 31
0.0
  0
LINE
  5
9DE1
330
9B6B
100
AcDbEntity
  8
5
  6
PHANTOM
 48
0.2
100
AcDbLine
 10
174.100006
 20
375.0
 30
0.0
 11
174.100006
 21
393.100006
 31
0.0
  0
LINE
  5
9DE2
330
9B6B
100
AcDbEntity
  8
5
  6
PHANTOM
 48
0.2
100
AcDbLine
 10
177.0
 20
374.5
 30
0.0
 11
177.0
 21
393.100006
 31
0.0
  0
LINE
  5
9DE3
330
9B6B
100
AcDbEntity
  8
5
  6
PHANTOM
 48
0.2
100
AcDbLine
 10
188.8999939999999
 20
375.4999999999999
 30
0.0
 11
188.8999939999999
 21
390.5
 31
0.0
  0
LINE
  5
9DE4
330
9B6B
100
AcDbEntity
  8
5
  6
PHANTOM
 48
0.2
100
AcDbLine
 10
189.8999939999999
 20
376.5
 30
0.0
 11
189.8999939999999
 21
389.4999999999998
 31
0.0
  0
LINE
  5
9DE5
330
9B6B
100
AcDbEntity
  8
5
  6
PHANTOM
 48
0.1
100
AcDbLine
 10
174.100006
 20
386.0
 30
0.0
 11
172.600006
 21
386.0
 31
0.0
  0
LINE
  5
9DE6
330
9B6B
100
AcDbEntity
  8
5
  6
PHANTOM
 48
0.1
100
AcDbLine
 10
174.100006
 20
380.0
 30
0.0
 11
172.600006
 21
380.0
 31
0.0
  0
LINE
  5
9DE7
330
9B6B
100
AcDbEntity
  8
5
  6
PHANTOM
 48
0.1
100
AcDbLine
 10
173.3499909999999
 20
383.0
 30
0.0
 11
172.5999909999999
 21
382.5
 31
0.0
  0
LINE
  5
9DE8
330
9B6B
100
AcDbEntity
  8
5
  6
PHANTOM
 48
0.1
100
AcDbLine
 10
172.5999909999999
 20
383.4999999999998
 30
0.0
 11
173.3499909999999
 21
383.0
 31
0.0
  0
LINE
  5
9DE9
330
9B6B
100
AcDbEntity
  8
5
  6
PHANTOM
 48
0.1
100
AcDbLine
 10
172.600006
 20
380.0
 30
0.0
 11
172.600006
 21
382.5
 31
0.0
  0
LINE
  5
9DEA
330
9B6B
100
AcDbEntity
  8
5
  6
PHANTOM
 48
0.1
100
AcDbLine
 10
172.600006
 20
383.4999999999998
 30
0.0
 11
172.600006
 21
386.0
 31
0.0
  0
LINE
  5
9DEB
330
9B6B
100
AcDbEntity
  8
5
  6
PHANTOM
 48
0.2
100
AcDbLine
 10
177.0
 20
375.0
 30
0.0
 11
174.100006
 21
375.0
 31
0.0
  0
LINE
  5
9DEC
330
9B6B
100
AcDbEntity
  8
5
  6
PHANTOM
 48
0.2
100
AcDbLine
 10
189.900009
 20
376.5
 30
0.0
 11
188.900009
 21
375.4999999999999
 31
0.0
  0
LINE
  5
9DED
330
9B6B
100
AcDbEntity
  8
5
  6
PHANTOM
 48
0.2
100
AcDbLine
 10
188.8999939999999
 20
375.4999999999999
 30
0.0
 11
186.8999939999999
 21
375.4999999999999
 31
0.0
  0
ARC
  5
9DEE
330
9B6B
100
AcDbEntity
  8
5
  6
PHANTOM
 48
0.2
100
AcDbCircle
 10
173.899994
 20
408.099976
 30
0.0
 40
2.9
100
AcDbArc
 50
90.00000300000001
 51
180.000005
  0
ARC
  5
9DEF
330
9B6B
100
AcDbEntity
  8
5
  6
PHANTOM
 48
0.2
100
AcDbCircle
 10
173.899994
 20
396.0
 30
0.0
 40
2.9
100
AcDbArc
 50
179.9999909999999
 51
270.000001
  0
LINE
  5
9DF0
330
9B6B
100
AcDbEntity
  8
4
  6
CENTER
 48
0.2
100
AcDbLine
 10
178.2499999999997
 20
402.0
 30
0.0
 11
166.649994
 21
402.0
 31
0.0
  0
LINE
  5
9DF1
330
9B6B
100
AcDbEntity
  8
5
  6
PHANTOM
 48
0.2
100
AcDbLine
 10
171.0
 20
396.0
 30
0.0
 11
171.0
 21
408.099976
 31
0.0
  0
LINE
  5
9DF2
330
9B6B
100
AcDbEntity
  8
5
  6
PHANTOM
 48
0.2
100
AcDbLine
 10
173.9999939999999
 20
399.999994
 30
0.0
 11
173.899994
 21
399.999994
 31
0.0
  0
ARC
  5
9DF3
330
9B6B
100
AcDbEntity
  8
5
  6
PHANTOM
 48
0.1
100
AcDbCircle
 10
173.9999939999999
 20
400.999994
 30
0.0
 40
1.0
100
AcDbArc
 50
269.999999
 51
359.999995
  0
LINE
  5
9DF4
330
9B6B
100
AcDbEntity
  8
5
  6
PHANTOM
 48
0.1
100
AcDbLine
 10
174.9999939999999
 20
400.999994
 30
0.0
 11
174.9999939999999
 21
406.9999759999998
 31
0.0
  0
LINE
  5
9DF5
330
9B6B
100
AcDbEntity
  8
5
  6
PHANTOM
 48
0.1
100
AcDbLine
 10
181.000006
 20
406.9999759999998
 30
0.0
 11
174.9999939999999
 21
406.9999759999998
 31
0.0
  0
LINE
  5
9DF6
330
9B6B
100
AcDbEntity
  8
5
  6
PHANTOM
 48
0.2
100
AcDbLine
 10
182.000006
 20
407.9999749999998
 30
0.0
 11
182.000006
 21
408.099976
 31
0.0
  0
ARC
  5
9DF7
330
9B6B
100
AcDbEntity
  8
5
  6
PHANTOM
 48
0.1
100
AcDbCircle
 10
181.000006
 20
407.9999759999997
 30
0.0
 40
1.0
100
AcDbArc
 50
269.999999
 51
359.999995
  0
ARC
  5
9DF8
330
9B6B
100
AcDbEntity
  8
5
  6
PHANTOM
 48
0.2
100
AcDbCircle
 10
174.100006
 20
393.100006
 30
0.0
 40
2.9
100
AcDbArc
 50
0.0
 51
90.00000300000001
  0
LINE
  5
9DF9
330
9B6B
100
AcDbEntity
  8
5
  6
PHANTOM
 48
0.2
100
AcDbLine
 10
173.899994
 20
396.0
 30
0.0
 11
173.899994
 21
408.099976
 31
0.0
  0
LINE
  5
9DFA
330
9B6B
100
AcDbEntity
  8
5
  6
PHANTOM
 48
0.2
100
AcDbLine
 10
174.100006
 20
393.100006
 30
0.0
 11
173.899994
 21
393.100006
 31
0.0
  0
LINE
  5
9DFB
330
9B6B
100
AcDbEntity
  8
5
  6
PHANTOM
 48
0.2
100
AcDbLine
 10
174.100006
 20
396.0
 30
0.0
 11
173.899994
 21
396.0
 31
0.0
  0
LINE
  5
9DFC
330
9B6B
100
AcDbEntity
  8
5
  6
PHANTOM
 48
0.2
100
AcDbLine
 10
178.600006
 20
391.8500059999999
 30
0.0
 11
177.0
 21
391.8500059999999
 31
0.0
  0
LINE
  5
9DFD
330
9B6B
100
AcDbEntity
  8
5
  6
PHANTOM
 48
0.2
100
AcDbLine
 10
189.8999939999999
 20
389.4999999999998
 30
0.0
 11
188.8999939999999
 21
390.5
 31
0.0
  0
LINE
  5
9DFE
330
9B6B
100
AcDbEntity
  8
5
  6
PHANTOM
 48
0.2
100
AcDbLine
 10
188.8999939999999
 20
390.5
 30
0.0
 11
186.8999939999999
 21
390.5
 31
0.0
  0
LINE
  5
9DFF
330
9B6B
100
AcDbEntity
  8
5
  6
PHANTOM
 48
0.1
100
AcDbLine
 10
186.8999939999999
 20
393.0
 30
0.0
 11
178.600006
 21
393.0
 31
0.0
  0
LINE
  5
9E00
330
9B6B
100
AcDbEntity
  8
5
  6
PHANTOM
 48
0.2
100
AcDbLine
 10
201.0
 20
408.099976
 30
0.0
 11
201.0
 21
411.0
 31
0.0
  0
ARC
  5
9E01
330
9B6B
100
AcDbEntity
  8
1
  6
Continuous
100
AcDbCircle
 10
197.300003
 20
197.0
 30
0.0
 40
2.0
100
AcDbArc
 50
0.0
 51
90.0
  0
ARC
  5
9E02
330
9B6B
100
AcDbEntity
  8
1
  6
Continuous
100
AcDbCircle
 10
197.300003
 20
171.0
 30
0.0
 40
2.0
100
AcDbArc
 50
270.0
 51
0.0
  0
ARC
  5
9E03
330
9B6B
100
AcDbEntity
  8
1
  6
Continuous
100
AcDbCircle
 10
428.700012
 20
197.0
 30
0.0
 40
2.0
100
AcDbArc
 50
90.0
 51
180.0
  0
ARC
  5
9E04
330
9B6B
100
AcDbEntity
  8
1
  6
Continuous
100
AcDbCircle
 10
428.700012
 20
171.0
 30
0.0
 40
2.0
100
AcDbArc
 50
180.0
 51
270.0
  0
ARC
  5
9E05
330
9B6B
100
AcDbEntity
  8
1
  6
Continuous
100
AcDbCircle
 10
199.0
 20
617.0
 30
0.0
 40
2.0
100
AcDbArc
 50
0.0
 51
90.0
  0
ARC
  5
9E06
330
9B6B
100
AcDbEntity
  8
1
  6
Continuous
100
AcDbCircle
 10
199.0
 20
591.0
 30
0.0
 40
2.0
100
AcDbArc
 50
270.0
 51
0.0
  0
LINE
  5
9E25
330
9B6B
100
AcDbEntity
  8
1
  6
Continuous
100
AcDbLine
 10
175.3999939999999
 20
192.850006
 30
0.0
 11
175.3999939999999
 21
175.1499939999999
 31
0.0
  0
LINE
  5
9E26
330
9B6B
100
AcDbEntity
  8
1
  6
Continuous
100
AcDbLine
 10
175.2999939999999
 20
76.99999999999999
 30
0.0
 11
175.2999939999999
 21
58.900002
 31
0.0
  0
LINE
  5
9E27
330
9B6B
100
AcDbEntity
  8
1
  6
Continuous
100
AcDbLine
 10
170.9
 20
72.0
 30
0.0
 11
170.9
 21
69.5
 31
0.0
  0
LINE
  5
9E28
330
9B6B
100
AcDbEntity
  8
1
  6
Continuous
100
AcDbLine
 10
170.9
 20
68.499992
 30
0.0
 11
170.9
 21
66.0
 31
0.0
  0
LINE
  5
9E29
330
9B6B
100
AcDbEntity
  8
1
  6
Continuous
100
AcDbLine
 10
171.0
 20
66.0
 30
0.0
 11
171.0
 21
58.640076
 31
0.0
  0
LINE
  5
9E2A
330
9B6B
100
AcDbEntity
  8
1
  6
Continuous
100
AcDbLine
 10
171.0
 20
69.43333333333329
 30
0.0
 11
171.0
 21
68.56665973333335
 31
0.0
  0
ENDSEC
  0
SECTION
  2
OBJECTS
  0
DICTIONARY
  5
9B59
330
0
100
AcDbDictionary
281
     1
  3
ACAD_CIP_PREVIOUS_PRODUCT_INFO
350
A128
  3
ACAD_COLOR
350
A10A
  3
ACAD_DETAILVIEWSTYLE
350
A123
  3
ACAD_GROUP
350
9B5A
  3
ACAD_LAYOUT
350
9B66
  3
ACAD_MATERIAL
350
A0D8
  3
ACAD_MLEADERSTYLE
350
A11F
  3
ACAD_MLINESTYLE
350
9B63
  3
ACAD_PLOTSETTINGS
350
9B65
  3
ACAD_PLOTSTYLENAME
350
A0D6
  3
ACAD_SCALELIST
350
A10D
  3
ACAD_SECTIONVIEWSTYLE
350
A121
  3
ACAD_TABLESTYLE
350
A10B
  3
ACAD_VISUALSTYLE
350
A0F1
  3
ACDB_RECOMPOSE_DATA
350
A146
  3
AcDbVariableDictionary
350
A139
  3
DWGPROPS
350
A147
  0
DICTIONARY
  5
A129
330
9B5D
100
AcDbDictionary
280
     1
281
     1
  3
ADSK_XREC_LAYER_RECONCILED
360
A12A
  0
DICTIONARY
  5
A12B
330
9B73
100
AcDbDictionary
280
     1
281
     1
  3
ADSK_XREC_LAYER_RECONCILED
360
A12C
  0
DICTIONARY
  5
A12D
330
9B74
100
AcDbDictionary
280
     1
281
     1
  3
ADSK_XREC_LAYER_RECONCILED
360
A12E
  0
DICTIONARY
  5
A12F
330
9B75
100
AcDbDictionary
280
     1
281
     1
  3
ADSK_XREC_LAYER_RECONCILED
360
A130
  0
DICTIONARY
  5
A131
330
9B76
100
AcDbDictionary
280
     1
281
     1
  3
ADSK_XREC_LAYER_RECONCILED
360
A132
  0
DICTIONARY
  5
A133
330
9B77
100
AcDbDictionary
280
     1
281
     1
  3
ADSK_XREC_LAYER_RECONCILED
360
A134
  0
DICTIONARY
  5
A135
330
9B78
100
AcDbDictionary
280
     1
281
     1
  3
ADSK_XREC_LAYER_RECONCILED
360
A136
  0
DICTIONARY
  5
A137
330
9B79
100
AcDbDictionary
280
     1
281
     1
  3
ADSK_XREC_LAYER_RECONCILED
360
A138
  0
DICTIONARY
  5
9E15
330
9B6B
100
AcDbDictionary
281
     1
  3
ACAD_LAYOUTSELFREF
350
A0D2
  0
DICTIONARY
  5
9E13
330
9B67
100
AcDbDictionary
281
     1
  3
ACAD_LAYOUTSELFREF
350
A0D1
  0
XRECORD
  5
A128
102
{ACAD_REACTORS
330
9B59
102
}
330
9B59
100
AcDbXrecord
280
     1
300
ACDLT
300
2014
300
ACDLT_F_S
  0
DICTIONARY
  5
A10A
102
{ACAD_REACTORS
330
9B59
102
}
330
9B59
100
AcDbDictionary
281
     1
  0
DICTIONARY
  5
A123
102
{ACAD_REACTORS
330
9B59
102
}
330
9B59
100
AcDbDictionary
281
     1
  3
Imperial24
350
A124
  0
DICTIONARY
  5
9B5A
102
{ACAD_REACTORS
330
9B59
102
}
330
9B59
100
AcDbDictionary
281
     1
  0
DICTIONARY
  5
9B66
102
{ACAD_REACTORS
330
9B59
102
}
330
9B59
100
AcDbDictionary
281
     1
  3
Model
350
A125
  3
レイアウト1
350
A126
  0
DICTIONARY
  5
A0D8
102
{ACAD_REACTORS
330
9B59
102
}
330
9B59
100
AcDbDictionary
281
     1
  3
ByBlock
350
A0E1
  3
ByLayer
350
A0D9
  3
Global
350
A0E9
  0
DICTIONARY
  5
A11F
102
{ACAD_REACTORS
330
9B59
102
}
330
9B59
100
AcDbDictionary
281
     1
  3
Standard
350
A120
  0
DICTIONARY
  5
9B63
102
{ACAD_REACTORS
330
9B59
102
}
330
9B59
100
AcDbDictionary
281
     1
  3
STANDARD
350
9B64
  0
DICTIONARY
  5
9B65
102
{ACAD_REACTORS
330
9B59
102
}
330
9B59
100
AcDbDictionary
281
     1
  0
ACDBDICTIONARYWDFLT
  5
A0D6
102
{ACAD_REACTORS
330
9B59
102
}
330
9B59
100
AcDbDictionary
281
     1
  3
Normal
350
A0D7
100
AcDbDictionaryWithDefault
340
A0D7
  0
DICTIONARY
  5
A10D
102
{ACAD_REACTORS
330
9B59
102
}
330
9B59
100
AcDbDictionary
281
     1
  3
A0
350
A10E
  3
A1
350
A10F
  3
A2
350
A110
  3
A3
350
A111
  3
A4
350
A112
  3
A5
350
A113
  3
A6
350
A114
  3
A7
350
A115
  3
A8
350
A116
  3
A9
350
A117
  3
B0
350
A118
  3
B1
350
A119
  3
B2
350
A11A
  3
B3
350
A11B
  3
B4
350
A11C
  3
B5
350
A11D
  3
B6
350
A11E
  0
DICTIONARY
  5
A121
102
{ACAD_REACTORS
330
9B59
102
}
330
9B59
100
AcDbDictionary
281
     1
  3
Imperial24
350
A122
  0
DICTIONARY
  5
A10B
102
{ACAD_REACTORS
330
9B59
102
}
330
9B59
100
AcDbDictionary
281
     1
  3
Standard
350
A10C
  0
DICTIONARY
  5
A0F1
102
{ACAD_REACTORS
330
9B59
102
}
330
9B59
100
AcDbDictionary
281
     1
  3
2dWireframe
350
A0F7
  3
Basic
350
A0F6
  3
Brighten
350
A0FD
  3
ColorChange
350
A101
  3
Conceptual
350
A0FA
  3
Dim
350
A0FC
  3
EdgeColorOff
350
A109
  3
Facepattern
350
A100
  3
Flat
350
A0F2
  3
FlatWithEdges
350
A0F3
  3
Gouraud
350
A0F4
  3
GouraudWithEdges
350
A0F5
  3
Hidden
350
A0F9
  3
JitterOff
350
A107
  3
Linepattern
350
A0FF
  3
OverhangOff
350
A108
  3
Realistic
350
A0FB
  3
Shaded
350
A106
  3
Shaded with edges
350
A105
  3
Shades of Gray
350
A102
  3
Sketchy
350
A103
  3
Thicken
350
A0FE
  3
Wireframe
350
A0F8
  3
X-Ray
350
A104
  0
XRECORD
  5
A146
102
{ACAD_REACTORS
330
9B59
102
}
330
9B59
100
AcDbXrecord
280
     1
 90
        1
330
A10C
  0
DICTIONARY
  5
A139
102
{ACAD_REACTORS
330
9B59
102
}
330
9B59
100
AcDbDictionary
281
     1
  3
CANNOSCALE
350
A13E
  3
CMLEADERSTYLE
350
A13B
  3
CTABLESTYLE
350
A13A
  3
CVIEWDETAILSTYLE
350
A13C
  3
CVIEWSECTIONSTYLE
350
A13D
  3
DIMASSOC
350
A141
  3
INDEXCTL
350
A140
  3
SORTENTS
350
A13F
  3
XCLIPFRAME
350
A142
  0
XRECORD
  5
A147
102
{ACAD_REACTORS
330
9B59
102
}
330
9B59
100
AcDbXrecord
280
     1
  1
DWGPROPS COOKIE
  2

  3

  4

  6

  7

  8
Yoshitsune
  9

300
=
301
=
302
=
303
=
304
=
305
=
306
=
307
=
308
=
309
=
 40
0.0231036805555556
 41
2451065.50652743
 42
2457192.622729387
  1

 90
        0
  0
XRECORD
  5
A12A
102
{ACAD_REACTORS
330
A129
102
}
330
A129
100
AcDbXrecord
280
     1
290
     1
  0
XRECORD
  5
A12C
102
{ACAD_REACTORS
330
A12B
102
}
330
A12B
100
AcDbXrecord
280
     1
290
     1
  0
XRECORD
  5
A12E
102
{ACAD_REACTORS
330
A12D
102
}
330
A12D
100
AcDbXrecord
280
     1
290
     1
  0
XRECORD
  5
A130
102
{ACAD_REACTORS
330
A12F
102
}
330
A12F
100
AcDbXrecord
280
     1
290
     1
  0
XRECORD
  5
A132
102
{ACAD_REACTORS
330
A131
102
}
330
A131
100
AcDbXrecord
280
     1
290
     1
  0
XRECORD
  5
A134
102
{ACAD_REACTORS
330
A133
102
}
330
A133
100
AcDbXrecord
280
     1
290
     1
  0
XRECORD
  5
A136
102
{ACAD_REACTORS
330
A135
102
}
330
A135
100
AcDbXrecord
280
     1
290
     1
  0
XRECORD
  5
A138
102
{ACAD_REACTORS
330
A137
102
}
330
A137
100
AcDbXrecord
280
     1
290
     1
  0
XRECORD
  5
A0D2
102
{ACAD_REACTORS
330
9E15
102
}
330
9E15
100
AcDbXrecord
280
     1
340
9B6B
  0
XRECORD
  5
A0D1
102
{ACAD_REACTORS
330
9E13
102
}
330
9E13
100
AcDbXrecord
280
     1
340
9B67
  0
ACDBDETAILVIEWSTYLE
  5
A124
102
{ACAD_XDICTIONARY
360
A17F
102
}
102
{ACAD_REACTORS
330
A123
102
}
330
A123
100
AcDbModelDocViewStyle
 70
     0
  3
Imperial24
290
     0
100
AcDbDetailViewStyle
 70
     0
 71
     0
 90
        3
 71
     1
340
9B5E
 40
0.24
340
0
 40
0.24
300

 40
0.36
280
     3
 71
     2
340
9B62
 90
       25
 71
     3
340
9B5E
 40
0.24
 90
        1
 40
0.75
 90
        1
300
%<\AcVar ViewType \f "%tc1">% %<\AcVar ViewDetailId>%\PSCALE %<\AcVar ViewScale \f "%sn">%
 71
     4
340
9B62
 90
       25
340
9B62
 90
       25
280
     0
  0
LAYOUT
  5
A125
102
{ACAD_XDICTIONARY
360
A181
102
}
102
{ACAD_REACTORS
330
9B66
102
}
330
9B66
100
AcDbPlotSettings
  1

  2
Canon LBP9100C
  4

  6

 40
0.0
 41
0.0
 42
0.0
 43
0.0
 44
0.0
 45
0.0
 46
0.0
 47
0.0
 48
0.0
 49
0.0
140
0.0
141
0.0
142
1.0
143
1.0
 70
  1712
 72
     0
 73
     0
 74
     0
  7

 75
     0
147
1.0
148
0.0
149
0.0
100
AcDbLayout
  1
Model
 70
     1
 71
     0
 10
0.0
 20
0.0
 11
12.0
 21
9.0
 12
0.0
 22
0.0
 32
0.0
 14
0.0
 24
0.0
 34
0.0
 15
0.0
 25
0.0
 35
0.0
146
0.0
 13
0.0
 23
0.0
 33
0.0
 16
1.0
 26
0.0
 36
0.0
 17
0.0
 27
1.0
 37
0.0
 76
     0
330
9B6B
331
A0D0
  0
LAYOUT
  5
A126
102
{ACAD_XDICTIONARY
360
A183
102
}
102
{ACAD_REACTORS
330
9B66
102
}
330
9B66
100
AcDbPlotSettings
  1

  2
Canon LBP9100C
  4

  6

 40
0.0
 41
0.0
 42
0.0
 43
0.0
 44
0.0
 45
0.0
 46
0.0
 47
0.0
 48
0.0
 49
0.0
140
0.0
141
0.0
142
1.0
143
1.0
 70
   688
 72
     0
 73
     0
 74
     5
  7

 75
    16
147
1.0
148
0.0
149
0.0
100
AcDbLayout
  1
レイアウト1
 70
     0
 71
     1
 10
0.0
 20
0.0
 11
420.0
 21
297.0
 12
0.0
 22
0.0
 32
0.0
 14
1.000000000000000E+20
 24
1.000000000000000E+20
 34
1.000000000000000E+20
 15
-1.000000000000000E+20
 25
-1.000000000000000E+20
 35
-1.000000000000000E+20
146
0.0
 13
0.0
 23
0.0
 33
0.0
 16
1.0
 26
0.0
 36
0.0
 17
0.0
 27
1.0
 37
0.0
 76
     0
330
9B67
  0
MATERIAL
  5
A0E1
102
{ACAD_XDICTIONARY
360
A0E2
102
}
102
{ACAD_REACTORS
330
A0D8
102
}
330
A0D8
100
AcDbMaterial
  1
ByBlock
 72
     0
 43
0.0208333333333333
 43
0.0
 43
0.0
 43
0.0
 43
0.0
 43
0.0208333333333333
 43
0.0
 43
0.0
 43
0.0
 43
0.0
 43
1.0
 43
0.0
 43
0.0
 43
0.0
 43
0.0
 43
1.0
 77
     0
 47
0.0208333333333333
 47
0.0
 47
0.0
 47
0.0
 47
0.0
 47
0.0208333333333333
 47
0.0
 47
0.0
 47
0.0
 47
0.0
 47
1.0
 47
0.0
 47
0.0
 47
0.0
 47
0.0
 47
1.0
171
     0
 49
0.0208333333333333
 49
0.0
 49
0.0
 49
0.0
 49
0.0
 49
0.0208333333333333
 49
0.0
 49
0.0
 49
0.0
 49
0.0
 49
1.0
 49
0.0
 49
0.0
 49
0.0
 49
0.0
 49
1.0
175
     0
142
0.0208333333333333
142
0.0
142
0.0
142
0.0
142
0.0
142
0.0208333333333333
142
0.0
142
0.0
142
0.0
142
0.0
142
1.0
142
0.0
142
0.0
142
0.0
142
0.0
142
1.0
179
     0
144
0.0208333333333333
144
0.0
144
0.0
144
0.0
144
0.0
144
0.0208333333333333
144
0.0
144
0.0
144
0.0
144
0.0
144
1.0
144
0.0
144
0.0
144
0.0
144
0.0
144
1.0
147
0.0208333333333333
147
0.0
147
0.0
147
0.0
147
0.0
147
0.0208333333333333
147
0.0
147
0.0
147
0.0
147
0.0
147
1.0
147
0.0
147
0.0
147
0.0
147
0.0
147
1.0
  0
MATERIAL
  5
A0D9
102
{ACAD_XDICTIONARY
360
A0DA
102
}
102
{ACAD_REACTORS
330
A0D8
102
}
330
A0D8
100
AcDbMaterial
  1
ByLayer
 72
     0
 43
0.0208333333333333
 43
0.0
 43
0.0
 43
0.0
 43
0.0
 43
0.0208333333333333
 43
0.0
 43
0.0
 43
0.0
 43
0.0
 43
1.0
 43
0.0
 43
0.0
 43
0.0
 43
0.0
 43
1.0
 77
     0
 47
0.0208333333333333
 47
0.0
 47
0.0
 47
0.0
 47
0.0
 47
0.0208333333333333
 47
0.0
 47
0.0
 47
0.0
 47
0.0
 47
1.0
 47
0.0
 47
0.0
 47
0.0
 47
0.0
 47
1.0
171
     0
 49
0.0208333333333333
 49
0.0
 49
0.0
 49
0.0
 49
0.0
 49
0.0208333333333333
 49
0.0
 49
0.0
 49
0.0
 49
0.0
 49
1.0
 49
0.0
 49
0.0
 49
0.0
 49
0.0
 49
1.0
175
     0
142
0.0208333333333333
142
0.0
142
0.0
142
0.0
142
0.0
142
0.0208333333333333
142
0.0
142
0.0
142
0.0
142
0.0
142
1.0
142
0.0
142
0.0
142
0.0
142
0.0
142
1.0
179
     0
144
0.0208333333333333
144
0.0
144
0.0
144
0.0
144
0.0
144
0.0208333333333333
144
0.0
144
0.0
144
0.0
144
0.0
144
1.0
144
0.0
144
0.0
144
0.0
144
0.0
144
1.0
147
0.0208333333333333
147
0.0
147
0.0
147
0.0
147
0.0
147
0.0208333333333333
147
0.0
147
0.0
147
0.0
147
0.0
147
1.0
147
0.0
147
0.0
147
0.0
147
0.0
147
1.0
  0
MATERIAL
  5
A0E9
102
{ACAD_XDICTIONARY
360
A0EA
102
}
102
{ACAD_REACTORS
330
A0D8
102
}
330
A0D8
100
AcDbMaterial
  1
Global
 72
     0
 43
0.0208333333333333
 43
0.0
 43
0.0
 43
0.0
 43
0.0
 43
0.0208333333333333
 43
0.0
 43
0.0
 43
0.0
 43
0.0
 43
1.0
 43
0.0
 43
0.0
 43
0.0
 43
0.0
 43
1.0
 77
     0
 47
0.0208333333333333
 47
0.0
 47
0.0
 47
0.0
 47
0.0
 47
0.0208333333333333
 47
0.0
 47
0.0
 47
0.0
 47
0.0
 47
1.0
 47
0.0
 47
0.0
 47
0.0
 47
0.0
 47
1.0
171
     0
 49
0.0208333333333333
 49
0.0
 49
0.0
 49
0.0
 49
0.0
 49
0.0208333333333333
 49
0.0
 49
0.0
 49
0.0
 49
0.0
 49
1.0
 49
0.0
 49
0.0
 49
0.0
 49
0.0
 49
1.0
175
     0
142
0.0208333333333333
142
0.0
142
0.0
142
0.0
142
0.0
142
0.0208333333333333
142
0.0
142
0.0
142
0.0
142
0.0
142
1.0
142
0.0
142
0.0
142
0.0
142
0.0
142
1.0
179
     0
144
0.0208333333333333
144
0.0
144
0.0
144
0.0
144
0.0
144
0.0208333333333333
144
0.0
144
0.0
144
0.0
144
0.0
144
1.0
144
0.0
144
0.0
144
0.0
144
0.0
144
1.0
147
0.0208333333333333
147
0.0
147
0.0
147
0.0
147
0.0
147
0.0208333333333333
147
0.0
147
0.0
147
0.0
147
0.0
147
1.0
147
0.0
147
0.0
147
0.0
147
0.0
147
1.0
  0
MLEADERSTYLE
  5
A120
102
{ACAD_REACTORS
330
A11F
102
}
330
A11F
100
AcDbMLeaderStyle
170
     2
171
     1
172
     0
 90
        2
 40
0.0
 41
0.0
173
     1
 91
-1056964608
340
9B60
 92
       -2
290
     1
 42
0.09
291
     1
 43
0.36
  3
Standard
 44
0.18
300

342
9B5E
174
     1
178
     6
175
     1
176
     0
 93
-1056964608
 45
0.18
292
     0
297
     0
 46
0.18
 94
-1056964608
 47
1.0
 49
1.0
140
1.0
293
     1
141
0.0
294
     1
177
     0
142
1.0
295
     0
296
     0
143
0.125
1001
ACAD_MLEADERVER
1070
     2
  0
MLINESTYLE
  5
9B64
102
{ACAD_REACTORS
330
9B63
102
}
330
9B63
100
AcDbMlineStyle
  2
STANDARD
 70
     0
  3

 62
   256
 51
90.0
 52
90.0
 71
     2
 49
0.5
 62
   256
  6
BYLAYER
 49
-0.5
 62
   256
  6
BYLAYER
  0
ACDBPLACEHOLDER
  5
A0D7
102
{ACAD_REACTORS
330
A0D6
102
}
330
A0D6
  0
SCALE
  5
A10E
102
{ACAD_REACTORS
330
A10D
102
}
330
A10D
100
AcDbScale
 70
     0
300
1:1
140
1.0
141
1.0
290
     1
  0
SCALE
  5
A10F
102
{ACAD_REACTORS
330
A10D
102
}
330
A10D
100
AcDbScale
 70
     0
300
1/128" = 1'-0"
140
0.0078125
141
12.0
290
     0
  0
SCALE
  5
A110
102
{ACAD_REACTORS
330
A10D
102
}
330
A10D
100
AcDbScale
 70
     0
300
1/64" = 1'-0"
140
0.015625
141
12.0
290
     0
  0
SCALE
  5
A111
102
{ACAD_REACTORS
330
A10D
102
}
330
A10D
100
AcDbScale
 70
     0
300
1/32" = 1'-0"
140
0.03125
141
12.0
290
     0
  0
SCALE
  5
A112
102
{ACAD_REACTORS
330
A10D
102
}
330
A10D
100
AcDbScale
 70
     0
300
1/16" = 1'-0"
140
0.0625
141
12.0
290
     0
  0
SCALE
  5
A113
102
{ACAD_REACTORS
330
A10D
102
}
330
A10D
100
AcDbScale
 70
     0
300
3/32" = 1'-0"
140
0.09375
141
12.0
290
     0
  0
SCALE
  5
A114
102
{ACAD_REACTORS
330
A10D
102
}
330
A10D
100
AcDbScale
 70
     0
300
1/8" = 1'-0"
140
0.125
141
12.0
290
     0
  0
SCALE
  5
A115
102
{ACAD_REACTORS
330
A10D
102
}
330
A10D
100
AcDbScale
 70
     0
300
3/16" = 1'-0"
140
0.1875
141
12.0
290
     0
  0
SCALE
  5
A116
102
{ACAD_REACTORS
330
A10D
102
}
330
A10D
100
AcDbScale
 70
     0
300
1/4" = 1'-0"
140
0.25
141
12.0
290
     0
  0
SCALE
  5
A117
102
{ACAD_REACTORS
330
A10D
102
}
330
A10D
100
AcDbScale
 70
     0
300
3/8" = 1'-0"
140
0.375
141
12.0
290
     0
  0
SCALE
  5
A118
102
{ACAD_REACTORS
330
A10D
102
}
330
A10D
100
AcDbScale
 70
     0
300
1/2" = 1'-0"
140
0.5
141
12.0
290
     0
  0
SCALE
  5
A119
102
{ACAD_REACTORS
330
A10D
102
}
330
A10D
100
AcDbScale
 70
     0
300
3/4" = 1'-0"
140
0.75
141
12.0
290
     0
  0
SCALE
  5
A11A
102
{ACAD_REACTORS
330
A10D
102
}
330
A10D
100
AcDbScale
 70
     0
300
1" = 1'-0"
140
1.0
141
12.0
290
     0
  0
SCALE
  5
A11B
102
{ACAD_REACTORS
330
A10D
102
}
330
A10D
100
AcDbScale
 70
     0
300
1-1/2" = 1'-0"
140
1.5
141
12.0
290
     0
  0
SCALE
  5
A11C
102
{ACAD_REACTORS
330
A10D
102
}
330
A10D
100
AcDbScale
 70
     0
300
3" = 1'-0"
140
3.0
141
12.0
290
     0
  0
SCALE
  5
A11D
102
{ACAD_REACTORS
330
A10D
102
}
330
A10D
100
AcDbScale
 70
     0
300
6" = 1'-0"
140
6.0
141
12.0
290
     0
  0
SCALE
  5
A11E
102
{ACAD_REACTORS
330
A10D
102
}
330
A10D
100
AcDbScale
 70
     0
300
1'-0" = 1'-0"
140
12.0
141
12.0
290
     0
  0
ACDBSECTIONVIEWSTYLE
  5
A122
102
{ACAD_XDICTIONARY
360
A17D
102
}
102
{ACAD_REACTORS
330
A121
102
}
330
A121
100
AcDbModelDocViewStyle
 70
     0
  3
Imperial24
290
     0
100
AcDbSectionViewStyle
 70
     0
 71
     0
 90
       78
 71
     1
340
9B5E
 40
0.24
340
0
340
0
 40
0.24
300
I, O, Q, S, X, Z
 40
0.48
 90
        3
 40
0.18
 90
        1
 71
     2
340
9B62
 90
       25
340
9B62
 90
       50
 40
0.24
 40
0.0
 40
0.24
 71
     3
340
9B5E
 40
0.24
 90
        1
 40
0.75
 90
        1
300
%<\AcVar ViewType \f "%tc1">% %<\AcVar ViewSectionStartId>%-%<\AcVar ViewSectionEndId>%\PSCALE %<\AcVar ViewScale \f "%sn">%
 71
     4
300
ANSI31
 40
1.0
 90
        0
290
     0
290
     0
 90
        6
 40
0.0
 40
1.570796326794896
 40
0.2617993877991494
 40
1.308996938995747
 40
-0.2617993877991494
 40
1.832595714594046
  0
TABLESTYLE
  5
A10C
102
{ACAD_XDICTIONARY
360
A144
102
}
102
{ACAD_REACTORS
330
A10B
102
}
330
A10B
100
AcDbTableStyle
  3
Standard
 70
     0
 71
     0
 40
0.06
 41
0.06
280
     0
281
     0
  7
STANDARD
140
0.18
170
     2
 62
     0
 63
     7
283
     0
274
    -2
284
     1
 64
     0
275
    -2
285
     1
 65
     0
276
    -2
286
     1
 66
     0
277
    -2
287
     1
 67
     0
278
    -2
288
     1
 68
     0
279
    -2
289
     1
 69
     0
  7
STANDARD
140
0.25
170
     5
 62
     0
 63
     7
283
     0
274
    -2
284
     1
 64
     0
275
    -2
285
     1
 65
     0
276
    -2
286
     1
 66
     0
277
    -2
287
     1
 67
     0
278
    -2
288
     1
 68
     0
279
    -2
289
     1
 69
     0
  7
STANDARD
140
0.18
170
     5
 62
     0
 63
     7
283
     0
274
    -2
284
     1
 64
     0
275
    -2
285
     1
 65
     0
276
    -2
286
     1
 66
     0
277
    -2
287
     1
 67
     0
278
    -2
288
     1
 68
     0
279
    -2
289
     1
 69
     0
  0
VISUALSTYLE
  5
A0F7
102
{ACAD_XDICTIONARY
360
A155
102
}
102
{ACAD_REACTORS
330
A0F1
102
}
330
A0F1
100
AcDbVisualStyle
  2
2dWireframe
 70
     4
 71
     0
 72
     2
 73
     0
 90
        0
 40
-0.6
 41
-30.0
 62
     5
 63
     7
 74
     1
 91
        4
 64
     7
 65
   257
 75
     1
175
     1
 42
1.0
 92
        0
 66
   257
 43
1.0
 76
     1
 77
     6
 78
     2
 67
     7
 79
     5
170
     0
171
     0
290
     0
174
     0
 93
        1
 44
0.0
173
     0
291
     0
 45
0.0
1001
ACAD
1000
AcDbSavedByObjectVersion
1070
     0
  0
VISUALSTYLE
  5
A0F6
102
{ACAD_XDICTIONARY
360
A153
102
}
102
{ACAD_REACTORS
330
A0F1
102
}
330
A0F1
100
AcDbVisualStyle
  2
Basic
 70
     7
 71
     1
 72
     0
 73
     1
 90
        0
 40
-0.6
 41
-30.0
 62
     5
 63
     7
 74
     0
 91
        4
 64
     7
 65
   257
 75
     1
175
     1
 42
1.0
 92
        8
 66
     7
 43
1.0
 76
     1
 77
     6
 78
     2
 67
     7
 79
     5
170
     0
171
     0
290
     0
174
     0
 93
        1
 44
0.0
173
     0
291
     1
 45
0.0
1001
ACAD
1000
AcDbSavedByObjectVersion
1070
     0
  0
VISUALSTYLE
  5
A0FD
102
{ACAD_XDICTIONARY
360
A161
102
}
102
{ACAD_REACTORS
330
A0F1
102
}
330
A0F1
100
AcDbVisualStyle
  2
Brighten
 70
    12
 71
     2
 72
     2
 73
     0
 90
        0
 40
-0.6
 41
-30.0
 62
     5
 63
     7
 74
     1
 91
        4
 64
     7
 65
   257
 75
     1
175
     1
 42
1.0
 92
        8
 66
     7
 43
1.0
 76
     1
 77
     6
 78
     2
 67
     7
 79
     5
170
     0
171
     0
290
     0
174
     0
 93
        1
 44
50.0
173
     0
291
     1
 45
0.0
1001
ACAD
1000
AcDbSavedByObjectVersion
1070
     0
  0
VISUALSTYLE
  5
A101
102
{ACAD_XDICTIONARY
360
A169
102
}
102
{ACAD_REACTORS
330
A0F1
102
}
330
A0F1
100
AcDbVisualStyle
  2
ColorChange
 70
    16
 71
     2
 72
     2
 73
     3
 90
        0
 40
-0.6
 41
-30.0
 62
     5
 63
     8
 74
     1
 91
        4
 64
     7
 65
   257
 75
     1
175
     1
 42
1.0
 92
        8
 66
     8
 43
1.0
 76
     1
 77
     6
 78
     2
 67
     7
 79
     5
170
     0
171
     0
290
     0
174
     0
 93
        1
 44
0.0
173
     0
291
     1
 45
0.0
1001
ACAD
1000
AcDbSavedByObjectVersion
1070
     0
  0
VISUALSTYLE
  5
A0FA
102
{ACAD_XDICTIONARY
360
A15B
102
}
102
{ACAD_REACTORS
330
A0F1
102
}
330
A0F1
100
AcDbVisualStyle
  2
Conceptual
 70
     9
 71
     3
 72
     2
 73
     0
 90
        0
 40
-0.6
 41
-30.0
 62
     5
 63
     7
 74
     2
 91
        2
 64
     7
 65
   257
 75
     1
175
     1
 42
179.0
 92
        8
 66
     7
 43
1.0
 76
     1
 77
     6
 78
     2
 67
     7
 79
     3
170
     0
171
     0
290
     0
174
     0
 93
        1
 44
0.0
173
     0
291
     0
 45
0.0
1001
ACAD
1000
AcDbSavedByObjectVersion
1070
     0
  0
VISUALSTYLE
  5
A0FC
102
{ACAD_XDICTIONARY
360
A15F
102
}
102
{ACAD_REACTORS
330
A0F1
102
}
330
A0F1
100
AcDbVisualStyle
  2
Dim
 70
    11
 71
     2
 72
     2
 73
     0
 90
        0
 40
-0.6
 41
-30.0
 62
     5
 63
     7
 74
     1
 91
        4
 64
     7
 65
   257
 75
     1
175
     1
 42
1.0
 92
        8
 66
     7
 43
1.0
 76
     1
 77
     6
 78
     2
 67
     7
 79
     5
170
     0
171
     0
290
     0
174
     0
 93
        1
 44
-50.0
173
     0
291
     1
 45
0.0
1001
ACAD
1000
AcDbSavedByObjectVersion
1070
     0
  0
VISUALSTYLE
  5
A109
102
{ACAD_XDICTIONARY
360
A179
102
}
102
{ACAD_REACTORS
330
A0F1
102
}
330
A0F1
100
AcDbVisualStyle
  2
EdgeColorOff
 70
    22
 71
     2
 72
     2
 73
     0
 90
        0
 40
-0.6
 41
-30.0
 62
     5
 63
     7
 74
     1
 91
        4
 64
     7
 65
   257
 75
     1
175
     1
 42
1.0
 92
        8
 66
     7
 43
1.0
 76
     1
 77
     6
 78
     2
 67
     7
 79
     5
170
     0
171
     0
290
     0
174
     0
 93
        1
 44
0.0
173
     0
291
     1
 45
0.0
1001
ACAD
1000
AcDbSavedByObjectVersion
1070
     0
  0
VISUALSTYLE
  5
A100
102
{ACAD_XDICTIONARY
360
A167
102
}
102
{ACAD_REACTORS
330
A0F1
102
}
330
A0F1
100
AcDbVisualStyle
  2
Facepattern
 70
    15
 71
     2
 72
     2
 73
     0
 90
        0
 40
-0.6
 41
-30.0
 62
     5
 63
     7
 74
     1
 91
        4
 64
     7
 65
   257
 75
     1
175
     1
 42
1.0
 92
        8
 66
     7
 43
1.0
 76
     1
 77
     6
 78
     2
 67
     7
 79
     5
170
     0
171
     0
290
     0
174
     0
 93
        1
 44
0.0
173
     0
291
     1
 45
0.0
1001
ACAD
1000
AcDbSavedByObjectVersion
1070
     0
  0
VISUALSTYLE
  5
A0F2
102
{ACAD_XDICTIONARY
360
A14B
102
}
102
{ACAD_REACTORS
330
A0F1
102
}
330
A0F1
100
AcDbVisualStyle
  2
Flat
 70
     0
 71
     2
 72
     1
 73
     1
 90
        2
 40
-0.6
 41
30.0
 62
     5
 63
     7
 74
     0
 91
        0
 64
     7
 65
   257
 75
     1
175
     1
 42
1.0
 92
        8
 66
     7
 43
1.0
 76
     1
 77
     6
 78
     2
 67
     7
 79
     5
170
     0
171
     0
290
     0
174
     0
 93
       13
 44
0.0
173
     0
291
     1
 45
0.0
1001
ACAD
1000
AcDbSavedByObjectVersion
1070
     0
  0
VISUALSTYLE
  5
A0F3
102
{ACAD_XDICTIONARY
360
A14D
102
}
102
{ACAD_REACTORS
330
A0F1
102
}
330
A0F1
100
AcDbVisualStyle
  2
FlatWithEdges
 70
     1
 71
     2
 72
     1
 73
     1
 90
        2
 40
-0.6
 41
30.0
 62
     5
 63
     7
 74
     1
 91
        0
 64
     7
 65
   257
 75
     1
175
     1
 42
1.0
 92
        0
 66
   257
 43
1.0
 76
     1
 77
     6
 78
     2
 67
     7
 79
     5
170
     0
171
     0
290
     0
174
     0
 93
       13
 44
0.0
173
     0
291
     1
 45
0.0
1001
ACAD
1000
AcDbSavedByObjectVersion
1070
     0
  0
VISUALSTYLE
  5
A0F4
102
{ACAD_XDICTIONARY
360
A14F
102
}
102
{ACAD_REACTORS
330
A0F1
102
}
330
A0F1
100
AcDbVisualStyle
  2
Gouraud
 70
     2
 71
     2
 72
     2
 73
     1
 90
        2
 40
-0.6
 41
30.0
 62
     5
 63
     7
 74
     0
 91
        0
 64
     7
 65
   257
 75
     1
175
     1
 42
1.0
 92
        0
 66
     7
 43
1.0
 76
     1
 77
     6
 78
     2
 67
     7
 79
     5
170
     0
171
     0
290
     0
174
     0
 93
       13
 44
0.0
173
     0
291
     1
 45
0.0
1001
ACAD
1000
AcDbSavedByObjectVersion
1070
     0
  0
VISUALSTYLE
  5
A0F5
102
{ACAD_XDICTIONARY
360
A151
102
}
102
{ACAD_REACTORS
330
A0F1
102
}
330
A0F1
100
AcDbVisualStyle
  2
GouraudWithEdges
 70
     3
 71
     2
 72
     2
 73
     1
 90
        2
 40
-0.6
 41
30.0
 62
     5
 63
     7
 74
     1
 91
        0
 64
     7
 65
   257
 75
     1
175
     1
 42
1.0
 92
        0
 66
   257
 43
1.0
 76
     1
 77
     6
 78
     2
 67
     7
 79
     5
170
     0
171
     0
290
     0
174
     0
 93
       13
 44
0.0
173
     0
291
     1
 45
0.0
1001
ACAD
1000
AcDbSavedByObjectVersion
1070
     0
  0
VISUALSTYLE
  5
A0F9
102
{ACAD_XDICTIONARY
360
A159
102
}
102
{ACAD_REACTORS
330
A0F1
102
}
330
A0F1
100
AcDbVisualStyle
  2
Hidden
 70
     6
 71
     1
 72
     2
 73
     2
 90
        0
 40
-0.6
 41
-30.0
 62
     5
 63
     7
 74
     2
 91
        2
 64
     7
 65
   257
 75
     2
175
     1
 42
40.0
 92
        0
 66
   257
 43
1.0
 76
     1
 77
     6
 78
     2
 67
     7
 79
     3
170
     0
171
     0
290
     0
174
     0
 93
        1
 44
0.0
173
     0
291
     0
 45
0.0
1001
ACAD
1000
AcDbSavedByObjectVersion
1070
     0
  0
VISUALSTYLE
  5
A107
102
{ACAD_XDICTIONARY
360
A175
102
}
102
{ACAD_REACTORS
330
A0F1
102
}
330
A0F1
100
AcDbVisualStyle
  2
JitterOff
 70
    20
 71
     2
 72
     2
 73
     0
 90
        0
 40
-0.6
 41
-30.0
 62
     5
 63
     7
 74
     1
 91
        4
 64
     7
 65
   257
 75
     1
175
     1
 42
1.0
 92
       10
 66
     7
 43
1.0
 76
     1
 77
     6
 78
     2
 67
     7
 79
     5
170
     0
171
     0
290
     0
174
     0
 93
        1
 44
0.0
173
     0
291
     1
 45
0.0
1001
ACAD
1000
AcDbSavedByObjectVersion
1070
     0
  0
VISUALSTYLE
  5
A0FF
102
{ACAD_XDICTIONARY
360
A165
102
}
102
{ACAD_REACTORS
330
A0F1
102
}
330
A0F1
100
AcDbVisualStyle
  2
Linepattern
 70
    14
 71
     2
 72
     2
 73
     0
 90
        0
 40
-0.6
 41
-30.0
 62
     5
 63
     7
 74
     1
 91
        4
 64
     7
 65
   257
 75
     7
175
     7
 42
1.0
 92
        8
 66
     7
 43
1.0
 76
     1
 77
     6
 78
     2
 67
     7
 79
     5
170
     0
171
     0
290
     0
174
     0
 93
        1
 44
0.0
173
     0
291
     1
 45
0.0
1001
ACAD
1000
AcDbSavedByObjectVersion
1070
     0
  0
VISUALSTYLE
  5
A108
102
{ACAD_XDICTIONARY
360
A177
102
}
102
{ACAD_REACTORS
330
A0F1
102
}
330
A0F1
100
AcDbVisualStyle
  2
OverhangOff
 70
    21
 71
     2
 72
     2
 73
     0
 90
        0
 40
-0.6
 41
-30.0
 62
     5
 63
     7
 74
     1
 91
        4
 64
     7
 65
   257
 75
     1
175
     1
 42
1.0
 92
        9
 66
     7
 43
1.0
 76
     1
 77
     6
 78
     2
 67
     7
 79
     5
170
     0
171
     0
290
     0
174
     0
 93
        1
 44
0.0
173
     0
291
     1
 45
0.0
1001
ACAD
1000
AcDbSavedByObjectVersion
1070
     0
  0
VISUALSTYLE
  5
A0FB
102
{ACAD_XDICTIONARY
360
A15D
102
}
102
{ACAD_REACTORS
330
A0F1
102
}
330
A0F1
100
AcDbVisualStyle
  2
Realistic
 70
     8
 71
     2
 72
     3
 73
     0
 90
        2
 40
-0.6
 41
30.0
 62
     5
 63
     7
 74
     0
 91
        0
 64
     7
 65
   257
 75
     1
175
     1
 42
1.0
 92
        8
 66
   257
 43
1.0
 76
     1
 77
     6
 78
     2
 67
     7
 79
     3
170
     0
171
     0
290
     0
174
     0
 93
       13
 44
0.0
173
     0
291
     0
 45
0.0
1001
ACAD
1000
AcDbSavedByObjectVersion
1070
     0
  0
VISUALSTYLE
  5
A106
102
{ACAD_XDICTIONARY
360
A173
102
}
102
{ACAD_REACTORS
330
A0F1
102
}
330
A0F1
100
AcDbVisualStyle
  2
Shaded
 70
    27
 71
     2
 72
     2
 73
     1
 90
        2
 40
-0.6
 41
30.0
 62
     5
 63
     7
 74
     0
 91
        4
 64
     7
 65
   257
 75
     1
175
     1
 42
1.0
 92
        8
 66
   257
 43
1.0
 76
     1
 77
     6
 78
     2
 67
     8
 79
     3
170
     0
171
     0
290
     0
174
     0
 93
        5
 44
0.0
173
     0
291
     0
 45
0.0
1001
ACAD
1000
AcDbSavedByObjectVersion
1070
     0
  0
VISUALSTYLE
  5
A105
102
{ACAD_XDICTIONARY
360
A171
102
}
102
{ACAD_REACTORS
330
A0F1
102
}
330
A0F1
100
AcDbVisualStyle
  2
Shaded with edges
 70
    26
 71
     2
 72
     2
 73
     1
 90
        2
 40
-0.6
 41
30.0
 62
     5
 63
     7
 74
     1
 91
       10
 64
     7
 65
   257
 75
     2
175
     1
 42
1.0
 92
        8
 66
   257
 43
1.0
 76
     1
 77
     6
 78
     2
 67
     7
 79
     3
170
     0
171
     0
290
     0
174
     0
 93
        5
 44
0.0
173
     0
291
     0
 45
0.0
1001
ACAD
1000
AcDbSavedByObjectVersion
1070
     0
  0
VISUALSTYLE
  5
A102
102
{ACAD_XDICTIONARY
360
A16B
102
}
102
{ACAD_REACTORS
330
A0F1
102
}
330
A0F1
100
AcDbVisualStyle
  2
Shades of Gray
 70
    23
 71
     2
 72
     2
 73
     3
 90
        0
 40
-0.6
 41
-30.0
 62
     5
 63
     7
 74
     2
 91
        2
 64
     7
 65
     7
 75
     1
175
     1
 42
40.0
 92
        8
 66
     7
 43
1.0
 76
     1
 77
     6
 78
     2
 67
     7
 79
     3
170
     0
171
     0
290
     0
174
     0
 93
        1
 44
0.0
173
     0
291
     0
 45
0.0
1001
ACAD
1000
AcDbSavedByObjectVersion
1070
     0
  0
VISUALSTYLE
  5
A103
102
{ACAD_XDICTIONARY
360
A16D
102
}
102
{ACAD_REACTORS
330
A0F1
102
}
330
A0F1
100
AcDbVisualStyle
  2
Sketchy
 70
    24
 71
     1
 72
     2
 73
     2
 90
        0
 40
-0.6
 41
-30.0
 62
     5
 63
     7
 74
     2
 91
        2
 64
     7
 65
     7
 75
     1
175
     1
 42
40.0
 92
       11
 66
     7
 43
1.0
 76
     1
 77
     6
 78
     2
 67
     7
 79
     6
170
     0
171
     0
290
     0
174
     0
 93
        1
 44
0.0
173
     0
291
     0
 45
0.0
1001
ACAD
1000
AcDbSavedByObjectVersion
1070
     0
  0
VISUALSTYLE
  5
A0FE
102
{ACAD_XDICTIONARY
360
A163
102
}
102
{ACAD_REACTORS
330
A0F1
102
}
330
A0F1
100
AcDbVisualStyle
  2
Thicken
 70
    13
 71
     2
 72
     2
 73
     0
 90
        0
 40
-0.6
 41
-30.0
 62
     5
 63
     7
 74
     1
 91
        4
 64
     7
 65
   257
 75
     1
175
     1
 42
1.0
 92
       12
 66
     7
 43
1.0
 76
     1
 77
     6
 78
     2
 67
     7
 79
     5
170
     0
171
     0
290
     0
174
     0
 93
        1
 44
0.0
173
     0
291
     1
 45
0.0
1001
ACAD
1000
AcDbSavedByObjectVersion
1070
     0
  0
VISUALSTYLE
  5
A0F8
102
{ACAD_XDICTIONARY
360
A157
102
}
102
{ACAD_REACTORS
330
A0F1
102
}
330
A0F1
100
AcDbVisualStyle
  2
Wireframe
 70
     5
 71
     0
 72
     2
 73
     0
 90
        0
 40
-0.6
 41
-30.0
 62
     5
 63
     7
 74
     1
 91
        4
 64
     7
 65
   257
 75
     1
175
     1
 42
1.0
 92
        0
 66
   257
 43
1.0
 76
     1
 77
     6
 78
     2
 67
     7
 79
     3
170
     0
171
     0
290
     0
174
     0
 93
        1
 44
0.0
173
     0
291
     0
 45
0.0
1001
ACAD
1000
AcDbSavedByObjectVersion
1070
     0
  0
VISUALSTYLE
  5
A104
102
{ACAD_XDICTIONARY
360
A16F
102
}
102
{ACAD_REACTORS
330
A0F1
102
}
330
A0F1
100
AcDbVisualStyle
  2
X-Ray
 70
    25
 71
     2
 72
     2
 73
     1
 90
        1
 40
0.5
 41
-30.0
 62
     5
 63
     7
 74
     1
 91
        0
 64
     7
 65
   257
 75
     1
175
     1
 42
1.0
 92
        8
 66
     7
 43
1.0
 76
     1
 77
     6
 78
     2
 67
     7
 79
     3
170
     0
171
     0
290
     0
174
     0
 93
       13
 44
0.0
173
     0
291
     0
 45
0.0
1001
ACAD
1000
AcDbSavedByObjectVersion
1070
     0
  0
DICTIONARYVAR
  5
A13E
102
{ACAD_REACTORS
330
A139
102
}
330
A139
100
DictionaryVariables
280
     0
  1
1:1
  0
DICTIONARYVAR
  5
A13B
102
{ACAD_REACTORS
330
A139
102
}
330
A139
100
DictionaryVariables
280
     0
  1
STANDARD
  0
DICTIONARYVAR
  5
A13A
102
{ACAD_REACTORS
330
A139
102
}
330
A139
100
DictionaryVariables
280
     0
  1
STANDARD
  0
DICTIONARYVAR
  5
A13C
102
{ACAD_REACTORS
330
A139
102
}
330
A139
100
DictionaryVariables
280
     0
  1
Imperial24
  0
DICTIONARYVAR
  5
A13D
102
{ACAD_REACTORS
330
A139
102
}
330
A139
100
DictionaryVariables
280
     0
  1
Imperial24
  0
DICTIONARYVAR
  5
A141
102
{ACAD_REACTORS
330
A139
102
}
330
A139
100
DictionaryVariables
280
     0
  1
1
  0
DICTIONARYVAR
  5
A140
102
{ACAD_REACTORS
330
A139
102
}
330
A139
100
DictionaryVariables
280
     0
  1
0
  0
DICTIONARYVAR
  5
A13F
102
{ACAD_REACTORS
330
A139
102
}
330
A139
100
DictionaryVariables
280
     0
  1
127
  0
DICTIONARYVAR
  5
A142
102
{ACAD_REACTORS
330
A139
102
}
330
A139
100
DictionaryVariables
280
     0
  1
2
  0
DICTIONARY
  5
A17F
330
A124
100
AcDbDictionary
280
     1
281
     1
  3
ACAD_XREC_ROUNDTRIP
360
A180
  0
DICTIONARY
  5
A181
330
A125
100
AcDbDictionary
280
     1
281
     1
  3
ACAD_XREC_ROUNDTRIP
360
A182
  0
DICTIONARY
  5
A183
330
A126
100
AcDbDictionary
280
     1
281
     1
  3
ACAD_XREC_ROUNDTRIP
360
A184
  0
DICTIONARY
  5
A0E2
330
A0E1
100
AcDbDictionary
280
     1
281
     1
  3
ACAD_XREC_ROUNDTRIP
360
A149
  3
BUMPTILE
360
A0E4
  3
DIFFUSETILE
360
A0E3
  3
OPACITYTILE
360
A0E7
  3
REFLECTIONTILE
360
A0E6
  3
REFRACTIONTILE
360
A0E8
  3
SPECULARTILE
360
A0E5
  0
DICTIONARY
  5
A0DA
330
A0D9
100
AcDbDictionary
280
     1
281
     1
  3
ACAD_XREC_ROUNDTRIP
360
A148
  3
BUMPTILE
360
A0DC
  3
DIFFUSETILE
360
A0DB
  3
OPACITYTILE
360
A0DF
  3
REFLECTIONTILE
360
A0DE
  3
REFRACTIONTILE
360
A0E0
  3
SPECULARTILE
360
A0DD
  0
DICTIONARY
  5
A0EA
330
A0E9
100
AcDbDictionary
280
     1
281
     1
  3
ACAD_XREC_ROUNDTRIP
360
A14A
  3
BUMPTILE
360
A0EC
  3
DIFFUSETILE
360
A0EB
  3
OPACITYTILE
360
A0EF
  3
REFLECTIONTILE
360
A0EE
  3
REFRACTIONTILE
360
A0F0
  3
SPECULARTILE
360
A0ED
  0
DICTIONARY
  5
A17D
330
A122
100
AcDbDictionary
280
     1
281
     1
  3
ACAD_XREC_ROUNDTRIP
360
A17E
  0
DICTIONARY
  5
A144
330
A10C
100
AcDbDictionary
280
     1
281
     1
  3
ACAD_ROUNDTRIP_2008_TABLESTYLE_CELLSTYLEMAP
360
A145
  3
ACAD_XREC_ROUNDTRIP
360
A17B
  0
DICTIONARY
  5
A155
330
A0F7
100
AcDbDictionary
280
     1
281
     1
  3
ACAD_XREC_ROUNDTRIP
360
A156
  0
DICTIONARY
  5
A153
330
A0F6
100
AcDbDictionary
280
     1
281
     1
  3
ACAD_XREC_ROUNDTRIP
360
A154
  0
DICTIONARY
  5
A161
330
A0FD
100
AcDbDictionary
280
     1
281
     1
  3
ACAD_XREC_ROUNDTRIP
360
A162
  0
DICTIONARY
  5
A169
330
A101
100
AcDbDictionary
280
     1
281
     1
  3
ACAD_XREC_ROUNDTRIP
360
A16A
  0
DICTIONARY
  5
A15B
330
A0FA
100
AcDbDictionary
280
     1
281
     1
  3
ACAD_XREC_ROUNDTRIP
360
A15C
  0
DICTIONARY
  5
A15F
330
A0FC
100
AcDbDictionary
280
     1
281
     1
  3
ACAD_XREC_ROUNDTRIP
360
A160
  0
DICTIONARY
  5
A179
330
A109
100
AcDbDictionary
280
     1
281
     1
  3
ACAD_XREC_ROUNDTRIP
360
A17A
  0
DICTIONARY
  5
A167
330
A100
100
AcDbDictionary
280
     1
281
     1
  3
ACAD_XREC_ROUNDTRIP
360
A168
  0
DICTIONARY
  5
A14B
330
A0F2
100
AcDbDictionary
280
     1
281
     1
  3
ACAD_XREC_ROUNDTRIP
360
A14C
  0
DICTIONARY
  5
A14D
330
A0F3
100
AcDbDictionary
280
     1
281
     1
  3
ACAD_XREC_ROUNDTRIP
360
A14E
  0
DICTIONARY
  5
A14F
330
A0F4
100
AcDbDictionary
280
     1
281
     1
  3
ACAD_XREC_ROUNDTRIP
360
A150
  0
DICTIONARY
  5
A151
330
A0F5
100
AcDbDictionary
280
     1
281
     1
  3
ACAD_XREC_ROUNDTRIP
360
A152
  0
DICTIONARY
  5
A159
330
A0F9
100
AcDbDictionary
280
     1
281
     1
  3
ACAD_XREC_ROUNDTRIP
360
A15A
  0
DICTIONARY
  5
A175
330
A107
100
AcDbDictionary
280
     1
281
     1
  3
ACAD_XREC_ROUNDTRIP
360
A176
  0
DICTIONARY
  5
A165
330
A0FF
100
AcDbDictionary
280
     1
281
     1
  3
ACAD_XREC_ROUNDTRIP
360
A166
  0
DICTIONARY
  5
A177
330
A108
100
AcDbDictionary
280
     1
281
     1
  3
ACAD_XREC_ROUNDTRIP
360
A178
  0
DICTIONARY
  5
A15D
330
A0FB
100
AcDbDictionary
280
     1
281
     1
  3
ACAD_XREC_ROUNDTRIP
360
A15E
  0
DICTIONARY
  5
A173
330
A106
100
AcDbDictionary
280
     1
281
     1
  3
ACAD_XREC_ROUNDTRIP
360
A174
  0
DICTIONARY
  5
A171
330
A105
100
AcDbDictionary
280
     1
281
     1
  3
ACAD_XREC_ROUNDTRIP
360
A172
  0
DICTIONARY
  5
A16B
330
A102
100
AcDbDictionary
280
     1
281
     1
  3
ACAD_XREC_ROUNDTRIP
360
A16C
  0
DICTIONARY
  5
A16D
330
A103
100
AcDbDictionary
280
     1
281
     1
  3
ACAD_XREC_ROUNDTRIP
360
A16E
  0
DICTIONARY
  5
A163
330
A0FE
100
AcDbDictionary
280
     1
281
     1
  3
ACAD_XREC_ROUNDTRIP
360
A164
  0
DICTIONARY
  5
A157
330
A0F8
100
AcDbDictionary
280
     1
281
     1
  3
ACAD_XREC_ROUNDTRIP
360
A158
  0
DICTIONARY
  5
A16F
330
A104
100
AcDbDictionary
280
     1
281
     1
  3
ACAD_XREC_ROUNDTRIP
360
A170
  0
XRECORD
  5
A180
102
{ACAD_REACTORS
330
A17F
102
}
330
A17F
100
AcDbXrecord
280
     1
102
DISPLAYNAME
  1
Imperial24
102
FLAGS
 90
        0
  0
XRECORD
  5
A182
102
{ACAD_REACTORS
330
A181
102
}
330
A181
100
AcDbXrecord
280
     1
102
SHADEPLOT
 70
     0
102
SHADEPLOTRESLEVEL
 70
     2
102
SHADEPLOTCUSTOMDPI
 70
   300
  0
XRECORD
  5
A184
102
{ACAD_REACTORS
330
A183
102
}
330
A183
100
AcDbXrecord
280
     1
102
SHADEPLOT
 70
     0
102
SHADEPLOTRESLEVEL
 70
     2
102
SHADEPLOTCUSTOMDPI
 70
   300
  0
XRECORD
  5
A149
102
{ACAD_REACTORS
330
A0E2
102
}
330
A0E2
100
AcDbXrecord
280
     1
102
MATERIAL
148
0.0
149
0.0
149
0.0
 93
        0
 94
      127
282
     0
 72
     0
 77
     0
171
     0
175
     0
179
     0
273
     0
  0
XRECORD
  5
A0E4
102
{ACAD_REACTORS
330
A0E2
102
}
330
A0E2
100
AcDbXrecord
280
     1
270
     1
271
     1
  0
XRECORD
  5
A0E3
102
{ACAD_REACTORS
330
A0E2
102
}
330
A0E2
100
AcDbXrecord
280
     1
270
     1
271
     1
  0
XRECORD
  5
A0E7
102
{ACAD_REACTORS
330
A0E2
102
}
330
A0E2
100
AcDbXrecord
280
     1
270
     1
271
     1
  0
XRECORD
  5
A0E6
102
{ACAD_REACTORS
330
A0E2
102
}
330
A0E2
100
AcDbXrecord
280
     1
270
     1
271
     1
  0
XRECORD
  5
A0E8
102
{ACAD_REACTORS
330
A0E2
102
}
330
A0E2
100
AcDbXrecord
280
     1
270
     1
271
     1
  0
XRECORD
  5
A0E5
102
{ACAD_REACTORS
330
A0E2
102
}
330
A0E2
100
AcDbXrecord
280
     1
270
     1
271
     1
  0
XRECORD
  5
A148
102
{ACAD_REACTORS
330
A0DA
102
}
330
A0DA
100
AcDbXrecord
280
     1
102
MATERIAL
148
0.0
149
0.0
149
0.0
 93
        0
 94
      127
282
     0
 72
     0
 77
     0
171
     0
175
     0
179
     0
273
     0
  0
XRECORD
  5
A0DC
102
{ACAD_REACTORS
330
A0DA
102
}
330
A0DA
100
AcDbXrecord
280
     1
270
     1
271
     1
  0
XRECORD
  5
A0DB
102
{ACAD_REACTORS
330
A0DA
102
}
330
A0DA
100
AcDbXrecord
280
     1
270
     1
271
     1
  0
XRECORD
  5
A0DF
102
{ACAD_REACTORS
330
A0DA
102
}
330
A0DA
100
AcDbXrecord
280
     1
270
     1
271
     1
  0
XRECORD
  5
A0DE
102
{ACAD_REACTORS
330
A0DA
102
}
330
A0DA
100
AcDbXrecord
280
     1
270
     1
271
     1
  0
XRECORD
  5
A0E0
102
{ACAD_REACTORS
330
A0DA
102
}
330
A0DA
100
AcDbXrecord
280
     1
270
     1
271
     1
  0
XRECORD
  5
A0DD
102
{ACAD_REACTORS
330
A0DA
102
}
330
A0DA
100
AcDbXrecord
280
     1
270
     1
271
     1
  0
XRECORD
  5
A14A
102
{ACAD_REACTORS
330
A0EA
102
}
330
A0EA
100
AcDbXrecord
280
     1
102
MATERIAL
148
0.0
149
0.0
149
0.0
 93
        0
 94
      127
282
     0
 72
     0
 77
     0
171
     0
175
     0
179
     0
273
     0
  0
XRECORD
  5
A0EC
102
{ACAD_REACTORS
330
A0EA
102
}
330
A0EA
100
AcDbXrecord
280
     1
270
     1
271
     1
  0
XRECORD
  5
A0EB
102
{ACAD_REACTORS
330
A0EA
102
}
330
A0EA
100
AcDbXrecord
280
     1
270
     1
271
     1
  0
XRECORD
  5
A0EF
102
{ACAD_REACTORS
330
A0EA
102
}
330
A0EA
100
AcDbXrecord
280
     1
270
     1
271
     1
  0
XRECORD
  5
A0EE
102
{ACAD_REACTORS
330
A0EA
102
}
330
A0EA
100
AcDbXrecord
280
     1
270
     1
271
     1
  0
XRECORD
  5
A0F0
102
{ACAD_REACTORS
330
A0EA
102
}
330
A0EA
100
AcDbXrecord
280
     1
270
     1
271
     1
  0
XRECORD
  5
A0ED
102
{ACAD_REACTORS
330
A0EA
102
}
330
A0EA
100
AcDbXrecord
280
     1
270
     1
271
     1
  0
XRECORD
  5
A17E
102
{ACAD_REACTORS
330
A17D
102
}
330
A17D
100
AcDbXrecord
280
     1
102
DISPLAYNAME
  1
Imperial24
102
FLAGS
 90
        0
  0
CELLSTYLEMAP
  5
A145
102
{ACAD_REACTORS
330
A144
102
}
330
A144
100
AcDbCellStyleMap
 90
        3
300
CELLSTYLE
  1
TABLEFORMAT_BEGIN
 90
        5
170
     1
 91
        0
 92
    32768
 62
   257
 93
        1
300
CONTENTFORMAT
  1
CONTENTFORMAT_BEGIN
 90
        0
 91
        0
 92
      512
 93
        0
300

 40
0.0
140
1.0
 94
        5
 62
     0
340
9B5E
144
0.25
309
CONTENTFORMAT_END
171
     0
 94
        0
309
TABLEFORMAT_END
  1
CELLSTYLE_BEGIN
 90
        1
 91
        1
300
_TITLE
309
CELLSTYLE_END
300
CELLSTYLE
  1
TABLEFORMAT_BEGIN
 90
        5
170
     1
 91
        0
 92
        0
 62
   257
 93
        1
300
CONTENTFORMAT
  1
CONTENTFORMAT_BEGIN
 90
        0
 91
        0
 92
      512
 93
        0
300

 40
0.0
140
1.0
 94
        5
 62
     0
340
9B5E
144
0.18
309
CONTENTFORMAT_END
171
     0
 94
        0
309
TABLEFORMAT_END
  1
CELLSTYLE_BEGIN
 90
        2
 91
        1
300
_HEADER
309
CELLSTYLE_END
300
CELLSTYLE
  1
TABLEFORMAT_BEGIN
 90
        5
170
     1
 91
        0
 92
        0
 62
   257
 93
        1
300
CONTENTFORMAT
  1
CONTENTFORMAT_BEGIN
 90
        0
 91
        0
 92
      512
 93
        0
300

 40
0.0
140
1.0
 94
        2
 62
     0
340
9B5E
144
0.18
309
CONTENTFORMAT_END
171
     0
 94
        0
309
TABLEFORMAT_END
  1
CELLSTYLE_BEGIN
 90
        3
 91
        2
300
_DATA
309
CELLSTYLE_END
  0
XRECORD
  5
A17B
102
{ACAD_REACTORS
330
A144
102
}
330
A144
100
AcDbXrecord
280
     1
102
ACAD_ROUNDTRIP_PRE2007_TABLESTYLE
 90
      512
 91
        0
  1

 92
      512
 93
        0
  2

 94
      512
 95
        0
  3

  0
XRECORD
  5
A156
102
{ACAD_REACTORS
330
A155
102
}
330
A155
100
AcDbXrecord
280
     1
102
RTVSPost2010Prop28
280
     1
102
RTVSPost2010PropOp28
 70
     1
102
RTVSPost2010Prop29
280
     1
102
RTVSPost2010PropOp29
 70
     1
102
RTVSPost2010Prop30
280
     0
102
RTVSPost2010PropOp30
 70
     1
102
RTVSPost2010Prop31
280
     0
102
RTVSPost2010PropOp31
 70
     1
102
RTVSPost2010Prop32
280
     0
102
RTVSPost2010PropOp32
 70
     1
102
RTVSPost2010Prop33
280
     0
102
RTVSPost2010PropOp33
 70
     1
102
RTVSPost2010Prop34
280
     0
102
RTVSPost2010PropOp34
 70
     1
102
RTVSPost2010Prop35
280
     0
102
RTVSPost2010PropOp35
 70
     1
102
RTVSPost2010Prop36
280
     0
102
RTVSPost2010PropOp36
 70
     1
102
RTVSPost2010Prop37
 90
       50
102
RTVSPost2010PropOp37
 70
     1
102
RTVSPost2010Prop38
140
0.0
102
RTVSPost2010PropOp38
 70
     1
102
RTVSPost2010Prop39
140
1.0
102
RTVSPost2010PropOp39
 70
     1
102
RTVSPost2010Prop40
 90
        0
102
RTVSPost2010PropOp40
 70
     1
102
RTVSPost2010Prop41ColorIndex
 90
       18
102
RTVSPost2010Prop41ColorRGB
 90
        0
102
RTVSPost2010PropOp41
 70
     1
102
RTVSPost2010Prop42
 90
       50
102
RTVSPost2010PropOp42
 70
     1
102
RTVSPost2010Prop43
 90
        3
102
RTVSPost2010PropOp43
 70
     1
102
RTVSPost2010Prop44ColorIndex
 90
        5
102
RTVSPost2010Prop44ColorRGB
 90
      255
102
RTVSPost2010PropOp44
 70
     1
102
RTVSPost2010Prop45
280
     0
102
RTVSPost2010PropOp45
 70
     1
102
RTVSPost2010Prop46
 90
       50
102
RTVSPost2010PropOp46
 70
     1
102
RTVSPost2010Prop47
 90
       50
102
RTVSPost2010PropOp47
 70
     1
102
RTVSPost2010Prop48
 90
       50
102
RTVSPost2010PropOp48
 70
     1
102
RTVSPost2010Prop49
280
     0
102
RTVSPost2010PropOp49
 70
     1
102
RTVSPost2010Prop50
 90
       50
102
RTVSPost2010PropOp50
 70
     1
102
RTVSPost2010Prop51ColorIndex
 90
      256
102
RTVSPost2010Prop51ColorRGB
 90
-16777216
102
RTVSPost2010PropOp51
 70
     0
102
RTVSPost2010Prop52
140
1.0
102
RTVSPost2010PropOp52
 70
     0
102
RTVSPost2010Prop53
 90
        2
102
RTVSPost2010PropOp53
 70
     1
102
RTVSPost2010Prop54
  1
strokes_ogs.tif
102
RTVSPost2010PropOp54
 70
     1
102
RTVSPost2010Prop55
280
     0
102
RTVSPost2010PropOp55
 70
     1
102
RTVSPost2010Prop56
140
1.0
102
RTVSPost2010PropOp56
 70
     1
102
RTVSPost2010Prop57
140
1.0
102
RTVSPost2010PropOp57
 70
     1
102
RTVSPropertyOp0
 70
     1
102
RTVSPropertyOp1
 70
     1
102
RTVSPropertyOp2
 70
     1
102
RTVSPropertyOp3
 70
     1
102
RTVSPropertyOp4
 70
     1
102
RTVSPropertyOp5
 70
     1
102
RTVSPropertyOp6
 70
     1
102
RTVSPropertyOp7
 70
     1
102
RTVSPropertyOp8
 70
     1
102
RTVSPropertyOp9
 70
     1
102
RTVSPropertyOp10
 70
     1
102
RTVSPropertyOp11
 70
     1
102
RTVSPropertyOp12
 70
     1
102
RTVSPropertyOp13
 70
     1
102
RTVSPropertyOp14
 70
     1
102
RTVSPropertyOp15
 70
     1
102
RTVSPropertyOp16
 70
     1
102
RTVSPropertyOp17
 70
     1
102
RTVSPropertyOp18
 70
     1
102
RTVSPropertyOp19
 70
     1
102
RTVSPropertyOp20
 70
     1
102
RTVSPropertyOp21
 70
     1
102
RTVSPropertyOp22
 70
     1
102
RTVSPropertyOp23
 70
     1
102
RTVSPropertyOp24
 70
     1
102
RTVSPropertyOp25
 70
     1
102
RTVSPropertyOp26
 70
     1
102
RTVSPropertyOp27
 70
     1
102
RTVSPropertyOp28
 70
     1
102
RTVSPropertyOp29
 70
     1
102
RTVSPropertyOp30
 70
     1
102
RTVSPropertyOp31
 70
     1
102
RTVSPropertyOp32
 70
     1
102
RTVSPropertyOp33
 70
     1
102
RTVSPropertyOp34
 70
     1
102
RTVSPropertyOp35
 70
     1
102
RTVSPropertyOp36
 70
     1
102
RTVSPropertyOp37
 70
     1
102
RTVSPropertyOp38
 70
     1
102
RTVSPropertyOp39
 70
     1
102
RTVSPropertyOp40
 70
     1
102
RTVSPropertyOp41
 70
     1
102
RTVSPropertyOp42
 70
     1
102
RTVSPropertyOp43
 70
     1
102
RTVSPropertyOp44
 70
     1
102
RTVSPropertyOp45
 70
     1
102
RTVSPropertyOp46
 70
     1
102
RTVSPropertyOp47
 70
     1
102
RTVSPropertyOp48
 70
     1
102
RTVSPropertyOp49
 70
     1
102
RTVSPropertyOp50
 70
     1
102
RTVSPropertyOp51
 70
     0
102
RTVSPropertyOp52
 70
     0
102
RTVSPropertyOp53
 70
     1
102
RTVSPropertyOp54
 70
     1
102
RTVSPropertyOp55
 70
     1
102
RTVSPropertyOp56
 70
     1
102
RTVSPropertyOp57
 70
     1
102
RTVSPropertyOp58
 70
     1
102
RTVSPropertyOp59
 70
     1
102
RTVSPropertyOp60
 70
     1
102
RTVSPropertyOp61
 70
     1
102
RTVSPropertyOp62
 70
     1
  0
XRECORD
  5
A154
102
{ACAD_REACTORS
330
A153
102
}
330
A153
100
AcDbXrecord
280
     1
102
RTVSPost2010Prop28
280
     0
102
RTVSPost2010PropOp28
 70
     1
102
RTVSPost2010Prop29
280
     1
102
RTVSPost2010PropOp29
 70
     1
102
RTVSPost2010Prop30
280
     1
102
RTVSPost2010PropOp30
 70
     1
102
RTVSPost2010Prop31
280
     0
102
RTVSPost2010PropOp31
 70
     1
102
RTVSPost2010Prop32
280
     0
102
RTVSPost2010PropOp32
 70
     1
102
RTVSPost2010Prop33
280
     0
102
RTVSPost2010PropOp33
 70
     1
102
RTVSPost2010Prop34
280
     0
102
RTVSPost2010PropOp34
 70
     1
102
RTVSPost2010Prop35
280
     0
102
RTVSPost2010PropOp35
 70
     1
102
RTVSPost2010Prop36
280
     0
102
RTVSPost2010PropOp36
 70
     1
102
RTVSPost2010Prop37
 90
       50
102
RTVSPost2010PropOp37
 70
     1
102
RTVSPost2010Prop38
140
0.0
102
RTVSPost2010PropOp38
 70
     1
102
RTVSPost2010Prop39
140
1.0
102
RTVSPost2010PropOp39
 70
     1
102
RTVSPost2010Prop40
 90
        0
102
RTVSPost2010PropOp40
 70
     1
102
RTVSPost2010Prop41ColorIndex
 90
       18
102
RTVSPost2010Prop41ColorRGB
 90
        0
102
RTVSPost2010PropOp41
 70
     1
102
RTVSPost2010Prop42
 90
       50
102
RTVSPost2010PropOp42
 70
     1
102
RTVSPost2010Prop43
 90
        3
102
RTVSPost2010PropOp43
 70
     1
102
RTVSPost2010Prop44ColorIndex
 90
        5
102
RTVSPost2010Prop44ColorRGB
 90
      255
102
RTVSPost2010PropOp44
 70
     1
102
RTVSPost2010Prop45
280
     0
102
RTVSPost2010PropOp45
 70
     1
102
RTVSPost2010Prop46
 90
       50
102
RTVSPost2010PropOp46
 70
     1
102
RTVSPost2010Prop47
 90
       50
102
RTVSPost2010PropOp47
 70
     1
102
RTVSPost2010Prop48
 90
       50
102
RTVSPost2010PropOp48
 70
     1
102
RTVSPost2010Prop49
280
     0
102
RTVSPost2010PropOp49
 70
     1
102
RTVSPost2010Prop50
 90
       50
102
RTVSPost2010PropOp50
 70
     1
102
RTVSPost2010Prop51ColorIndex
 90
      256
102
RTVSPost2010Prop51ColorRGB
 90
-16777216
102
RTVSPost2010PropOp51
 70
     0
102
RTVSPost2010Prop52
140
1.0
102
RTVSPost2010PropOp52
 70
     0
102
RTVSPost2010Prop53
 90
        2
102
RTVSPost2010PropOp53
 70
     1
102
RTVSPost2010Prop54
  1
strokes_ogs.tif
102
RTVSPost2010PropOp54
 70
     1
102
RTVSPost2010Prop55
280
     0
102
RTVSPost2010PropOp55
 70
     1
102
RTVSPost2010Prop56
140
1.0
102
RTVSPost2010PropOp56
 70
     1
102
RTVSPost2010Prop57
140
1.0
102
RTVSPost2010PropOp57
 70
     1
102
RTVSPropertyOp0
 70
     1
102
RTVSPropertyOp1
 70
     1
102
RTVSPropertyOp2
 70
     1
102
RTVSPropertyOp3
 70
     1
102
RTVSPropertyOp4
 70
     1
102
RTVSPropertyOp5
 70
     1
102
RTVSPropertyOp6
 70
     1
102
RTVSPropertyOp7
 70
     1
102
RTVSPropertyOp8
 70
     1
102
RTVSPropertyOp9
 70
     1
102
RTVSPropertyOp10
 70
     1
102
RTVSPropertyOp11
 70
     1
102
RTVSPropertyOp12
 70
     1
102
RTVSPropertyOp13
 70
     1
102
RTVSPropertyOp14
 70
     1
102
RTVSPropertyOp15
 70
     1
102
RTVSPropertyOp16
 70
     1
102
RTVSPropertyOp17
 70
     1
102
RTVSPropertyOp18
 70
     1
102
RTVSPropertyOp19
 70
     1
102
RTVSPropertyOp20
 70
     1
102
RTVSPropertyOp21
 70
     1
102
RTVSPropertyOp22
 70
     1
102
RTVSPropertyOp23
 70
     1
102
RTVSPropertyOp24
 70
     1
102
RTVSPropertyOp25
 70
     1
102
RTVSPropertyOp26
 70
     1
102
RTVSPropertyOp27
 70
     1
102
RTVSPropertyOp28
 70
     1
102
RTVSPropertyOp29
 70
     1
102
RTVSPropertyOp30
 70
     1
102
RTVSPropertyOp31
 70
     1
102
RTVSPropertyOp32
 70
     1
102
RTVSPropertyOp33
 70
     1
102
RTVSPropertyOp34
 70
     1
102
RTVSPropertyOp35
 70
     1
102
RTVSPropertyOp36
 70
     1
102
RTVSPropertyOp37
 70
     1
102
RTVSPropertyOp38
 70
     1
102
RTVSPropertyOp39
 70
     1
102
RTVSPropertyOp40
 70
     1
102
RTVSPropertyOp41
 70
     1
102
RTVSPropertyOp42
 70
     1
102
RTVSPropertyOp43
 70
     1
102
RTVSPropertyOp44
 70
     1
102
RTVSPropertyOp45
 70
     1
102
RTVSPropertyOp46
 70
     1
102
RTVSPropertyOp47
 70
     1
102
RTVSPropertyOp48
 70
     1
102
RTVSPropertyOp49
 70
     1
102
RTVSPropertyOp50
 70
     1
102
RTVSPropertyOp51
 70
     0
102
RTVSPropertyOp52
 70
     0
102
RTVSPropertyOp53
 70
     1
102
RTVSPropertyOp54
 70
     1
102
RTVSPropertyOp55
 70
     1
102
RTVSPropertyOp56
 70
     1
102
RTVSPropertyOp57
 70
     1
102
RTVSPropertyOp58
 70
     1
102
RTVSPropertyOp59
 70
     1
102
RTVSPropertyOp60
 70
     1
102
RTVSPropertyOp61
 70
     1
102
RTVSPropertyOp62
 70
     1
  0
XRECORD
  5
A162
102
{ACAD_REACTORS
330
A161
102
}
330
A161
100
AcDbXrecord
280
     1
102
RTVSPost2010Prop28
280
     0
102
RTVSPost2010PropOp28
 70
     1
102
RTVSPost2010Prop29
280
     1
102
RTVSPost2010PropOp29
 70
     1
102
RTVSPost2010Prop30
280
     1
102
RTVSPost2010PropOp30
 70
     1
102
RTVSPost2010Prop31
280
     0
102
RTVSPost2010PropOp31
 70
     1
102
RTVSPost2010Prop32
280
     0
102
RTVSPost2010PropOp32
 70
     1
102
RTVSPost2010Prop33
280
     0
102
RTVSPost2010PropOp33
 70
     1
102
RTVSPost2010Prop34
280
     0
102
RTVSPost2010PropOp34
 70
     1
102
RTVSPost2010Prop35
280
     0
102
RTVSPost2010PropOp35
 70
     1
102
RTVSPost2010Prop36
280
     0
102
RTVSPost2010PropOp36
 70
     1
102
RTVSPost2010Prop37
 90
       50
102
RTVSPost2010PropOp37
 70
     1
102
RTVSPost2010Prop38
140
0.0
102
RTVSPost2010PropOp38
 70
     1
102
RTVSPost2010Prop39
140
1.0
102
RTVSPost2010PropOp39
 70
     1
102
RTVSPost2010Prop40
 90
        0
102
RTVSPost2010PropOp40
 70
     1
102
RTVSPost2010Prop41ColorIndex
 90
       18
102
RTVSPost2010Prop41ColorRGB
 90
        0
102
RTVSPost2010PropOp41
 70
     1
102
RTVSPost2010Prop42
 90
       50
102
RTVSPost2010PropOp42
 70
     1
102
RTVSPost2010Prop43
 90
        3
102
RTVSPost2010PropOp43
 70
     1
102
RTVSPost2010Prop44ColorIndex
 90
        5
102
RTVSPost2010Prop44ColorRGB
 90
      255
102
RTVSPost2010PropOp44
 70
     1
102
RTVSPost2010Prop45
280
     0
102
RTVSPost2010PropOp45
 70
     1
102
RTVSPost2010Prop46
 90
       50
102
RTVSPost2010PropOp46
 70
     1
102
RTVSPost2010Prop47
 90
       50
102
RTVSPost2010PropOp47
 70
     1
102
RTVSPost2010Prop48
 90
       50
102
RTVSPost2010PropOp48
 70
     1
102
RTVSPost2010Prop49
280
     0
102
RTVSPost2010PropOp49
 70
     1
102
RTVSPost2010Prop50
 90
       50
102
RTVSPost2010PropOp50
 70
     1
102
RTVSPost2010Prop51ColorIndex
 90
      256
102
RTVSPost2010Prop51ColorRGB
 90
-16777216
102
RTVSPost2010PropOp51
 70
     0
102
RTVSPost2010Prop52
140
1.0
102
RTVSPost2010PropOp52
 70
     0
102
RTVSPost2010Prop53
 90
        2
102
RTVSPost2010PropOp53
 70
     1
102
RTVSPost2010Prop54
  1
strokes_ogs.tif
102
RTVSPost2010PropOp54
 70
     1
102
RTVSPost2010Prop55
280
     0
102
RTVSPost2010PropOp55
 70
     1
102
RTVSPost2010Prop56
140
1.0
102
RTVSPost2010PropOp56
 70
     1
102
RTVSPost2010Prop57
140
1.0
102
RTVSPost2010PropOp57
 70
     1
102
RTVSPropertyOp0
 70
     1
102
RTVSPropertyOp1
 70
     1
102
RTVSPropertyOp2
 70
     1
102
RTVSPropertyOp3
 70
     1
102
RTVSPropertyOp4
 70
     1
102
RTVSPropertyOp5
 70
     1
102
RTVSPropertyOp6
 70
     1
102
RTVSPropertyOp7
 70
     1
102
RTVSPropertyOp8
 70
     1
102
RTVSPropertyOp9
 70
     1
102
RTVSPropertyOp10
 70
     1
102
RTVSPropertyOp11
 70
     1
102
RTVSPropertyOp12
 70
     1
102
RTVSPropertyOp13
 70
     1
102
RTVSPropertyOp14
 70
     1
102
RTVSPropertyOp15
 70
     1
102
RTVSPropertyOp16
 70
     1
102
RTVSPropertyOp17
 70
     1
102
RTVSPropertyOp18
 70
     1
102
RTVSPropertyOp19
 70
     1
102
RTVSPropertyOp20
 70
     1
102
RTVSPropertyOp21
 70
     1
102
RTVSPropertyOp22
 70
     1
102
RTVSPropertyOp23
 70
     1
102
RTVSPropertyOp24
 70
     1
102
RTVSPropertyOp25
 70
     1
102
RTVSPropertyOp26
 70
     1
102
RTVSPropertyOp27
 70
     1
102
RTVSPropertyOp28
 70
     1
102
RTVSPropertyOp29
 70
     1
102
RTVSPropertyOp30
 70
     1
102
RTVSPropertyOp31
 70
     1
102
RTVSPropertyOp32
 70
     1
102
RTVSPropertyOp33
 70
     1
102
RTVSPropertyOp34
 70
     1
102
RTVSPropertyOp35
 70
     1
102
RTVSPropertyOp36
 70
     1
102
RTVSPropertyOp37
 70
     1
102
RTVSPropertyOp38
 70
     1
102
RTVSPropertyOp39
 70
     1
102
RTVSPropertyOp40
 70
     1
102
RTVSPropertyOp41
 70
     1
102
RTVSPropertyOp42
 70
     1
102
RTVSPropertyOp43
 70
     1
102
RTVSPropertyOp44
 70
     1
102
RTVSPropertyOp45
 70
     1
102
RTVSPropertyOp46
 70
     1
102
RTVSPropertyOp47
 70
     1
102
RTVSPropertyOp48
 70
     1
102
RTVSPropertyOp49
 70
     1
102
RTVSPropertyOp50
 70
     1
102
RTVSPropertyOp51
 70
     0
102
RTVSPropertyOp52
 70
     0
102
RTVSPropertyOp53
 70
     1
102
RTVSPropertyOp54
 70
     1
102
RTVSPropertyOp55
 70
     1
102
RTVSPropertyOp56
 70
     1
102
RTVSPropertyOp57
 70
     1
102
RTVSPropertyOp58
 70
     1
102
RTVSPropertyOp59
 70
     1
102
RTVSPropertyOp60
 70
     1
102
RTVSPropertyOp61
 70
     1
102
RTVSPropertyOp62
 70
     1
  0
XRECORD
  5
A16A
102
{ACAD_REACTORS
330
A169
102
}
330
A169
100
AcDbXrecord
280
     1
102
RTVSPost2010Prop28
280
     0
102
RTVSPost2010PropOp28
 70
     1
102
RTVSPost2010Prop29
280
     1
102
RTVSPost2010PropOp29
 70
     1
102
RTVSPost2010Prop30
280
     1
102
RTVSPost2010PropOp30
 70
     1
102
RTVSPost2010Prop31
280
     0
102
RTVSPost2010PropOp31
 70
     1
102
RTVSPost2010Prop32
280
     0
102
RTVSPost2010PropOp32
 70
     1
102
RTVSPost2010Prop33
280
     0
102
RTVSPost2010PropOp33
 70
     1
102
RTVSPost2010Prop34
280
     0
102
RTVSPost2010PropOp34
 70
     1
102
RTVSPost2010Prop35
280
     0
102
RTVSPost2010PropOp35
 70
     1
102
RTVSPost2010Prop36
280
     0
102
RTVSPost2010PropOp36
 70
     1
102
RTVSPost2010Prop37
 90
       50
102
RTVSPost2010PropOp37
 70
     1
102
RTVSPost2010Prop38
140
0.0
102
RTVSPost2010PropOp38
 70
     1
102
RTVSPost2010Prop39
140
1.0
102
RTVSPost2010PropOp39
 70
     1
102
RTVSPost2010Prop40
 90
        0
102
RTVSPost2010PropOp40
 70
     1
102
RTVSPost2010Prop41ColorIndex
 90
       18
102
RTVSPost2010Prop41ColorRGB
 90
        0
102
RTVSPost2010PropOp41
 70
     1
102
RTVSPost2010Prop42
 90
       50
102
RTVSPost2010PropOp42
 70
     1
102
RTVSPost2010Prop43
 90
        3
102
RTVSPost2010PropOp43
 70
     1
102
RTVSPost2010Prop44ColorIndex
 90
        5
102
RTVSPost2010Prop44ColorRGB
 90
      255
102
RTVSPost2010PropOp44
 70
     1
102
RTVSPost2010Prop45
280
     0
102
RTVSPost2010PropOp45
 70
     1
102
RTVSPost2010Prop46
 90
       50
102
RTVSPost2010PropOp46
 70
     1
102
RTVSPost2010Prop47
 90
       50
102
RTVSPost2010PropOp47
 70
     1
102
RTVSPost2010Prop48
 90
       50
102
RTVSPost2010PropOp48
 70
     1
102
RTVSPost2010Prop49
280
     0
102
RTVSPost2010PropOp49
 70
     1
102
RTVSPost2010Prop50
 90
       50
102
RTVSPost2010PropOp50
 70
     1
102
RTVSPost2010Prop51ColorIndex
 90
      256
102
RTVSPost2010Prop51ColorRGB
 90
-16777216
102
RTVSPost2010PropOp51
 70
     0
102
RTVSPost2010Prop52
140
1.0
102
RTVSPost2010PropOp52
 70
     0
102
RTVSPost2010Prop53
 90
        2
102
RTVSPost2010PropOp53
 70
     1
102
RTVSPost2010Prop54
  1
strokes_ogs.tif
102
RTVSPost2010PropOp54
 70
     1
102
RTVSPost2010Prop55
280
     0
102
RTVSPost2010PropOp55
 70
     1
102
RTVSPost2010Prop56
140
1.0
102
RTVSPost2010PropOp56
 70
     1
102
RTVSPost2010Prop57
140
1.0
102
RTVSPost2010PropOp57
 70
     1
102
RTVSPropertyOp0
 70
     1
102
RTVSPropertyOp1
 70
     1
102
RTVSPropertyOp2
 70
     1
102
RTVSPropertyOp3
 70
     1
102
RTVSPropertyOp4
 70
     1
102
RTVSPropertyOp5
 70
     1
102
RTVSPropertyOp6
 70
     1
102
RTVSPropertyOp7
 70
     1
102
RTVSPropertyOp8
 70
     1
102
RTVSPropertyOp9
 70
     1
102
RTVSPropertyOp10
 70
     1
102
RTVSPropertyOp11
 70
     1
102
RTVSPropertyOp12
 70
     1
102
RTVSPropertyOp13
 70
     1
102
RTVSPropertyOp14
 70
     1
102
RTVSPropertyOp15
 70
     1
102
RTVSPropertyOp16
 70
     1
102
RTVSPropertyOp17
 70
     1
102
RTVSPropertyOp18
 70
     1
102
RTVSPropertyOp19
 70
     1
102
RTVSPropertyOp20
 70
     1
102
RTVSPropertyOp21
 70
     1
102
RTVSPropertyOp22
 70
     1
102
RTVSPropertyOp23
 70
     1
102
RTVSPropertyOp24
 70
     1
102
RTVSPropertyOp25
 70
     1
102
RTVSPropertyOp26
 70
     1
102
RTVSPropertyOp27
 70
     1
102
RTVSPropertyOp28
 70
     1
102
RTVSPropertyOp29
 70
     1
102
RTVSPropertyOp30
 70
     1
102
RTVSPropertyOp31
 70
     1
102
RTVSPropertyOp32
 70
     1
102
RTVSPropertyOp33
 70
     1
102
RTVSPropertyOp34
 70
     1
102
RTVSPropertyOp35
 70
     1
102
RTVSPropertyOp36
 70
     1
102
RTVSPropertyOp37
 70
     1
102
RTVSPropertyOp38
 70
     1
102
RTVSPropertyOp39
 70
     1
102
RTVSPropertyOp40
 70
     1
102
RTVSPropertyOp41
 70
     1
102
RTVSPropertyOp42
 70
     1
102
RTVSPropertyOp43
 70
     1
102
RTVSPropertyOp44
 70
     1
102
RTVSPropertyOp45
 70
     1
102
RTVSPropertyOp46
 70
     1
102
RTVSPropertyOp47
 70
     1
102
RTVSPropertyOp48
 70
     1
102
RTVSPropertyOp49
 70
     1
102
RTVSPropertyOp50
 70
     1
102
RTVSPropertyOp51
 70
     0
102
RTVSPropertyOp52
 70
     0
102
RTVSPropertyOp53
 70
     1
102
RTVSPropertyOp54
 70
     1
102
RTVSPropertyOp55
 70
     1
102
RTVSPropertyOp56
 70
     1
102
RTVSPropertyOp57
 70
     1
102
RTVSPropertyOp58
 70
     1
102
RTVSPropertyOp59
 70
     1
102
RTVSPropertyOp60
 70
     1
102
RTVSPropertyOp61
 70
     1
102
RTVSPropertyOp62
 70
     1
  0
XRECORD
  5
A15C
102
{ACAD_REACTORS
330
A15B
102
}
330
A15B
100
AcDbXrecord
280
     1
102
RTVSPost2010Prop28
280
     0
102
RTVSPost2010PropOp28
 70
     1
102
RTVSPost2010Prop29
280
     1
102
RTVSPost2010PropOp29
 70
     1
102
RTVSPost2010Prop30
280
     1
102
RTVSPost2010PropOp30
 70
     1
102
RTVSPost2010Prop31
280
     0
102
RTVSPost2010PropOp31
 70
     1
102
RTVSPost2010Prop32
280
     0
102
RTVSPost2010PropOp32
 70
     1
102
RTVSPost2010Prop33
280
     0
102
RTVSPost2010PropOp33
 70
     1
102
RTVSPost2010Prop34
280
     0
102
RTVSPost2010PropOp34
 70
     1
102
RTVSPost2010Prop35
280
     0
102
RTVSPost2010PropOp35
 70
     1
102
RTVSPost2010Prop36
280
     0
102
RTVSPost2010PropOp36
 70
     1
102
RTVSPost2010Prop37
 90
       50
102
RTVSPost2010PropOp37
 70
     1
102
RTVSPost2010Prop38
140
0.0
102
RTVSPost2010PropOp38
 70
     1
102
RTVSPost2010Prop39
140
1.0
102
RTVSPost2010PropOp39
 70
     1
102
RTVSPost2010Prop40
 90
        0
102
RTVSPost2010PropOp40
 70
     1
102
RTVSPost2010Prop41ColorIndex
 90
       18
102
RTVSPost2010Prop41ColorRGB
 90
        0
102
RTVSPost2010PropOp41
 70
     1
102
RTVSPost2010Prop42
 90
       50
102
RTVSPost2010PropOp42
 70
     1
102
RTVSPost2010Prop43
 90
        3
102
RTVSPost2010PropOp43
 70
     1
102
RTVSPost2010Prop44ColorIndex
 90
        5
102
RTVSPost2010Prop44ColorRGB
 90
      255
102
RTVSPost2010PropOp44
 70
     1
102
RTVSPost2010Prop45
280
     0
102
RTVSPost2010PropOp45
 70
     1
102
RTVSPost2010Prop46
 90
       50
102
RTVSPost2010PropOp46
 70
     1
102
RTVSPost2010Prop47
 90
       50
102
RTVSPost2010PropOp47
 70
     1
102
RTVSPost2010Prop48
 90
       50
102
RTVSPost2010PropOp48
 70
     1
102
RTVSPost2010Prop49
280
     0
102
RTVSPost2010PropOp49
 70
     1
102
RTVSPost2010Prop50
 90
       50
102
RTVSPost2010PropOp50
 70
     1
102
RTVSPost2010Prop51ColorIndex
 90
      256
102
RTVSPost2010Prop51ColorRGB
 90
-16777216
102
RTVSPost2010PropOp51
 70
     0
102
RTVSPost2010Prop52
140
1.0
102
RTVSPost2010PropOp52
 70
     0
102
RTVSPost2010Prop53
 90
        2
102
RTVSPost2010PropOp53
 70
     1
102
RTVSPost2010Prop54
  1
strokes_ogs.tif
102
RTVSPost2010PropOp54
 70
     1
102
RTVSPost2010Prop55
280
     0
102
RTVSPost2010PropOp55
 70
     1
102
RTVSPost2010Prop56
140
1.0
102
RTVSPost2010PropOp56
 70
     1
102
RTVSPost2010Prop57
140
1.0
102
RTVSPost2010PropOp57
 70
     1
102
RTVSPropertyOp0
 70
     1
102
RTVSPropertyOp1
 70
     1
102
RTVSPropertyOp2
 70
     1
102
RTVSPropertyOp3
 70
     1
102
RTVSPropertyOp4
 70
     1
102
RTVSPropertyOp5
 70
     1
102
RTVSPropertyOp6
 70
     1
102
RTVSPropertyOp7
 70
     1
102
RTVSPropertyOp8
 70
     1
102
RTVSPropertyOp9
 70
     1
102
RTVSPropertyOp10
 70
     1
102
RTVSPropertyOp11
 70
     1
102
RTVSPropertyOp12
 70
     1
102
RTVSPropertyOp13
 70
     1
102
RTVSPropertyOp14
 70
     1
102
RTVSPropertyOp15
 70
     1
102
RTVSPropertyOp16
 70
     1
102
RTVSPropertyOp17
 70
     1
102
RTVSPropertyOp18
 70
     1
102
RTVSPropertyOp19
 70
     1
102
RTVSPropertyOp20
 70
     1
102
RTVSPropertyOp21
 70
     1
102
RTVSPropertyOp22
 70
     1
102
RTVSPropertyOp23
 70
     1
102
RTVSPropertyOp24
 70
     1
102
RTVSPropertyOp25
 70
     1
102
RTVSPropertyOp26
 70
     1
102
RTVSPropertyOp27
 70
     1
102
RTVSPropertyOp28
 70
     1
102
RTVSPropertyOp29
 70
     1
102
RTVSPropertyOp30
 70
     1
102
RTVSPropertyOp31
 70
     1
102
RTVSPropertyOp32
 70
     1
102
RTVSPropertyOp33
 70
     1
102
RTVSPropertyOp34
 70
     1
102
RTVSPropertyOp35
 70
     1
102
RTVSPropertyOp36
 70
     1
102
RTVSPropertyOp37
 70
     1
102
RTVSPropertyOp38
 70
     1
102
RTVSPropertyOp39
 70
     1
102
RTVSPropertyOp40
 70
     1
102
RTVSPropertyOp41
 70
     1
102
RTVSPropertyOp42
 70
     1
102
RTVSPropertyOp43
 70
     1
102
RTVSPropertyOp44
 70
     1
102
RTVSPropertyOp45
 70
     1
102
RTVSPropertyOp46
 70
     1
102
RTVSPropertyOp47
 70
     1
102
RTVSPropertyOp48
 70
     1
102
RTVSPropertyOp49
 70
     1
102
RTVSPropertyOp50
 70
     1
102
RTVSPropertyOp51
 70
     0
102
RTVSPropertyOp52
 70
     0
102
RTVSPropertyOp53
 70
     1
102
RTVSPropertyOp54
 70
     1
102
RTVSPropertyOp55
 70
     1
102
RTVSPropertyOp56
 70
     1
102
RTVSPropertyOp57
 70
     1
102
RTVSPropertyOp58
 70
     1
102
RTVSPropertyOp59
 70
     1
102
RTVSPropertyOp60
 70
     1
102
RTVSPropertyOp61
 70
     1
102
RTVSPropertyOp62
 70
     1
  0
XRECORD
  5
A160
102
{ACAD_REACTORS
330
A15F
102
}
330
A15F
100
AcDbXrecord
280
     1
102
RTVSPost2010Prop28
280
     0
102
RTVSPost2010PropOp28
 70
     1
102
RTVSPost2010Prop29
280
     1
102
RTVSPost2010PropOp29
 70
     1
102
RTVSPost2010Prop30
280
     1
102
RTVSPost2010PropOp30
 70
     1
102
RTVSPost2010Prop31
280
     0
102
RTVSPost2010PropOp31
 70
     1
102
RTVSPost2010Prop32
280
     0
102
RTVSPost2010PropOp32
 70
     1
102
RTVSPost2010Prop33
280
     0
102
RTVSPost2010PropOp33
 70
     1
102
RTVSPost2010Prop34
280
     0
102
RTVSPost2010PropOp34
 70
     1
102
RTVSPost2010Prop35
280
     0
102
RTVSPost2010PropOp35
 70
     1
102
RTVSPost2010Prop36
280
     0
102
RTVSPost2010PropOp36
 70
     1
102
RTVSPost2010Prop37
 90
       50
102
RTVSPost2010PropOp37
 70
     1
102
RTVSPost2010Prop38
140
0.0
102
RTVSPost2010PropOp38
 70
     1
102
RTVSPost2010Prop39
140
1.0
102
RTVSPost2010PropOp39
 70
     1
102
RTVSPost2010Prop40
 90
        0
102
RTVSPost2010PropOp40
 70
     1
102
RTVSPost2010Prop41ColorIndex
 90
       18
102
RTVSPost2010Prop41ColorRGB
 90
        0
102
RTVSPost2010PropOp41
 70
     1
102
RTVSPost2010Prop42
 90
       50
102
RTVSPost2010PropOp42
 70
     1
102
RTVSPost2010Prop43
 90
        3
102
RTVSPost2010PropOp43
 70
     1
102
RTVSPost2010Prop44ColorIndex
 90
        5
102
RTVSPost2010Prop44ColorRGB
 90
      255
102
RTVSPost2010PropOp44
 70
     1
102
RTVSPost2010Prop45
280
     0
102
RTVSPost2010PropOp45
 70
     1
102
RTVSPost2010Prop46
 90
       50
102
RTVSPost2010PropOp46
 70
     1
102
RTVSPost2010Prop47
 90
       50
102
RTVSPost2010PropOp47
 70
     1
102
RTVSPost2010Prop48
 90
       50
102
RTVSPost2010PropOp48
 70
     1
102
RTVSPost2010Prop49
280
     0
102
RTVSPost2010PropOp49
 70
     1
102
RTVSPost2010Prop50
 90
       50
102
RTVSPost2010PropOp50
 70
     1
102
RTVSPost2010Prop51ColorIndex
 90
      256
102
RTVSPost2010Prop51ColorRGB
 90
-16777216
102
RTVSPost2010PropOp51
 70
     0
102
RTVSPost2010Prop52
140
1.0
102
RTVSPost2010PropOp52
 70
     0
102
RTVSPost2010Prop53
 90
        2
102
RTVSPost2010PropOp53
 70
     1
102
RTVSPost2010Prop54
  1
strokes_ogs.tif
102
RTVSPost2010PropOp54
 70
     1
102
RTVSPost2010Prop55
280
     0
102
RTVSPost2010PropOp55
 70
     1
102
RTVSPost2010Prop56
140
1.0
102
RTVSPost2010PropOp56
 70
     1
102
RTVSPost2010Prop57
140
1.0
102
RTVSPost2010PropOp57
 70
     1
102
RTVSPropertyOp0
 70
     1
102
RTVSPropertyOp1
 70
     1
102
RTVSPropertyOp2
 70
     1
102
RTVSPropertyOp3
 70
     1
102
RTVSPropertyOp4
 70
     1
102
RTVSPropertyOp5
 70
     1
102
RTVSPropertyOp6
 70
     1
102
RTVSPropertyOp7
 70
     1
102
RTVSPropertyOp8
 70
     1
102
RTVSPropertyOp9
 70
     1
102
RTVSPropertyOp10
 70
     1
102
RTVSPropertyOp11
 70
     1
102
RTVSPropertyOp12
 70
     1
102
RTVSPropertyOp13
 70
     1
102
RTVSPropertyOp14
 70
     1
102
RTVSPropertyOp15
 70
     1
102
RTVSPropertyOp16
 70
     1
102
RTVSPropertyOp17
 70
     1
102
RTVSPropertyOp18
 70
     1
102
RTVSPropertyOp19
 70
     1
102
RTVSPropertyOp20
 70
     1
102
RTVSPropertyOp21
 70
     1
102
RTVSPropertyOp22
 70
     1
102
RTVSPropertyOp23
 70
     1
102
RTVSPropertyOp24
 70
     1
102
RTVSPropertyOp25
 70
     1
102
RTVSPropertyOp26
 70
     1
102
RTVSPropertyOp27
 70
     1
102
RTVSPropertyOp28
 70
     1
102
RTVSPropertyOp29
 70
     1
102
RTVSPropertyOp30
 70
     1
102
RTVSPropertyOp31
 70
     1
102
RTVSPropertyOp32
 70
     1
102
RTVSPropertyOp33
 70
     1
102
RTVSPropertyOp34
 70
     1
102
RTVSPropertyOp35
 70
     1
102
RTVSPropertyOp36
 70
     1
102
RTVSPropertyOp37
 70
     1
102
RTVSPropertyOp38
 70
     1
102
RTVSPropertyOp39
 70
     1
102
RTVSPropertyOp40
 70
     1
102
RTVSPropertyOp41
 70
     1
102
RTVSPropertyOp42
 70
     1
102
RTVSPropertyOp43
 70
     1
102
RTVSPropertyOp44
 70
     1
102
RTVSPropertyOp45
 70
     1
102
RTVSPropertyOp46
 70
     1
102
RTVSPropertyOp47
 70
     1
102
RTVSPropertyOp48
 70
     1
102
RTVSPropertyOp49
 70
     1
102
RTVSPropertyOp50
 70
     1
102
RTVSPropertyOp51
 70
     0
102
RTVSPropertyOp52
 70
     0
102
RTVSPropertyOp53
 70
     1
102
RTVSPropertyOp54
 70
     1
102
RTVSPropertyOp55
 70
     1
102
RTVSPropertyOp56
 70
     1
102
RTVSPropertyOp57
 70
     1
102
RTVSPropertyOp58
 70
     1
102
RTVSPropertyOp59
 70
     1
102
RTVSPropertyOp60
 70
     1
102
RTVSPropertyOp61
 70
     1
102
RTVSPropertyOp62
 70
     1
  0
XRECORD
  5
A17A
102
{ACAD_REACTORS
330
A179
102
}
330
A179
100
AcDbXrecord
280
     1
102
RTVSPost2010Prop28
280
     0
102
RTVSPost2010PropOp28
 70
     1
102
RTVSPost2010Prop29
280
     1
102
RTVSPost2010PropOp29
 70
     1
102
RTVSPost2010Prop30
280
     1
102
RTVSPost2010PropOp30
 70
     1
102
RTVSPost2010Prop31
280
     0
102
RTVSPost2010PropOp31
 70
     1
102
RTVSPost2010Prop32
280
     0
102
RTVSPost2010PropOp32
 70
     1
102
RTVSPost2010Prop33
280
     0
102
RTVSPost2010PropOp33
 70
     1
102
RTVSPost2010Prop34
280
     0
102
RTVSPost2010PropOp34
 70
     1
102
RTVSPost2010Prop35
280
     0
102
RTVSPost2010PropOp35
 70
     1
102
RTVSPost2010Prop36
280
     0
102
RTVSPost2010PropOp36
 70
     1
102
RTVSPost2010Prop37
 90
       50
102
RTVSPost2010PropOp37
 70
     0
102
RTVSPost2010Prop38
140
0.0
102
RTVSPost2010PropOp38
 70
     0
102
RTVSPost2010Prop39
140
1.0
102
RTVSPost2010PropOp39
 70
     0
102
RTVSPost2010Prop40
 90
        0
102
RTVSPost2010PropOp40
 70
     0
102
RTVSPost2010Prop41ColorIndex
 90
       18
102
RTVSPost2010Prop41ColorRGB
 90
        0
102
RTVSPost2010PropOp41
 70
     0
102
RTVSPost2010Prop42
 90
       50
102
RTVSPost2010PropOp42
 70
     0
102
RTVSPost2010Prop43
 90
        3
102
RTVSPost2010PropOp43
 70
     0
102
RTVSPost2010Prop44ColorIndex
 90
        5
102
RTVSPost2010Prop44ColorRGB
 90
      255
102
RTVSPost2010PropOp44
 70
     0
102
RTVSPost2010Prop45
280
     0
102
RTVSPost2010PropOp45
 70
     1
102
RTVSPost2010Prop46
 90
       50
102
RTVSPost2010PropOp46
 70
     0
102
RTVSPost2010Prop47
 90
       50
102
RTVSPost2010PropOp47
 70
     0
102
RTVSPost2010Prop48
 90
       50
102
RTVSPost2010PropOp48
 70
     0
102
RTVSPost2010Prop49
280
     0
102
RTVSPost2010PropOp49
 70
     1
102
RTVSPost2010Prop50
 90
       50
102
RTVSPost2010PropOp50
 70
     0
102
RTVSPost2010Prop51ColorIndex
 90
      256
102
RTVSPost2010Prop51ColorRGB
 90
-16777216
102
RTVSPost2010PropOp51
 70
     0
102
RTVSPost2010Prop52
140
1.0
102
RTVSPost2010PropOp52
 70
     0
102
RTVSPost2010Prop53
 90
        2
102
RTVSPost2010PropOp53
 70
     0
102
RTVSPost2010Prop54
  1
strokes_ogs.tif
102
RTVSPost2010PropOp54
 70
     0
102
RTVSPost2010Prop55
280
     0
102
RTVSPost2010PropOp55
 70
     1
102
RTVSPost2010Prop56
140
1.0
102
RTVSPost2010PropOp56
 70
     0
102
RTVSPost2010Prop57
140
1.0
102
RTVSPost2010PropOp57
 70
     0
102
RTVSPropertyOp0
 70
     0
102
RTVSPropertyOp1
 70
     0
102
RTVSPropertyOp2
 70
     0
102
RTVSPropertyOp3
 70
     0
102
RTVSPropertyOp4
 70
     0
102
RTVSPropertyOp5
 70
     0
102
RTVSPropertyOp6
 70
     0
102
RTVSPropertyOp7
 70
     0
102
RTVSPropertyOp8
 70
     0
102
RTVSPropertyOp9
 70
     0
102
RTVSPropertyOp10
 70
     0
102
RTVSPropertyOp11
 70
     0
102
RTVSPropertyOp12
 70
     0
102
RTVSPropertyOp13
 70
     0
102
RTVSPropertyOp14
 70
     2
102
RTVSPropertyOp15
 70
     0
102
RTVSPropertyOp16
 70
     0
102
RTVSPropertyOp17
 70
     0
102
RTVSPropertyOp18
 70
     0
102
RTVSPropertyOp19
 70
     0
102
RTVSPropertyOp20
 70
     0
102
RTVSPropertyOp21
 70
     0
102
RTVSPropertyOp22
 70
     0
102
RTVSPropertyOp23
 70
     0
102
RTVSPropertyOp24
 70
     0
102
RTVSPropertyOp25
 70
     0
102
RTVSPropertyOp26
 70
     0
102
RTVSPropertyOp27
 70
     0
102
RTVSPropertyOp28
 70
     1
102
RTVSPropertyOp29
 70
     1
102
RTVSPropertyOp30
 70
     1
102
RTVSPropertyOp31
 70
     1
102
RTVSPropertyOp32
 70
     1
102
RTVSPropertyOp33
 70
     1
102
RTVSPropertyOp34
 70
     1
102
RTVSPropertyOp35
 70
     1
102
RTVSPropertyOp36
 70
     1
102
RTVSPropertyOp37
 70
     0
102
RTVSPropertyOp38
 70
     0
102
RTVSPropertyOp39
 70
     0
102
RTVSPropertyOp40
 70
     0
102
RTVSPropertyOp41
 70
     0
102
RTVSPropertyOp42
 70
     0
102
RTVSPropertyOp43
 70
     0
102
RTVSPropertyOp44
 70
     0
102
RTVSPropertyOp45
 70
     1
102
RTVSPropertyOp46
 70
     0
102
RTVSPropertyOp47
 70
     0
102
RTVSPropertyOp48
 70
     0
102
RTVSPropertyOp49
 70
     1
102
RTVSPropertyOp50
 70
     0
102
RTVSPropertyOp51
 70
     0
102
RTVSPropertyOp52
 70
     0
102
RTVSPropertyOp53
 70
     0
102
RTVSPropertyOp54
 70
     0
102
RTVSPropertyOp55
 70
     1
102
RTVSPropertyOp56
 70
     0
102
RTVSPropertyOp57
 70
     0
102
RTVSPropertyOp58
 70
     0
102
RTVSPropertyOp59
 70
     0
102
RTVSPropertyOp60
 70
     0
102
RTVSPropertyOp61
 70
     0
102
RTVSPropertyOp62
 70
     0
  0
XRECORD
  5
A168
102
{ACAD_REACTORS
330
A167
102
}
330
A167
100
AcDbXrecord
280
     1
102
RTVSPost2010Prop28
280
     0
102
RTVSPost2010PropOp28
 70
     1
102
RTVSPost2010Prop29
280
     1
102
RTVSPost2010PropOp29
 70
     1
102
RTVSPost2010Prop30
280
     1
102
RTVSPost2010PropOp30
 70
     1
102
RTVSPost2010Prop31
280
     0
102
RTVSPost2010PropOp31
 70
     1
102
RTVSPost2010Prop32
280
     0
102
RTVSPost2010PropOp32
 70
     1
102
RTVSPost2010Prop33
280
     0
102
RTVSPost2010PropOp33
 70
     1
102
RTVSPost2010Prop34
280
     0
102
RTVSPost2010PropOp34
 70
     1
102
RTVSPost2010Prop35
280
     0
102
RTVSPost2010PropOp35
 70
     1
102
RTVSPost2010Prop36
280
     0
102
RTVSPost2010PropOp36
 70
     1
102
RTVSPost2010Prop37
 90
       50
102
RTVSPost2010PropOp37
 70
     1
102
RTVSPost2010Prop38
140
0.0
102
RTVSPost2010PropOp38
 70
     1
102
RTVSPost2010Prop39
140
1.0
102
RTVSPost2010PropOp39
 70
     1
102
RTVSPost2010Prop40
 90
        0
102
RTVSPost2010PropOp40
 70
     1
102
RTVSPost2010Prop41ColorIndex
 90
       18
102
RTVSPost2010Prop41ColorRGB
 90
        0
102
RTVSPost2010PropOp41
 70
     1
102
RTVSPost2010Prop42
 90
       50
102
RTVSPost2010PropOp42
 70
     1
102
RTVSPost2010Prop43
 90
        3
102
RTVSPost2010PropOp43
 70
     1
102
RTVSPost2010Prop44ColorIndex
 90
        5
102
RTVSPost2010Prop44ColorRGB
 90
      255
102
RTVSPost2010PropOp44
 70
     1
102
RTVSPost2010Prop45
280
     0
102
RTVSPost2010PropOp45
 70
     1
102
RTVSPost2010Prop46
 90
       50
102
RTVSPost2010PropOp46
 70
     1
102
RTVSPost2010Prop47
 90
       50
102
RTVSPost2010PropOp47
 70
     1
102
RTVSPost2010Prop48
 90
       50
102
RTVSPost2010PropOp48
 70
     1
102
RTVSPost2010Prop49
280
     0
102
RTVSPost2010PropOp49
 70
     1
102
RTVSPost2010Prop50
 90
       50
102
RTVSPost2010PropOp50
 70
     1
102
RTVSPost2010Prop51ColorIndex
 90
      256
102
RTVSPost2010Prop51ColorRGB
 90
-16777216
102
RTVSPost2010PropOp51
 70
     0
102
RTVSPost2010Prop52
140
1.0
102
RTVSPost2010PropOp52
 70
     0
102
RTVSPost2010Prop53
 90
        2
102
RTVSPost2010PropOp53
 70
     1
102
RTVSPost2010Prop54
  1
strokes_ogs.tif
102
RTVSPost2010PropOp54
 70
     1
102
RTVSPost2010Prop55
280
     0
102
RTVSPost2010PropOp55
 70
     1
102
RTVSPost2010Prop56
140
1.0
102
RTVSPost2010PropOp56
 70
     1
102
RTVSPost2010Prop57
140
1.0
102
RTVSPost2010PropOp57
 70
     1
102
RTVSPropertyOp0
 70
     1
102
RTVSPropertyOp1
 70
     1
102
RTVSPropertyOp2
 70
     1
102
RTVSPropertyOp3
 70
     1
102
RTVSPropertyOp4
 70
     1
102
RTVSPropertyOp5
 70
     1
102
RTVSPropertyOp6
 70
     1
102
RTVSPropertyOp7
 70
     1
102
RTVSPropertyOp8
 70
     1
102
RTVSPropertyOp9
 70
     1
102
RTVSPropertyOp10
 70
     1
102
RTVSPropertyOp11
 70
     1
102
RTVSPropertyOp12
 70
     1
102
RTVSPropertyOp13
 70
     1
102
RTVSPropertyOp14
 70
     1
102
RTVSPropertyOp15
 70
     1
102
RTVSPropertyOp16
 70
     1
102
RTVSPropertyOp17
 70
     1
102
RTVSPropertyOp18
 70
     1
102
RTVSPropertyOp19
 70
     1
102
RTVSPropertyOp20
 70
     1
102
RTVSPropertyOp21
 70
     1
102
RTVSPropertyOp22
 70
     1
102
RTVSPropertyOp23
 70
     1
102
RTVSPropertyOp24
 70
     1
102
RTVSPropertyOp25
 70
     1
102
RTVSPropertyOp26
 70
     1
102
RTVSPropertyOp27
 70
     1
102
RTVSPropertyOp28
 70
     1
102
RTVSPropertyOp29
 70
     1
102
RTVSPropertyOp30
 70
     1
102
RTVSPropertyOp31
 70
     1
102
RTVSPropertyOp32
 70
     1
102
RTVSPropertyOp33
 70
     1
102
RTVSPropertyOp34
 70
     1
102
RTVSPropertyOp35
 70
     1
102
RTVSPropertyOp36
 70
     1
102
RTVSPropertyOp37
 70
     1
102
RTVSPropertyOp38
 70
     1
102
RTVSPropertyOp39
 70
     1
102
RTVSPropertyOp40
 70
     1
102
RTVSPropertyOp41
 70
     1
102
RTVSPropertyOp42
 70
     1
102
RTVSPropertyOp43
 70
     1
102
RTVSPropertyOp44
 70
     1
102
RTVSPropertyOp45
 70
     1
102
RTVSPropertyOp46
 70
     1
102
RTVSPropertyOp47
 70
     1
102
RTVSPropertyOp48
 70
     1
102
RTVSPropertyOp49
 70
     1
102
RTVSPropertyOp50
 70
     1
102
RTVSPropertyOp51
 70
     0
102
RTVSPropertyOp52
 70
     0
102
RTVSPropertyOp53
 70
     1
102
RTVSPropertyOp54
 70
     1
102
RTVSPropertyOp55
 70
     1
102
RTVSPropertyOp56
 70
     1
102
RTVSPropertyOp57
 70
     1
102
RTVSPropertyOp58
 70
     1
102
RTVSPropertyOp59
 70
     1
102
RTVSPropertyOp60
 70
     1
102
RTVSPropertyOp61
 70
     1
102
RTVSPropertyOp62
 70
     1
  0
XRECORD
  5
A14C
102
{ACAD_REACTORS
330
A14B
102
}
330
A14B
100
AcDbXrecord
280
     1
102
RTVSPost2010Prop28
280
     0
102
RTVSPost2010PropOp28
 70
     1
102
RTVSPost2010Prop29
280
     1
102
RTVSPost2010PropOp29
 70
     1
102
RTVSPost2010Prop30
280
     1
102
RTVSPost2010PropOp30
 70
     1
102
RTVSPost2010Prop31
280
     0
102
RTVSPost2010PropOp31
 70
     1
102
RTVSPost2010Prop32
280
     0
102
RTVSPost2010PropOp32
 70
     1
102
RTVSPost2010Prop33
280
     0
102
RTVSPost2010PropOp33
 70
     1
102
RTVSPost2010Prop34
280
     0
102
RTVSPost2010PropOp34
 70
     1
102
RTVSPost2010Prop35
280
     0
102
RTVSPost2010PropOp35
 70
     1
102
RTVSPost2010Prop36
280
     0
102
RTVSPost2010PropOp36
 70
     1
102
RTVSPost2010Prop37
 90
       50
102
RTVSPost2010PropOp37
 70
     1
102
RTVSPost2010Prop38
140
0.0
102
RTVSPost2010PropOp38
 70
     1
102
RTVSPost2010Prop39
140
1.0
102
RTVSPost2010PropOp39
 70
     1
102
RTVSPost2010Prop40
 90
        0
102
RTVSPost2010PropOp40
 70
     1
102
RTVSPost2010Prop41ColorIndex
 90
       18
102
RTVSPost2010Prop41ColorRGB
 90
        0
102
RTVSPost2010PropOp41
 70
     1
102
RTVSPost2010Prop42
 90
       50
102
RTVSPost2010PropOp42
 70
     1
102
RTVSPost2010Prop43
 90
        3
102
RTVSPost2010PropOp43
 70
     1
102
RTVSPost2010Prop44ColorIndex
 90
        5
102
RTVSPost2010Prop44ColorRGB
 90
      255
102
RTVSPost2010PropOp44
 70
     1
102
RTVSPost2010Prop45
280
     0
102
RTVSPost2010PropOp45
 70
     1
102
RTVSPost2010Prop46
 90
       50
102
RTVSPost2010PropOp46
 70
     1
102
RTVSPost2010Prop47
 90
       50
102
RTVSPost2010PropOp47
 70
     1
102
RTVSPost2010Prop48
 90
       50
102
RTVSPost2010PropOp48
 70
     1
102
RTVSPost2010Prop49
280
     0
102
RTVSPost2010PropOp49
 70
     1
102
RTVSPost2010Prop50
 90
       50
102
RTVSPost2010PropOp50
 70
     1
102
RTVSPost2010Prop51ColorIndex
 90
      256
102
RTVSPost2010Prop51ColorRGB
 90
-16777216
102
RTVSPost2010PropOp51
 70
     0
102
RTVSPost2010Prop52
140
1.0
102
RTVSPost2010PropOp52
 70
     0
102
RTVSPost2010Prop53
 90
        2
102
RTVSPost2010PropOp53
 70
     1
102
RTVSPost2010Prop54
  1
strokes_ogs.tif
102
RTVSPost2010PropOp54
 70
     1
102
RTVSPost2010Prop55
280
     0
102
RTVSPost2010PropOp55
 70
     1
102
RTVSPost2010Prop56
140
1.0
102
RTVSPost2010PropOp56
 70
     1
102
RTVSPost2010Prop57
140
1.0
102
RTVSPost2010PropOp57
 70
     1
102
RTVSPropertyOp0
 70
     1
102
RTVSPropertyOp1
 70
     1
102
RTVSPropertyOp2
 70
     1
102
RTVSPropertyOp3
 70
     1
102
RTVSPropertyOp4
 70
     1
102
RTVSPropertyOp5
 70
     1
102
RTVSPropertyOp6
 70
     1
102
RTVSPropertyOp7
 70
     1
102
RTVSPropertyOp8
 70
     1
102
RTVSPropertyOp9
 70
     1
102
RTVSPropertyOp10
 70
     1
102
RTVSPropertyOp11
 70
     1
102
RTVSPropertyOp12
 70
     1
102
RTVSPropertyOp13
 70
     1
102
RTVSPropertyOp14
 70
     1
102
RTVSPropertyOp15
 70
     1
102
RTVSPropertyOp16
 70
     1
102
RTVSPropertyOp17
 70
     1
102
RTVSPropertyOp18
 70
     1
102
RTVSPropertyOp19
 70
     1
102
RTVSPropertyOp20
 70
     1
102
RTVSPropertyOp21
 70
     1
102
RTVSPropertyOp22
 70
     1
102
RTVSPropertyOp23
 70
     1
102
RTVSPropertyOp24
 70
     1
102
RTVSPropertyOp25
 70
     1
102
RTVSPropertyOp26
 70
     1
102
RTVSPropertyOp27
 70
     1
102
RTVSPropertyOp28
 70
     1
102
RTVSPropertyOp29
 70
     1
102
RTVSPropertyOp30
 70
     1
102
RTVSPropertyOp31
 70
     1
102
RTVSPropertyOp32
 70
     1
102
RTVSPropertyOp33
 70
     1
102
RTVSPropertyOp34
 70
     1
102
RTVSPropertyOp35
 70
     1
102
RTVSPropertyOp36
 70
     1
102
RTVSPropertyOp37
 70
     1
102
RTVSPropertyOp38
 70
     1
102
RTVSPropertyOp39
 70
     1
102
RTVSPropertyOp40
 70
     1
102
RTVSPropertyOp41
 70
     1
102
RTVSPropertyOp42
 70
     1
102
RTVSPropertyOp43
 70
     1
102
RTVSPropertyOp44
 70
     1
102
RTVSPropertyOp45
 70
     1
102
RTVSPropertyOp46
 70
     1
102
RTVSPropertyOp47
 70
     1
102
RTVSPropertyOp48
 70
     1
102
RTVSPropertyOp49
 70
     1
102
RTVSPropertyOp50
 70
     1
102
RTVSPropertyOp51
 70
     0
102
RTVSPropertyOp52
 70
     0
102
RTVSPropertyOp53
 70
     1
102
RTVSPropertyOp54
 70
     1
102
RTVSPropertyOp55
 70
     1
102
RTVSPropertyOp56
 70
     1
102
RTVSPropertyOp57
 70
     1
102
RTVSPropertyOp58
 70
     1
102
RTVSPropertyOp59
 70
     1
102
RTVSPropertyOp60
 70
     1
102
RTVSPropertyOp61
 70
     1
102
RTVSPropertyOp62
 70
     1
  0
XRECORD
  5
A14E
102
{ACAD_REACTORS
330
A14D
102
}
330
A14D
100
AcDbXrecord
280
     1
102
RTVSPost2010Prop28
280
     0
102
RTVSPost2010PropOp28
 70
     1
102
RTVSPost2010Prop29
280
     1
102
RTVSPost2010PropOp29
 70
     1
102
RTVSPost2010Prop30
280
     1
102
RTVSPost2010PropOp30
 70
     1
102
RTVSPost2010Prop31
280
     0
102
RTVSPost2010PropOp31
 70
     1
102
RTVSPost2010Prop32
280
     0
102
RTVSPost2010PropOp32
 70
     1
102
RTVSPost2010Prop33
280
     0
102
RTVSPost2010PropOp33
 70
     1
102
RTVSPost2010Prop34
280
     0
102
RTVSPost2010PropOp34
 70
     1
102
RTVSPost2010Prop35
280
     0
102
RTVSPost2010PropOp35
 70
     1
102
RTVSPost2010Prop36
280
     0
102
RTVSPost2010PropOp36
 70
     1
102
RTVSPost2010Prop37
 90
       50
102
RTVSPost2010PropOp37
 70
     1
102
RTVSPost2010Prop38
140
0.0
102
RTVSPost2010PropOp38
 70
     1
102
RTVSPost2010Prop39
140
1.0
102
RTVSPost2010PropOp39
 70
     1
102
RTVSPost2010Prop40
 90
        0
102
RTVSPost2010PropOp40
 70
     1
102
RTVSPost2010Prop41ColorIndex
 90
       18
102
RTVSPost2010Prop41ColorRGB
 90
        0
102
RTVSPost2010PropOp41
 70
     1
102
RTVSPost2010Prop42
 90
       50
102
RTVSPost2010PropOp42
 70
     1
102
RTVSPost2010Prop43
 90
        3
102
RTVSPost2010PropOp43
 70
     1
102
RTVSPost2010Prop44ColorIndex
 90
        5
102
RTVSPost2010Prop44ColorRGB
 90
      255
102
RTVSPost2010PropOp44
 70
     1
102
RTVSPost2010Prop45
280
     0
102
RTVSPost2010PropOp45
 70
     1
102
RTVSPost2010Prop46
 90
       50
102
RTVSPost2010PropOp46
 70
     1
102
RTVSPost2010Prop47
 90
       50
102
RTVSPost2010PropOp47
 70
     1
102
RTVSPost2010Prop48
 90
       50
102
RTVSPost2010PropOp48
 70
     1
102
RTVSPost2010Prop49
280
     0
102
RTVSPost2010PropOp49
 70
     1
102
RTVSPost2010Prop50
 90
       50
102
RTVSPost2010PropOp50
 70
     1
102
RTVSPost2010Prop51ColorIndex
 90
      256
102
RTVSPost2010Prop51ColorRGB
 90
-16777216
102
RTVSPost2010PropOp51
 70
     0
102
RTVSPost2010Prop52
140
1.0
102
RTVSPost2010PropOp52
 70
     0
102
RTVSPost2010Prop53
 90
        2
102
RTVSPost2010PropOp53
 70
     1
102
RTVSPost2010Prop54
  1
strokes_ogs.tif
102
RTVSPost2010PropOp54
 70
     1
102
RTVSPost2010Prop55
280
     0
102
RTVSPost2010PropOp55
 70
     1
102
RTVSPost2010Prop56
140
1.0
102
RTVSPost2010PropOp56
 70
     1
102
RTVSPost2010Prop57
140
1.0
102
RTVSPost2010PropOp57
 70
     1
102
RTVSPropertyOp0
 70
     1
102
RTVSPropertyOp1
 70
     1
102
RTVSPropertyOp2
 70
     1
102
RTVSPropertyOp3
 70
     1
102
RTVSPropertyOp4
 70
     1
102
RTVSPropertyOp5
 70
     1
102
RTVSPropertyOp6
 70
     1
102
RTVSPropertyOp7
 70
     1
102
RTVSPropertyOp8
 70
     1
102
RTVSPropertyOp9
 70
     1
102
RTVSPropertyOp10
 70
     1
102
RTVSPropertyOp11
 70
     1
102
RTVSPropertyOp12
 70
     1
102
RTVSPropertyOp13
 70
     1
102
RTVSPropertyOp14
 70
     1
102
RTVSPropertyOp15
 70
     1
102
RTVSPropertyOp16
 70
     1
102
RTVSPropertyOp17
 70
     1
102
RTVSPropertyOp18
 70
     1
102
RTVSPropertyOp19
 70
     1
102
RTVSPropertyOp20
 70
     1
102
RTVSPropertyOp21
 70
     1
102
RTVSPropertyOp22
 70
     1
102
RTVSPropertyOp23
 70
     1
102
RTVSPropertyOp24
 70
     1
102
RTVSPropertyOp25
 70
     1
102
RTVSPropertyOp26
 70
     1
102
RTVSPropertyOp27
 70
     1
102
RTVSPropertyOp28
 70
     1
102
RTVSPropertyOp29
 70
     1
102
RTVSPropertyOp30
 70
     1
102
RTVSPropertyOp31
 70
     1
102
RTVSPropertyOp32
 70
     1
102
RTVSPropertyOp33
 70
     1
102
RTVSPropertyOp34
 70
     1
102
RTVSPropertyOp35
 70
     1
102
RTVSPropertyOp36
 70
     1
102
RTVSPropertyOp37
 70
     1
102
RTVSPropertyOp38
 70
     1
102
RTVSPropertyOp39
 70
     1
102
RTVSPropertyOp40
 70
     1
102
RTVSPropertyOp41
 70
     1
102
RTVSPropertyOp42
 70
     1
102
RTVSPropertyOp43
 70
     1
102
RTVSPropertyOp44
 70
     1
102
RTVSPropertyOp45
 70
     1
102
RTVSPropertyOp46
 70
     1
102
RTVSPropertyOp47
 70
     1
102
RTVSPropertyOp48
 70
     1
102
RTVSPropertyOp49
 70
     1
102
RTVSPropertyOp50
 70
     1
102
RTVSPropertyOp51
 70
     0
102
RTVSPropertyOp52
 70
     0
102
RTVSPropertyOp53
 70
     1
102
RTVSPropertyOp54
 70
     1
102
RTVSPropertyOp55
 70
     1
102
RTVSPropertyOp56
 70
     1
102
RTVSPropertyOp57
 70
     1
102
RTVSPropertyOp58
 70
     1
102
RTVSPropertyOp59
 70
     1
102
RTVSPropertyOp60
 70
     1
102
RTVSPropertyOp61
 70
     1
102
RTVSPropertyOp62
 70
     1
  0
XRECORD
  5
A150
102
{ACAD_REACTORS
330
A14F
102
}
330
A14F
100
AcDbXrecord
280
     1
102
RTVSPost2010Prop28
280
     0
102
RTVSPost2010PropOp28
 70
     1
102
RTVSPost2010Prop29
280
     1
102
RTVSPost2010PropOp29
 70
     1
102
RTVSPost2010Prop30
280
     1
102
RTVSPost2010PropOp30
 70
     1
102
RTVSPost2010Prop31
280
     0
102
RTVSPost2010PropOp31
 70
     1
102
RTVSPost2010Prop32
280
     0
102
RTVSPost2010PropOp32
 70
     1
102
RTVSPost2010Prop33
280
     0
102
RTVSPost2010PropOp33
 70
     1
102
RTVSPost2010Prop34
280
     0
102
RTVSPost2010PropOp34
 70
     1
102
RTVSPost2010Prop35
280
     0
102
RTVSPost2010PropOp35
 70
     1
102
RTVSPost2010Prop36
280
     0
102
RTVSPost2010PropOp36
 70
     1
102
RTVSPost2010Prop37
 90
       50
102
RTVSPost2010PropOp37
 70
     1
102
RTVSPost2010Prop38
140
0.0
102
RTVSPost2010PropOp38
 70
     1
102
RTVSPost2010Prop39
140
1.0
102
RTVSPost2010PropOp39
 70
     1
102
RTVSPost2010Prop40
 90
        0
102
RTVSPost2010PropOp40
 70
     1
102
RTVSPost2010Prop41ColorIndex
 90
       18
102
RTVSPost2010Prop41ColorRGB
 90
        0
102
RTVSPost2010PropOp41
 70
     1
102
RTVSPost2010Prop42
 90
       50
102
RTVSPost2010PropOp42
 70
     1
102
RTVSPost2010Prop43
 90
        3
102
RTVSPost2010PropOp43
 70
     1
102
RTVSPost2010Prop44ColorIndex
 90
        5
102
RTVSPost2010Prop44ColorRGB
 90
      255
102
RTVSPost2010PropOp44
 70
     1
102
RTVSPost2010Prop45
280
     0
102
RTVSPost2010PropOp45
 70
     1
102
RTVSPost2010Prop46
 90
       50
102
RTVSPost2010PropOp46
 70
     1
102
RTVSPost2010Prop47
 90
       50
102
RTVSPost2010PropOp47
 70
     1
102
RTVSPost2010Prop48
 90
       50
102
RTVSPost2010PropOp48
 70
     1
102
RTVSPost2010Prop49
280
     0
102
RTVSPost2010PropOp49
 70
     1
102
RTVSPost2010Prop50
 90
       50
102
RTVSPost2010PropOp50
 70
     1
102
RTVSPost2010Prop51ColorIndex
 90
      256
102
RTVSPost2010Prop51ColorRGB
 90
-16777216
102
RTVSPost2010PropOp51
 70
     0
102
RTVSPost2010Prop52
140
1.0
102
RTVSPost2010PropOp52
 70
     0
102
RTVSPost2010Prop53
 90
        2
102
RTVSPost2010PropOp53
 70
     1
102
RTVSPost2010Prop54
  1
strokes_ogs.tif
102
RTVSPost2010PropOp54
 70
     1
102
RTVSPost2010Prop55
280
     0
102
RTVSPost2010PropOp55
 70
     1
102
RTVSPost2010Prop56
140
1.0
102
RTVSPost2010PropOp56
 70
     1
102
RTVSPost2010Prop57
140
1.0
102
RTVSPost2010PropOp57
 70
     1
102
RTVSPropertyOp0
 70
     1
102
RTVSPropertyOp1
 70
     1
102
RTVSPropertyOp2
 70
     1
102
RTVSPropertyOp3
 70
     1
102
RTVSPropertyOp4
 70
     1
102
RTVSPropertyOp5
 70
     1
102
RTVSPropertyOp6
 70
     1
102
RTVSPropertyOp7
 70
     1
102
RTVSPropertyOp8
 70
     1
102
RTVSPropertyOp9
 70
     1
102
RTVSPropertyOp10
 70
     1
102
RTVSPropertyOp11
 70
     1
102
RTVSPropertyOp12
 70
     1
102
RTVSPropertyOp13
 70
     1
102
RTVSPropertyOp14
 70
     1
102
RTVSPropertyOp15
 70
     1
102
RTVSPropertyOp16
 70
     1
102
RTVSPropertyOp17
 70
     1
102
RTVSPropertyOp18
 70
     1
102
RTVSPropertyOp19
 70
     1
102
RTVSPropertyOp20
 70
     1
102
RTVSPropertyOp21
 70
     1
102
RTVSPropertyOp22
 70
     1
102
RTVSPropertyOp23
 70
     1
102
RTVSPropertyOp24
 70
     1
102
RTVSPropertyOp25
 70
     1
102
RTVSPropertyOp26
 70
     1
102
RTVSPropertyOp27
 70
     1
102
RTVSPropertyOp28
 70
     1
102
RTVSPropertyOp29
 70
     1
102
RTVSPropertyOp30
 70
     1
102
RTVSPropertyOp31
 70
     1
102
RTVSPropertyOp32
 70
     1
102
RTVSPropertyOp33
 70
     1
102
RTVSPropertyOp34
 70
     1
102
RTVSPropertyOp35
 70
     1
102
RTVSPropertyOp36
 70
     1
102
RTVSPropertyOp37
 70
     1
102
RTVSPropertyOp38
 70
     1
102
RTVSPropertyOp39
 70
     1
102
RTVSPropertyOp40
 70
     1
102
RTVSPropertyOp41
 70
     1
102
RTVSPropertyOp42
 70
     1
102
RTVSPropertyOp43
 70
     1
102
RTVSPropertyOp44
 70
     1
102
RTVSPropertyOp45
 70
     1
102
RTVSPropertyOp46
 70
     1
102
RTVSPropertyOp47
 70
     1
102
RTVSPropertyOp48
 70
     1
102
RTVSPropertyOp49
 70
     1
102
RTVSPropertyOp50
 70
     1
102
RTVSPropertyOp51
 70
     0
102
RTVSPropertyOp52
 70
     0
102
RTVSPropertyOp53
 70
     1
102
RTVSPropertyOp54
 70
     1
102
RTVSPropertyOp55
 70
     1
102
RTVSPropertyOp56
 70
     1
102
RTVSPropertyOp57
 70
     1
102
RTVSPropertyOp58
 70
     1
102
RTVSPropertyOp59
 70
     1
102
RTVSPropertyOp60
 70
     1
102
RTVSPropertyOp61
 70
     1
102
RTVSPropertyOp62
 70
     1
  0
XRECORD
  5
A152
102
{ACAD_REACTORS
330
A151
102
}
330
A151
100
AcDbXrecord
280
     1
102
RTVSPost2010Prop28
280
     0
102
RTVSPost2010PropOp28
 70
     1
102
RTVSPost2010Prop29
280
     1
102
RTVSPost2010PropOp29
 70
     1
102
RTVSPost2010Prop30
280
     1
102
RTVSPost2010PropOp30
 70
     1
102
RTVSPost2010Prop31
280
     0
102
RTVSPost2010PropOp31
 70
     1
102
RTVSPost2010Prop32
280
     0
102
RTVSPost2010PropOp32
 70
     1
102
RTVSPost2010Prop33
280
     0
102
RTVSPost2010PropOp33
 70
     1
102
RTVSPost2010Prop34
280
     0
102
RTVSPost2010PropOp34
 70
     1
102
RTVSPost2010Prop35
280
     0
102
RTVSPost2010PropOp35
 70
     1
102
RTVSPost2010Prop36
280
     0
102
RTVSPost2010PropOp36
 70
     1
102
RTVSPost2010Prop37
 90
       50
102
RTVSPost2010PropOp37
 70
     1
102
RTVSPost2010Prop38
140
0.0
102
RTVSPost2010PropOp38
 70
     1
102
RTVSPost2010Prop39
140
1.0
102
RTVSPost2010PropOp39
 70
     1
102
RTVSPost2010Prop40
 90
        0
102
RTVSPost2010PropOp40
 70
     1
102
RTVSPost2010Prop41ColorIndex
 90
       18
102
RTVSPost2010Prop41ColorRGB
 90
        0
102
RTVSPost2010PropOp41
 70
     1
102
RTVSPost2010Prop42
 90
       50
102
RTVSPost2010PropOp42
 70
     1
102
RTVSPost2010Prop43
 90
        3
102
RTVSPost2010PropOp43
 70
     1
102
RTVSPost2010Prop44ColorIndex
 90
        5
102
RTVSPost2010Prop44ColorRGB
 90
      255
102
RTVSPost2010PropOp44
 70
     1
102
RTVSPost2010Prop45
280
     0
102
RTVSPost2010PropOp45
 70
     1
102
RTVSPost2010Prop46
 90
       50
102
RTVSPost2010PropOp46
 70
     1
102
RTVSPost2010Prop47
 90
       50
102
RTVSPost2010PropOp47
 70
     1
102
RTVSPost2010Prop48
 90
       50
102
RTVSPost2010PropOp48
 70
     1
102
RTVSPost2010Prop49
280
     0
102
RTVSPost2010PropOp49
 70
     1
102
RTVSPost2010Prop50
 90
       50
102
RTVSPost2010PropOp50
 70
     1
102
RTVSPost2010Prop51ColorIndex
 90
      256
102
RTVSPost2010Prop51ColorRGB
 90
-16777216
102
RTVSPost2010PropOp51
 70
     0
102
RTVSPost2010Prop52
140
1.0
102
RTVSPost2010PropOp52
 70
     0
102
RTVSPost2010Prop53
 90
        2
102
RTVSPost2010PropOp53
 70
     1
102
RTVSPost2010Prop54
  1
strokes_ogs.tif
102
RTVSPost2010PropOp54
 70
     1
102
RTVSPost2010Prop55
280
     0
102
RTVSPost2010PropOp55
 70
     1
102
RTVSPost2010Prop56
140
1.0
102
RTVSPost2010PropOp56
 70
     1
102
RTVSPost2010Prop57
140
1.0
102
RTVSPost2010PropOp57
 70
     1
102
RTVSPropertyOp0
 70
     1
102
RTVSPropertyOp1
 70
     1
102
RTVSPropertyOp2
 70
     1
102
RTVSPropertyOp3
 70
     1
102
RTVSPropertyOp4
 70
     1
102
RTVSPropertyOp5
 70
     1
102
RTVSPropertyOp6
 70
     1
102
RTVSPropertyOp7
 70
     1
102
RTVSPropertyOp8
 70
     1
102
RTVSPropertyOp9
 70
     1
102
RTVSPropertyOp10
 70
     1
102
RTVSPropertyOp11
 70
     1
102
RTVSPropertyOp12
 70
     1
102
RTVSPropertyOp13
 70
     1
102
RTVSPropertyOp14
 70
     1
102
RTVSPropertyOp15
 70
     1
102
RTVSPropertyOp16
 70
     1
102
RTVSPropertyOp17
 70
     1
102
RTVSPropertyOp18
 70
     1
102
RTVSPropertyOp19
 70
     1
102
RTVSPropertyOp20
 70
     1
102
RTVSPropertyOp21
 70
     1
102
RTVSPropertyOp22
 70
     1
102
RTVSPropertyOp23
 70
     1
102
RTVSPropertyOp24
 70
     1
102
RTVSPropertyOp25
 70
     1
102
RTVSPropertyOp26
 70
     1
102
RTVSPropertyOp27
 70
     1
102
RTVSPropertyOp28
 70
     1
102
RTVSPropertyOp29
 70
     1
102
RTVSPropertyOp30
 70
     1
102
RTVSPropertyOp31
 70
     1
102
RTVSPropertyOp32
 70
     1
102
RTVSPropertyOp33
 70
     1
102
RTVSPropertyOp34
 70
     1
102
RTVSPropertyOp35
 70
     1
102
RTVSPropertyOp36
 70
     1
102
RTVSPropertyOp37
 70
     1
102
RTVSPropertyOp38
 70
     1
102
RTVSPropertyOp39
 70
     1
102
RTVSPropertyOp40
 70
     1
102
RTVSPropertyOp41
 70
     1
102
RTVSPropertyOp42
 70
     1
102
RTVSPropertyOp43
 70
     1
102
RTVSPropertyOp44
 70
     1
102
RTVSPropertyOp45
 70
     1
102
RTVSPropertyOp46
 70
     1
102
RTVSPropertyOp47
 70
     1
102
RTVSPropertyOp48
 70
     1
102
RTVSPropertyOp49
 70
     1
102
RTVSPropertyOp50
 70
     1
102
RTVSPropertyOp51
 70
     0
102
RTVSPropertyOp52
 70
     0
102
RTVSPropertyOp53
 70
     1
102
RTVSPropertyOp54
 70
     1
102
RTVSPropertyOp55
 70
     1
102
RTVSPropertyOp56
 70
     1
102
RTVSPropertyOp57
 70
     1
102
RTVSPropertyOp58
 70
     1
102
RTVSPropertyOp59
 70
     1
102
RTVSPropertyOp60
 70
     1
102
RTVSPropertyOp61
 70
     1
102
RTVSPropertyOp62
 70
     1
  0
XRECORD
  5
A15A
102
{ACAD_REACTORS
330
A159
102
}
330
A159
100
AcDbXrecord
280
     1
102
RTVSPost2010Prop28
280
     0
102
RTVSPost2010PropOp28
 70
     1
102
RTVSPost2010Prop29
280
     1
102
RTVSPost2010PropOp29
 70
     1
102
RTVSPost2010Prop30
280
     1
102
RTVSPost2010PropOp30
 70
     1
102
RTVSPost2010Prop31
280
     0
102
RTVSPost2010PropOp31
 70
     1
102
RTVSPost2010Prop32
280
     0
102
RTVSPost2010PropOp32
 70
     1
102
RTVSPost2010Prop33
280
     0
102
RTVSPost2010PropOp33
 70
     1
102
RTVSPost2010Prop34
280
     0
102
RTVSPost2010PropOp34
 70
     1
102
RTVSPost2010Prop35
280
     0
102
RTVSPost2010PropOp35
 70
     1
102
RTVSPost2010Prop36
280
     0
102
RTVSPost2010PropOp36
 70
     1
102
RTVSPost2010Prop37
 90
       50
102
RTVSPost2010PropOp37
 70
     1
102
RTVSPost2010Prop38
140
0.0
102
RTVSPost2010PropOp38
 70
     1
102
RTVSPost2010Prop39
140
1.0
102
RTVSPost2010PropOp39
 70
     1
102
RTVSPost2010Prop40
 90
        0
102
RTVSPost2010PropOp40
 70
     1
102
RTVSPost2010Prop41ColorIndex
 90
       18
102
RTVSPost2010Prop41ColorRGB
 90
        0
102
RTVSPost2010PropOp41
 70
     1
102
RTVSPost2010Prop42
 90
       50
102
RTVSPost2010PropOp42
 70
     1
102
RTVSPost2010Prop43
 90
        3
102
RTVSPost2010PropOp43
 70
     1
102
RTVSPost2010Prop44ColorIndex
 90
        5
102
RTVSPost2010Prop44ColorRGB
 90
      255
102
RTVSPost2010PropOp44
 70
     1
102
RTVSPost2010Prop45
280
     0
102
RTVSPost2010PropOp45
 70
     1
102
RTVSPost2010Prop46
 90
       50
102
RTVSPost2010PropOp46
 70
     1
102
RTVSPost2010Prop47
 90
       50
102
RTVSPost2010PropOp47
 70
     1
102
RTVSPost2010Prop48
 90
       50
102
RTVSPost2010PropOp48
 70
     1
102
RTVSPost2010Prop49
280
     0
102
RTVSPost2010PropOp49
 70
     1
102
RTVSPost2010Prop50
 90
       50
102
RTVSPost2010PropOp50
 70
     1
102
RTVSPost2010Prop51ColorIndex
 90
      256
102
RTVSPost2010Prop51ColorRGB
 90
-16777216
102
RTVSPost2010PropOp51
 70
     0
102
RTVSPost2010Prop52
140
1.0
102
RTVSPost2010PropOp52
 70
     0
102
RTVSPost2010Prop53
 90
        2
102
RTVSPost2010PropOp53
 70
     1
102
RTVSPost2010Prop54
  1
strokes_ogs.tif
102
RTVSPost2010PropOp54
 70
     1
102
RTVSPost2010Prop55
280
     0
102
RTVSPost2010PropOp55
 70
     1
102
RTVSPost2010Prop56
140
1.0
102
RTVSPost2010PropOp56
 70
     1
102
RTVSPost2010Prop57
140
1.0
102
RTVSPost2010PropOp57
 70
     1
102
RTVSPropertyOp0
 70
     1
102
RTVSPropertyOp1
 70
     1
102
RTVSPropertyOp2
 70
     1
102
RTVSPropertyOp3
 70
     1
102
RTVSPropertyOp4
 70
     1
102
RTVSPropertyOp5
 70
     1
102
RTVSPropertyOp6
 70
     1
102
RTVSPropertyOp7
 70
     1
102
RTVSPropertyOp8
 70
     1
102
RTVSPropertyOp9
 70
     1
102
RTVSPropertyOp10
 70
     1
102
RTVSPropertyOp11
 70
     1
102
RTVSPropertyOp12
 70
     1
102
RTVSPropertyOp13
 70
     1
102
RTVSPropertyOp14
 70
     1
102
RTVSPropertyOp15
 70
     1
102
RTVSPropertyOp16
 70
     1
102
RTVSPropertyOp17
 70
     1
102
RTVSPropertyOp18
 70
     1
102
RTVSPropertyOp19
 70
     1
102
RTVSPropertyOp20
 70
     1
102
RTVSPropertyOp21
 70
     1
102
RTVSPropertyOp22
 70
     1
102
RTVSPropertyOp23
 70
     1
102
RTVSPropertyOp24
 70
     1
102
RTVSPropertyOp25
 70
     1
102
RTVSPropertyOp26
 70
     1
102
RTVSPropertyOp27
 70
     1
102
RTVSPropertyOp28
 70
     1
102
RTVSPropertyOp29
 70
     1
102
RTVSPropertyOp30
 70
     1
102
RTVSPropertyOp31
 70
     1
102
RTVSPropertyOp32
 70
     1
102
RTVSPropertyOp33
 70
     1
102
RTVSPropertyOp34
 70
     1
102
RTVSPropertyOp35
 70
     1
102
RTVSPropertyOp36
 70
     1
102
RTVSPropertyOp37
 70
     1
102
RTVSPropertyOp38
 70
     1
102
RTVSPropertyOp39
 70
     1
102
RTVSPropertyOp40
 70
     1
102
RTVSPropertyOp41
 70
     1
102
RTVSPropertyOp42
 70
     1
102
RTVSPropertyOp43
 70
     1
102
RTVSPropertyOp44
 70
     1
102
RTVSPropertyOp45
 70
     1
102
RTVSPropertyOp46
 70
     1
102
RTVSPropertyOp47
 70
     1
102
RTVSPropertyOp48
 70
     1
102
RTVSPropertyOp49
 70
     1
102
RTVSPropertyOp50
 70
     1
102
RTVSPropertyOp51
 70
     0
102
RTVSPropertyOp52
 70
     0
102
RTVSPropertyOp53
 70
     1
102
RTVSPropertyOp54
 70
     1
102
RTVSPropertyOp55
 70
     1
102
RTVSPropertyOp56
 70
     1
102
RTVSPropertyOp57
 70
     1
102
RTVSPropertyOp58
 70
     1
102
RTVSPropertyOp59
 70
     1
102
RTVSPropertyOp60
 70
     1
102
RTVSPropertyOp61
 70
     1
102
RTVSPropertyOp62
 70
     1
  0
XRECORD
  5
A176
102
{ACAD_REACTORS
330
A175
102
}
330
A175
100
AcDbXrecord
280
     1
102
RTVSPost2010Prop28
280
     0
102
RTVSPost2010PropOp28
 70
     1
102
RTVSPost2010Prop29
280
     1
102
RTVSPost2010PropOp29
 70
     1
102
RTVSPost2010Prop30
280
     1
102
RTVSPost2010PropOp30
 70
     1
102
RTVSPost2010Prop31
280
     0
102
RTVSPost2010PropOp31
 70
     1
102
RTVSPost2010Prop32
280
     0
102
RTVSPost2010PropOp32
 70
     1
102
RTVSPost2010Prop33
280
     0
102
RTVSPost2010PropOp33
 70
     1
102
RTVSPost2010Prop34
280
     0
102
RTVSPost2010PropOp34
 70
     1
102
RTVSPost2010Prop35
280
     0
102
RTVSPost2010PropOp35
 70
     1
102
RTVSPost2010Prop36
280
     0
102
RTVSPost2010PropOp36
 70
     1
102
RTVSPost2010Prop37
 90
       50
102
RTVSPost2010PropOp37
 70
     0
102
RTVSPost2010Prop38
140
0.0
102
RTVSPost2010PropOp38
 70
     0
102
RTVSPost2010Prop39
140
1.0
102
RTVSPost2010PropOp39
 70
     0
102
RTVSPost2010Prop40
 90
        0
102
RTVSPost2010PropOp40
 70
     0
102
RTVSPost2010Prop41ColorIndex
 90
       18
102
RTVSPost2010Prop41ColorRGB
 90
        0
102
RTVSPost2010PropOp41
 70
     0
102
RTVSPost2010Prop42
 90
       50
102
RTVSPost2010PropOp42
 70
     0
102
RTVSPost2010Prop43
 90
        3
102
RTVSPost2010PropOp43
 70
     0
102
RTVSPost2010Prop44ColorIndex
 90
        5
102
RTVSPost2010Prop44ColorRGB
 90
      255
102
RTVSPost2010PropOp44
 70
     0
102
RTVSPost2010Prop45
280
     0
102
RTVSPost2010PropOp45
 70
     1
102
RTVSPost2010Prop46
 90
       50
102
RTVSPost2010PropOp46
 70
     0
102
RTVSPost2010Prop47
 90
       50
102
RTVSPost2010PropOp47
 70
     0
102
RTVSPost2010Prop48
 90
       50
102
RTVSPost2010PropOp48
 70
     0
102
RTVSPost2010Prop49
280
     0
102
RTVSPost2010PropOp49
 70
     1
102
RTVSPost2010Prop50
 90
       50
102
RTVSPost2010PropOp50
 70
     0
102
RTVSPost2010Prop51ColorIndex
 90
      256
102
RTVSPost2010Prop51ColorRGB
 90
-16777216
102
RTVSPost2010PropOp51
 70
     0
102
RTVSPost2010Prop52
140
1.0
102
RTVSPost2010PropOp52
 70
     0
102
RTVSPost2010Prop53
 90
        2
102
RTVSPost2010PropOp53
 70
     0
102
RTVSPost2010Prop54
  1
strokes_ogs.tif
102
RTVSPost2010PropOp54
 70
     0
102
RTVSPost2010Prop55
280
     0
102
RTVSPost2010PropOp55
 70
     1
102
RTVSPost2010Prop56
140
1.0
102
RTVSPost2010PropOp56
 70
     0
102
RTVSPost2010Prop57
140
1.0
102
RTVSPost2010PropOp57
 70
     0
102
RTVSPropertyOp0
 70
     0
102
RTVSPropertyOp1
 70
     0
102
RTVSPropertyOp2
 70
     0
102
RTVSPropertyOp3
 70
     0
102
RTVSPropertyOp4
 70
     0
102
RTVSPropertyOp5
 70
     0
102
RTVSPropertyOp6
 70
     0
102
RTVSPropertyOp7
 70
     0
102
RTVSPropertyOp8
 70
     0
102
RTVSPropertyOp9
 70
     0
102
RTVSPropertyOp10
 70
     0
102
RTVSPropertyOp11
 70
     0
102
RTVSPropertyOp12
 70
     0
102
RTVSPropertyOp13
 70
     0
102
RTVSPropertyOp14
 70
     2
102
RTVSPropertyOp15
 70
     0
102
RTVSPropertyOp16
 70
     0
102
RTVSPropertyOp17
 70
     0
102
RTVSPropertyOp18
 70
     0
102
RTVSPropertyOp19
 70
     0
102
RTVSPropertyOp20
 70
     0
102
RTVSPropertyOp21
 70
     0
102
RTVSPropertyOp22
 70
     0
102
RTVSPropertyOp23
 70
     0
102
RTVSPropertyOp24
 70
     0
102
RTVSPropertyOp25
 70
     0
102
RTVSPropertyOp26
 70
     0
102
RTVSPropertyOp27
 70
     0
102
RTVSPropertyOp28
 70
     1
102
RTVSPropertyOp29
 70
     1
102
RTVSPropertyOp30
 70
     1
102
RTVSPropertyOp31
 70
     1
102
RTVSPropertyOp32
 70
     1
102
RTVSPropertyOp33
 70
     1
102
RTVSPropertyOp34
 70
     1
102
RTVSPropertyOp35
 70
     1
102
RTVSPropertyOp36
 70
     1
102
RTVSPropertyOp37
 70
     0
102
RTVSPropertyOp38
 70
     0
102
RTVSPropertyOp39
 70
     0
102
RTVSPropertyOp40
 70
     0
102
RTVSPropertyOp41
 70
     0
102
RTVSPropertyOp42
 70
     0
102
RTVSPropertyOp43
 70
     0
102
RTVSPropertyOp44
 70
     0
102
RTVSPropertyOp45
 70
     1
102
RTVSPropertyOp46
 70
     0
102
RTVSPropertyOp47
 70
     0
102
RTVSPropertyOp48
 70
     0
102
RTVSPropertyOp49
 70
     1
102
RTVSPropertyOp50
 70
     0
102
RTVSPropertyOp51
 70
     0
102
RTVSPropertyOp52
 70
     0
102
RTVSPropertyOp53
 70
     0
102
RTVSPropertyOp54
 70
     0
102
RTVSPropertyOp55
 70
     1
102
RTVSPropertyOp56
 70
     0
102
RTVSPropertyOp57
 70
     0
102
RTVSPropertyOp58
 70
     0
102
RTVSPropertyOp59
 70
     0
102
RTVSPropertyOp60
 70
     0
102
RTVSPropertyOp61
 70
     0
102
RTVSPropertyOp62
 70
     0
  0
XRECORD
  5
A166
102
{ACAD_REACTORS
330
A165
102
}
330
A165
100
AcDbXrecord
280
     1
102
RTVSPost2010Prop28
280
     0
102
RTVSPost2010PropOp28
 70
     1
102
RTVSPost2010Prop29
280
     1
102
RTVSPost2010PropOp29
 70
     1
102
RTVSPost2010Prop30
280
     1
102
RTVSPost2010PropOp30
 70
     1
102
RTVSPost2010Prop31
280
     0
102
RTVSPost2010PropOp31
 70
     1
102
RTVSPost2010Prop32
280
     0
102
RTVSPost2010PropOp32
 70
     1
102
RTVSPost2010Prop33
280
     0
102
RTVSPost2010PropOp33
 70
     1
102
RTVSPost2010Prop34
280
     0
102
RTVSPost2010PropOp34
 70
     1
102
RTVSPost2010Prop35
280
     0
102
RTVSPost2010PropOp35
 70
     1
102
RTVSPost2010Prop36
280
     0
102
RTVSPost2010PropOp36
 70
     1
102
RTVSPost2010Prop37
 90
       50
102
RTVSPost2010PropOp37
 70
     1
102
RTVSPost2010Prop38
140
0.0
102
RTVSPost2010PropOp38
 70
     1
102
RTVSPost2010Prop39
140
1.0
102
RTVSPost2010PropOp39
 70
     1
102
RTVSPost2010Prop40
 90
        0
102
RTVSPost2010PropOp40
 70
     1
102
RTVSPost2010Prop41ColorIndex
 90
       18
102
RTVSPost2010Prop41ColorRGB
 90
        0
102
RTVSPost2010PropOp41
 70
     1
102
RTVSPost2010Prop42
 90
       50
102
RTVSPost2010PropOp42
 70
     1
102
RTVSPost2010Prop43
 90
        3
102
RTVSPost2010PropOp43
 70
     1
102
RTVSPost2010Prop44ColorIndex
 90
        5
102
RTVSPost2010Prop44ColorRGB
 90
      255
102
RTVSPost2010PropOp44
 70
     1
102
RTVSPost2010Prop45
280
     0
102
RTVSPost2010PropOp45
 70
     1
102
RTVSPost2010Prop46
 90
       50
102
RTVSPost2010PropOp46
 70
     1
102
RTVSPost2010Prop47
 90
       50
102
RTVSPost2010PropOp47
 70
     1
102
RTVSPost2010Prop48
 90
       50
102
RTVSPost2010PropOp48
 70
     1
102
RTVSPost2010Prop49
280
     0
102
RTVSPost2010PropOp49
 70
     1
102
RTVSPost2010Prop50
 90
       50
102
RTVSPost2010PropOp50
 70
     1
102
RTVSPost2010Prop51ColorIndex
 90
      256
102
RTVSPost2010Prop51ColorRGB
 90
-16777216
102
RTVSPost2010PropOp51
 70
     0
102
RTVSPost2010Prop52
140
1.0
102
RTVSPost2010PropOp52
 70
     0
102
RTVSPost2010Prop53
 90
        2
102
RTVSPost2010PropOp53
 70
     1
102
RTVSPost2010Prop54
  1
strokes_ogs.tif
102
RTVSPost2010PropOp54
 70
     1
102
RTVSPost2010Prop55
280
     0
102
RTVSPost2010PropOp55
 70
     1
102
RTVSPost2010Prop56
140
1.0
102
RTVSPost2010PropOp56
 70
     1
102
RTVSPost2010Prop57
140
1.0
102
RTVSPost2010PropOp57
 70
     1
102
RTVSPropertyOp0
 70
     1
102
RTVSPropertyOp1
 70
     1
102
RTVSPropertyOp2
 70
     1
102
RTVSPropertyOp3
 70
     1
102
RTVSPropertyOp4
 70
     1
102
RTVSPropertyOp5
 70
     1
102
RTVSPropertyOp6
 70
     1
102
RTVSPropertyOp7
 70
     1
102
RTVSPropertyOp8
 70
     1
102
RTVSPropertyOp9
 70
     1
102
RTVSPropertyOp10
 70
     1
102
RTVSPropertyOp11
 70
     1
102
RTVSPropertyOp12
 70
     1
102
RTVSPropertyOp13
 70
     1
102
RTVSPropertyOp14
 70
     1
102
RTVSPropertyOp15
 70
     1
102
RTVSPropertyOp16
 70
     1
102
RTVSPropertyOp17
 70
     1
102
RTVSPropertyOp18
 70
     1
102
RTVSPropertyOp19
 70
     1
102
RTVSPropertyOp20
 70
     1
102
RTVSPropertyOp21
 70
     1
102
RTVSPropertyOp22
 70
     1
102
RTVSPropertyOp23
 70
     1
102
RTVSPropertyOp24
 70
     1
102
RTVSPropertyOp25
 70
     1
102
RTVSPropertyOp26
 70
     1
102
RTVSPropertyOp27
 70
     1
102
RTVSPropertyOp28
 70
     1
102
RTVSPropertyOp29
 70
     1
102
RTVSPropertyOp30
 70
     1
102
RTVSPropertyOp31
 70
     1
102
RTVSPropertyOp32
 70
     1
102
RTVSPropertyOp33
 70
     1
102
RTVSPropertyOp34
 70
     1
102
RTVSPropertyOp35
 70
     1
102
RTVSPropertyOp36
 70
     1
102
RTVSPropertyOp37
 70
     1
102
RTVSPropertyOp38
 70
     1
102
RTVSPropertyOp39
 70
     1
102
RTVSPropertyOp40
 70
     1
102
RTVSPropertyOp41
 70
     1
102
RTVSPropertyOp42
 70
     1
102
RTVSPropertyOp43
 70
     1
102
RTVSPropertyOp44
 70
     1
102
RTVSPropertyOp45
 70
     1
102
RTVSPropertyOp46
 70
     1
102
RTVSPropertyOp47
 70
     1
102
RTVSPropertyOp48
 70
     1
102
RTVSPropertyOp49
 70
     1
102
RTVSPropertyOp50
 70
     1
102
RTVSPropertyOp51
 70
     0
102
RTVSPropertyOp52
 70
     0
102
RTVSPropertyOp53
 70
     1
102
RTVSPropertyOp54
 70
     1
102
RTVSPropertyOp55
 70
     1
102
RTVSPropertyOp56
 70
     1
102
RTVSPropertyOp57
 70
     1
102
RTVSPropertyOp58
 70
     1
102
RTVSPropertyOp59
 70
     1
102
RTVSPropertyOp60
 70
     1
102
RTVSPropertyOp61
 70
     1
102
RTVSPropertyOp62
 70
     1
  0
XRECORD
  5
A178
102
{ACAD_REACTORS
330
A177
102
}
330
A177
100
AcDbXrecord
280
     1
102
RTVSPost2010Prop28
280
     0
102
RTVSPost2010PropOp28
 70
     1
102
RTVSPost2010Prop29
280
     1
102
RTVSPost2010PropOp29
 70
     1
102
RTVSPost2010Prop30
280
     1
102
RTVSPost2010PropOp30
 70
     1
102
RTVSPost2010Prop31
280
     0
102
RTVSPost2010PropOp31
 70
     1
102
RTVSPost2010Prop32
280
     0
102
RTVSPost2010PropOp32
 70
     1
102
RTVSPost2010Prop33
280
     0
102
RTVSPost2010PropOp33
 70
     1
102
RTVSPost2010Prop34
280
     0
102
RTVSPost2010PropOp34
 70
     1
102
RTVSPost2010Prop35
280
     0
102
RTVSPost2010PropOp35
 70
     1
102
RTVSPost2010Prop36
280
     0
102
RTVSPost2010PropOp36
 70
     1
102
RTVSPost2010Prop37
 90
       50
102
RTVSPost2010PropOp37
 70
     0
102
RTVSPost2010Prop38
140
0.0
102
RTVSPost2010PropOp38
 70
     0
102
RTVSPost2010Prop39
140
1.0
102
RTVSPost2010PropOp39
 70
     0
102
RTVSPost2010Prop40
 90
        0
102
RTVSPost2010PropOp40
 70
     0
102
RTVSPost2010Prop41ColorIndex
 90
       18
102
RTVSPost2010Prop41ColorRGB
 90
        0
102
RTVSPost2010PropOp41
 70
     0
102
RTVSPost2010Prop42
 90
       50
102
RTVSPost2010PropOp42
 70
     0
102
RTVSPost2010Prop43
 90
        3
102
RTVSPost2010PropOp43
 70
     0
102
RTVSPost2010Prop44ColorIndex
 90
        5
102
RTVSPost2010Prop44ColorRGB
 90
      255
102
RTVSPost2010PropOp44
 70
     0
102
RTVSPost2010Prop45
280
     0
102
RTVSPost2010PropOp45
 70
     1
102
RTVSPost2010Prop46
 90
       50
102
RTVSPost2010PropOp46
 70
     0
102
RTVSPost2010Prop47
 90
       50
102
RTVSPost2010PropOp47
 70
     0
102
RTVSPost2010Prop48
 90
       50
102
RTVSPost2010PropOp48
 70
     0
102
RTVSPost2010Prop49
280
     0
102
RTVSPost2010PropOp49
 70
     1
102
RTVSPost2010Prop50
 90
       50
102
RTVSPost2010PropOp50
 70
     0
102
RTVSPost2010Prop51ColorIndex
 90
      256
102
RTVSPost2010Prop51ColorRGB
 90
-16777216
102
RTVSPost2010PropOp51
 70
     0
102
RTVSPost2010Prop52
140
1.0
102
RTVSPost2010PropOp52
 70
     0
102
RTVSPost2010Prop53
 90
        2
102
RTVSPost2010PropOp53
 70
     0
102
RTVSPost2010Prop54
  1
strokes_ogs.tif
102
RTVSPost2010PropOp54
 70
     0
102
RTVSPost2010Prop55
280
     0
102
RTVSPost2010PropOp55
 70
     1
102
RTVSPost2010Prop56
140
1.0
102
RTVSPost2010PropOp56
 70
     0
102
RTVSPost2010Prop57
140
1.0
102
RTVSPost2010PropOp57
 70
     0
102
RTVSPropertyOp0
 70
     0
102
RTVSPropertyOp1
 70
     0
102
RTVSPropertyOp2
 70
     0
102
RTVSPropertyOp3
 70
     0
102
RTVSPropertyOp4
 70
     0
102
RTVSPropertyOp5
 70
     0
102
RTVSPropertyOp6
 70
     0
102
RTVSPropertyOp7
 70
     0
102
RTVSPropertyOp8
 70
     0
102
RTVSPropertyOp9
 70
     0
102
RTVSPropertyOp10
 70
     0
102
RTVSPropertyOp11
 70
     0
102
RTVSPropertyOp12
 70
     0
102
RTVSPropertyOp13
 70
     0
102
RTVSPropertyOp14
 70
     2
102
RTVSPropertyOp15
 70
     0
102
RTVSPropertyOp16
 70
     0
102
RTVSPropertyOp17
 70
     0
102
RTVSPropertyOp18
 70
     0
102
RTVSPropertyOp19
 70
     0
102
RTVSPropertyOp20
 70
     0
102
RTVSPropertyOp21
 70
     0
102
RTVSPropertyOp22
 70
     0
102
RTVSPropertyOp23
 70
     0
102
RTVSPropertyOp24
 70
     0
102
RTVSPropertyOp25
 70
     0
102
RTVSPropertyOp26
 70
     0
102
RTVSPropertyOp27
 70
     0
102
RTVSPropertyOp28
 70
     1
102
RTVSPropertyOp29
 70
     1
102
RTVSPropertyOp30
 70
     1
102
RTVSPropertyOp31
 70
     1
102
RTVSPropertyOp32
 70
     1
102
RTVSPropertyOp33
 70
     1
102
RTVSPropertyOp34
 70
     1
102
RTVSPropertyOp35
 70
     1
102
RTVSPropertyOp36
 70
     1
102
RTVSPropertyOp37
 70
     0
102
RTVSPropertyOp38
 70
     0
102
RTVSPropertyOp39
 70
     0
102
RTVSPropertyOp40
 70
     0
102
RTVSPropertyOp41
 70
     0
102
RTVSPropertyOp42
 70
     0
102
RTVSPropertyOp43
 70
     0
102
RTVSPropertyOp44
 70
     0
102
RTVSPropertyOp45
 70
     1
102
RTVSPropertyOp46
 70
     0
102
RTVSPropertyOp47
 70
     0
102
RTVSPropertyOp48
 70
     0
102
RTVSPropertyOp49
 70
     1
102
RTVSPropertyOp50
 70
     0
102
RTVSPropertyOp51
 70
     0
102
RTVSPropertyOp52
 70
     0
102
RTVSPropertyOp53
 70
     0
102
RTVSPropertyOp54
 70
     0
102
RTVSPropertyOp55
 70
     1
102
RTVSPropertyOp56
 70
     0
102
RTVSPropertyOp57
 70
     0
102
RTVSPropertyOp58
 70
     0
102
RTVSPropertyOp59
 70
     0
102
RTVSPropertyOp60
 70
     0
102
RTVSPropertyOp61
 70
     0
102
RTVSPropertyOp62
 70
     0
  0
XRECORD
  5
A15E
102
{ACAD_REACTORS
330
A15D
102
}
330
A15D
100
AcDbXrecord
280
     1
102
RTVSPost2010Prop28
280
     0
102
RTVSPost2010PropOp28
 70
     1
102
RTVSPost2010Prop29
280
     1
102
RTVSPost2010PropOp29
 70
     1
102
RTVSPost2010Prop30
280
     1
102
RTVSPost2010PropOp30
 70
     1
102
RTVSPost2010Prop31
280
     0
102
RTVSPost2010PropOp31
 70
     1
102
RTVSPost2010Prop32
280
     0
102
RTVSPost2010PropOp32
 70
     1
102
RTVSPost2010Prop33
280
     0
102
RTVSPost2010PropOp33
 70
     1
102
RTVSPost2010Prop34
280
     0
102
RTVSPost2010PropOp34
 70
     1
102
RTVSPost2010Prop35
280
     0
102
RTVSPost2010PropOp35
 70
     1
102
RTVSPost2010Prop36
280
     0
102
RTVSPost2010PropOp36
 70
     1
102
RTVSPost2010Prop37
 90
       50
102
RTVSPost2010PropOp37
 70
     1
102
RTVSPost2010Prop38
140
0.0
102
RTVSPost2010PropOp38
 70
     1
102
RTVSPost2010Prop39
140
1.0
102
RTVSPost2010PropOp39
 70
     1
102
RTVSPost2010Prop40
 90
        0
102
RTVSPost2010PropOp40
 70
     1
102
RTVSPost2010Prop41ColorIndex
 90
       18
102
RTVSPost2010Prop41ColorRGB
 90
        0
102
RTVSPost2010PropOp41
 70
     1
102
RTVSPost2010Prop42
 90
       50
102
RTVSPost2010PropOp42
 70
     1
102
RTVSPost2010Prop43
 90
        3
102
RTVSPost2010PropOp43
 70
     1
102
RTVSPost2010Prop44ColorIndex
 90
        5
102
RTVSPost2010Prop44ColorRGB
 90
      255
102
RTVSPost2010PropOp44
 70
     1
102
RTVSPost2010Prop45
280
     0
102
RTVSPost2010PropOp45
 70
     1
102
RTVSPost2010Prop46
 90
       50
102
RTVSPost2010PropOp46
 70
     1
102
RTVSPost2010Prop47
 90
       50
102
RTVSPost2010PropOp47
 70
     1
102
RTVSPost2010Prop48
 90
       50
102
RTVSPost2010PropOp48
 70
     1
102
RTVSPost2010Prop49
280
     0
102
RTVSPost2010PropOp49
 70
     1
102
RTVSPost2010Prop50
 90
       50
102
RTVSPost2010PropOp50
 70
     1
102
RTVSPost2010Prop51ColorIndex
 90
      256
102
RTVSPost2010Prop51ColorRGB
 90
-16777216
102
RTVSPost2010PropOp51
 70
     0
102
RTVSPost2010Prop52
140
1.0
102
RTVSPost2010PropOp52
 70
     0
102
RTVSPost2010Prop53
 90
        2
102
RTVSPost2010PropOp53
 70
     1
102
RTVSPost2010Prop54
  1
strokes_ogs.tif
102
RTVSPost2010PropOp54
 70
     1
102
RTVSPost2010Prop55
280
     0
102
RTVSPost2010PropOp55
 70
     1
102
RTVSPost2010Prop56
140
1.0
102
RTVSPost2010PropOp56
 70
     1
102
RTVSPost2010Prop57
140
1.0
102
RTVSPost2010PropOp57
 70
     1
102
RTVSPropertyOp0
 70
     1
102
RTVSPropertyOp1
 70
     1
102
RTVSPropertyOp2
 70
     1
102
RTVSPropertyOp3
 70
     1
102
RTVSPropertyOp4
 70
     1
102
RTVSPropertyOp5
 70
     1
102
RTVSPropertyOp6
 70
     1
102
RTVSPropertyOp7
 70
     1
102
RTVSPropertyOp8
 70
     1
102
RTVSPropertyOp9
 70
     1
102
RTVSPropertyOp10
 70
     1
102
RTVSPropertyOp11
 70
     1
102
RTVSPropertyOp12
 70
     1
102
RTVSPropertyOp13
 70
     1
102
RTVSPropertyOp14
 70
     1
102
RTVSPropertyOp15
 70
     1
102
RTVSPropertyOp16
 70
     1
102
RTVSPropertyOp17
 70
     1
102
RTVSPropertyOp18
 70
     1
102
RTVSPropertyOp19
 70
     1
102
RTVSPropertyOp20
 70
     1
102
RTVSPropertyOp21
 70
     1
102
RTVSPropertyOp22
 70
     1
102
RTVSPropertyOp23
 70
     1
102
RTVSPropertyOp24
 70
     1
102
RTVSPropertyOp25
 70
     1
102
RTVSPropertyOp26
 70
     1
102
RTVSPropertyOp27
 70
     1
102
RTVSPropertyOp28
 70
     1
102
RTVSPropertyOp29
 70
     1
102
RTVSPropertyOp30
 70
     1
102
RTVSPropertyOp31
 70
     1
102
RTVSPropertyOp32
 70
     1
102
RTVSPropertyOp33
 70
     1
102
RTVSPropertyOp34
 70
     1
102
RTVSPropertyOp35
 70
     1
102
RTVSPropertyOp36
 70
     1
102
RTVSPropertyOp37
 70
     1
102
RTVSPropertyOp38
 70
     1
102
RTVSPropertyOp39
 70
     1
102
RTVSPropertyOp40
 70
     1
102
RTVSPropertyOp41
 70
     1
102
RTVSPropertyOp42
 70
     1
102
RTVSPropertyOp43
 70
     1
102
RTVSPropertyOp44
 70
     1
102
RTVSPropertyOp45
 70
     1
102
RTVSPropertyOp46
 70
     1
102
RTVSPropertyOp47
 70
     1
102
RTVSPropertyOp48
 70
     1
102
RTVSPropertyOp49
 70
     1
102
RTVSPropertyOp50
 70
     1
102
RTVSPropertyOp51
 70
     0
102
RTVSPropertyOp52
 70
     0
102
RTVSPropertyOp53
 70
     1
102
RTVSPropertyOp54
 70
     1
102
RTVSPropertyOp55
 70
     1
102
RTVSPropertyOp56
 70
     1
102
RTVSPropertyOp57
 70
     1
102
RTVSPropertyOp58
 70
     1
102
RTVSPropertyOp59
 70
     1
102
RTVSPropertyOp60
 70
     1
102
RTVSPropertyOp61
 70
     1
102
RTVSPropertyOp62
 70
     1
  0
XRECORD
  5
A174
102
{ACAD_REACTORS
330
A173
102
}
330
A173
100
AcDbXrecord
280
     1
102
RTVSPost2010Prop28
280
     0
102
RTVSPost2010PropOp28
 70
     1
102
RTVSPost2010Prop29
280
     1
102
RTVSPost2010PropOp29
 70
     1
102
RTVSPost2010Prop30
280
     1
102
RTVSPost2010PropOp30
 70
     1
102
RTVSPost2010Prop31
280
     0
102
RTVSPost2010PropOp31
 70
     1
102
RTVSPost2010Prop32
280
     0
102
RTVSPost2010PropOp32
 70
     1
102
RTVSPost2010Prop33
280
     0
102
RTVSPost2010PropOp33
 70
     1
102
RTVSPost2010Prop34
280
     0
102
RTVSPost2010PropOp34
 70
     1
102
RTVSPost2010Prop35
280
     0
102
RTVSPost2010PropOp35
 70
     1
102
RTVSPost2010Prop36
280
     0
102
RTVSPost2010PropOp36
 70
     1
102
RTVSPost2010Prop37
 90
       50
102
RTVSPost2010PropOp37
 70
     1
102
RTVSPost2010Prop38
140
0.0
102
RTVSPost2010PropOp38
 70
     1
102
RTVSPost2010Prop39
140
1.0
102
RTVSPost2010PropOp39
 70
     1
102
RTVSPost2010Prop40
 90
        0
102
RTVSPost2010PropOp40
 70
     1
102
RTVSPost2010Prop41ColorIndex
 90
       18
102
RTVSPost2010Prop41ColorRGB
 90
        0
102
RTVSPost2010PropOp41
 70
     1
102
RTVSPost2010Prop42
 90
       50
102
RTVSPost2010PropOp42
 70
     1
102
RTVSPost2010Prop43
 90
        3
102
RTVSPost2010PropOp43
 70
     1
102
RTVSPost2010Prop44ColorIndex
 90
        5
102
RTVSPost2010Prop44ColorRGB
 90
      255
102
RTVSPost2010PropOp44
 70
     1
102
RTVSPost2010Prop45
280
     0
102
RTVSPost2010PropOp45
 70
     1
102
RTVSPost2010Prop46
 90
       50
102
RTVSPost2010PropOp46
 70
     1
102
RTVSPost2010Prop47
 90
       50
102
RTVSPost2010PropOp47
 70
     1
102
RTVSPost2010Prop48
 90
       50
102
RTVSPost2010PropOp48
 70
     1
102
RTVSPost2010Prop49
280
     0
102
RTVSPost2010PropOp49
 70
     1
102
RTVSPost2010Prop50
 90
       50
102
RTVSPost2010PropOp50
 70
     1
102
RTVSPost2010Prop51ColorIndex
 90
      256
102
RTVSPost2010Prop51ColorRGB
 90
-16777216
102
RTVSPost2010PropOp51
 70
     0
102
RTVSPost2010Prop52
140
1.0
102
RTVSPost2010PropOp52
 70
     0
102
RTVSPost2010Prop53
 90
        2
102
RTVSPost2010PropOp53
 70
     1
102
RTVSPost2010Prop54
  1
strokes_ogs.tif
102
RTVSPost2010PropOp54
 70
     1
102
RTVSPost2010Prop55
280
     0
102
RTVSPost2010PropOp55
 70
     1
102
RTVSPost2010Prop56
140
1.0
102
RTVSPost2010PropOp56
 70
     1
102
RTVSPost2010Prop57
140
1.0
102
RTVSPost2010PropOp57
 70
     1
102
RTVSPropertyOp0
 70
     1
102
RTVSPropertyOp1
 70
     1
102
RTVSPropertyOp2
 70
     1
102
RTVSPropertyOp3
 70
     1
102
RTVSPropertyOp4
 70
     1
102
RTVSPropertyOp5
 70
     1
102
RTVSPropertyOp6
 70
     1
102
RTVSPropertyOp7
 70
     1
102
RTVSPropertyOp8
 70
     1
102
RTVSPropertyOp9
 70
     1
102
RTVSPropertyOp10
 70
     1
102
RTVSPropertyOp11
 70
     1
102
RTVSPropertyOp12
 70
     1
102
RTVSPropertyOp13
 70
     1
102
RTVSPropertyOp14
 70
     1
102
RTVSPropertyOp15
 70
     1
102
RTVSPropertyOp16
 70
     1
102
RTVSPropertyOp17
 70
     1
102
RTVSPropertyOp18
 70
     1
102
RTVSPropertyOp19
 70
     1
102
RTVSPropertyOp20
 70
     1
102
RTVSPropertyOp21
 70
     1
102
RTVSPropertyOp22
 70
     1
102
RTVSPropertyOp23
 70
     1
102
RTVSPropertyOp24
 70
     1
102
RTVSPropertyOp25
 70
     1
102
RTVSPropertyOp26
 70
     1
102
RTVSPropertyOp27
 70
     1
102
RTVSPropertyOp28
 70
     1
102
RTVSPropertyOp29
 70
     1
102
RTVSPropertyOp30
 70
     1
102
RTVSPropertyOp31
 70
     1
102
RTVSPropertyOp32
 70
     1
102
RTVSPropertyOp33
 70
     1
102
RTVSPropertyOp34
 70
     1
102
RTVSPropertyOp35
 70
     1
102
RTVSPropertyOp36
 70
     1
102
RTVSPropertyOp37
 70
     1
102
RTVSPropertyOp38
 70
     1
102
RTVSPropertyOp39
 70
     1
102
RTVSPropertyOp40
 70
     1
102
RTVSPropertyOp41
 70
     1
102
RTVSPropertyOp42
 70
     1
102
RTVSPropertyOp43
 70
     1
102
RTVSPropertyOp44
 70
     1
102
RTVSPropertyOp45
 70
     1
102
RTVSPropertyOp46
 70
     1
102
RTVSPropertyOp47
 70
     1
102
RTVSPropertyOp48
 70
     1
102
RTVSPropertyOp49
 70
     1
102
RTVSPropertyOp50
 70
     1
102
RTVSPropertyOp51
 70
     0
102
RTVSPropertyOp52
 70
     0
102
RTVSPropertyOp53
 70
     1
102
RTVSPropertyOp54
 70
     1
102
RTVSPropertyOp55
 70
     1
102
RTVSPropertyOp56
 70
     1
102
RTVSPropertyOp57
 70
     1
102
RTVSPropertyOp58
 70
     1
102
RTVSPropertyOp59
 70
     1
102
RTVSPropertyOp60
 70
     1
102
RTVSPropertyOp61
 70
     1
102
RTVSPropertyOp62
 70
     1
  0
XRECORD
  5
A172
102
{ACAD_REACTORS
330
A171
102
}
330
A171
100
AcDbXrecord
280
     1
102
RTVSPost2010Prop28
280
     0
102
RTVSPost2010PropOp28
 70
     1
102
RTVSPost2010Prop29
280
     1
102
RTVSPost2010PropOp29
 70
     1
102
RTVSPost2010Prop30
280
     1
102
RTVSPost2010PropOp30
 70
     1
102
RTVSPost2010Prop31
280
     0
102
RTVSPost2010PropOp31
 70
     1
102
RTVSPost2010Prop32
280
     0
102
RTVSPost2010PropOp32
 70
     1
102
RTVSPost2010Prop33
280
     0
102
RTVSPost2010PropOp33
 70
     1
102
RTVSPost2010Prop34
280
     0
102
RTVSPost2010PropOp34
 70
     1
102
RTVSPost2010Prop35
280
     0
102
RTVSPost2010PropOp35
 70
     1
102
RTVSPost2010Prop36
280
     0
102
RTVSPost2010PropOp36
 70
     1
102
RTVSPost2010Prop37
 90
       50
102
RTVSPost2010PropOp37
 70
     1
102
RTVSPost2010Prop38
140
0.0
102
RTVSPost2010PropOp38
 70
     1
102
RTVSPost2010Prop39
140
1.0
102
RTVSPost2010PropOp39
 70
     1
102
RTVSPost2010Prop40
 90
        0
102
RTVSPost2010PropOp40
 70
     1
102
RTVSPost2010Prop41ColorIndex
 90
       18
102
RTVSPost2010Prop41ColorRGB
 90
        0
102
RTVSPost2010PropOp41
 70
     1
102
RTVSPost2010Prop42
 90
       50
102
RTVSPost2010PropOp42
 70
     1
102
RTVSPost2010Prop43
 90
        3
102
RTVSPost2010PropOp43
 70
     1
102
RTVSPost2010Prop44ColorIndex
 90
        5
102
RTVSPost2010Prop44ColorRGB
 90
      255
102
RTVSPost2010PropOp44
 70
     1
102
RTVSPost2010Prop45
280
     0
102
RTVSPost2010PropOp45
 70
     1
102
RTVSPost2010Prop46
 90
       50
102
RTVSPost2010PropOp46
 70
     1
102
RTVSPost2010Prop47
 90
       50
102
RTVSPost2010PropOp47
 70
     1
102
RTVSPost2010Prop48
 90
       50
102
RTVSPost2010PropOp48
 70
     1
102
RTVSPost2010Prop49
280
     0
102
RTVSPost2010PropOp49
 70
     1
102
RTVSPost2010Prop50
 90
       50
102
RTVSPost2010PropOp50
 70
     1
102
RTVSPost2010Prop51ColorIndex
 90
      256
102
RTVSPost2010Prop51ColorRGB
 90
-16777216
102
RTVSPost2010PropOp51
 70
     0
102
RTVSPost2010Prop52
140
1.0
102
RTVSPost2010PropOp52
 70
     0
102
RTVSPost2010Prop53
 90
        2
102
RTVSPost2010PropOp53
 70
     1
102
RTVSPost2010Prop54
  1
strokes_ogs.tif
102
RTVSPost2010PropOp54
 70
     1
102
RTVSPost2010Prop55
280
     0
102
RTVSPost2010PropOp55
 70
     1
102
RTVSPost2010Prop56
140
1.0
102
RTVSPost2010PropOp56
 70
     1
102
RTVSPost2010Prop57
140
1.0
102
RTVSPost2010PropOp57
 70
     1
102
RTVSPropertyOp0
 70
     1
102
RTVSPropertyOp1
 70
     1
102
RTVSPropertyOp2
 70
     1
102
RTVSPropertyOp3
 70
     1
102
RTVSPropertyOp4
 70
     1
102
RTVSPropertyOp5
 70
     1
102
RTVSPropertyOp6
 70
     1
102
RTVSPropertyOp7
 70
     1
102
RTVSPropertyOp8
 70
     1
102
RTVSPropertyOp9
 70
     1
102
RTVSPropertyOp10
 70
     1
102
RTVSPropertyOp11
 70
     1
102
RTVSPropertyOp12
 70
     1
102
RTVSPropertyOp13
 70
     1
102
RTVSPropertyOp14
 70
     1
102
RTVSPropertyOp15
 70
     1
102
RTVSPropertyOp16
 70
     1
102
RTVSPropertyOp17
 70
     1
102
RTVSPropertyOp18
 70
     1
102
RTVSPropertyOp19
 70
     1
102
RTVSPropertyOp20
 70
     1
102
RTVSPropertyOp21
 70
     1
102
RTVSPropertyOp22
 70
     1
102
RTVSPropertyOp23
 70
     1
102
RTVSPropertyOp24
 70
     1
102
RTVSPropertyOp25
 70
     1
102
RTVSPropertyOp26
 70
     1
102
RTVSPropertyOp27
 70
     1
102
RTVSPropertyOp28
 70
     1
102
RTVSPropertyOp29
 70
     1
102
RTVSPropertyOp30
 70
     1
102
RTVSPropertyOp31
 70
     1
102
RTVSPropertyOp32
 70
     1
102
RTVSPropertyOp33
 70
     1
102
RTVSPropertyOp34
 70
     1
102
RTVSPropertyOp35
 70
     1
102
RTVSPropertyOp36
 70
     1
102
RTVSPropertyOp37
 70
     1
102
RTVSPropertyOp38
 70
     1
102
RTVSPropertyOp39
 70
     1
102
RTVSPropertyOp40
 70
     1
102
RTVSPropertyOp41
 70
     1
102
RTVSPropertyOp42
 70
     1
102
RTVSPropertyOp43
 70
     1
102
RTVSPropertyOp44
 70
     1
102
RTVSPropertyOp45
 70
     1
102
RTVSPropertyOp46
 70
     1
102
RTVSPropertyOp47
 70
     1
102
RTVSPropertyOp48
 70
     1
102
RTVSPropertyOp49
 70
     1
102
RTVSPropertyOp50
 70
     1
102
RTVSPropertyOp51
 70
     0
102
RTVSPropertyOp52
 70
     0
102
RTVSPropertyOp53
 70
     1
102
RTVSPropertyOp54
 70
     1
102
RTVSPropertyOp55
 70
     1
102
RTVSPropertyOp56
 70
     1
102
RTVSPropertyOp57
 70
     1
102
RTVSPropertyOp58
 70
     1
102
RTVSPropertyOp59
 70
     1
102
RTVSPropertyOp60
 70
     1
102
RTVSPropertyOp61
 70
     1
102
RTVSPropertyOp62
 70
     1
  0
XRECORD
  5
A16C
102
{ACAD_REACTORS
330
A16B
102
}
330
A16B
100
AcDbXrecord
280
     1
102
RTVSPost2010Prop28
280
     0
102
RTVSPost2010PropOp28
 70
     1
102
RTVSPost2010Prop29
280
     1
102
RTVSPost2010PropOp29
 70
     1
102
RTVSPost2010Prop30
280
     1
102
RTVSPost2010PropOp30
 70
     1
102
RTVSPost2010Prop31
280
     0
102
RTVSPost2010PropOp31
 70
     1
102
RTVSPost2010Prop32
280
     0
102
RTVSPost2010PropOp32
 70
     1
102
RTVSPost2010Prop33
280
     0
102
RTVSPost2010PropOp33
 70
     1
102
RTVSPost2010Prop34
280
     0
102
RTVSPost2010PropOp34
 70
     1
102
RTVSPost2010Prop35
280
     0
102
RTVSPost2010PropOp35
 70
     1
102
RTVSPost2010Prop36
280
     0
102
RTVSPost2010PropOp36
 70
     1
102
RTVSPost2010Prop37
 90
       50
102
RTVSPost2010PropOp37
 70
     1
102
RTVSPost2010Prop38
140
0.0
102
RTVSPost2010PropOp38
 70
     1
102
RTVSPost2010Prop39
140
1.0
102
RTVSPost2010PropOp39
 70
     1
102
RTVSPost2010Prop40
 90
        0
102
RTVSPost2010PropOp40
 70
     1
102
RTVSPost2010Prop41ColorIndex
 90
       18
102
RTVSPost2010Prop41ColorRGB
 90
        0
102
RTVSPost2010PropOp41
 70
     1
102
RTVSPost2010Prop42
 90
       50
102
RTVSPost2010PropOp42
 70
     1
102
RTVSPost2010Prop43
 90
        3
102
RTVSPost2010PropOp43
 70
     1
102
RTVSPost2010Prop44ColorIndex
 90
        5
102
RTVSPost2010Prop44ColorRGB
 90
      255
102
RTVSPost2010PropOp44
 70
     1
102
RTVSPost2010Prop45
280
     0
102
RTVSPost2010PropOp45
 70
     1
102
RTVSPost2010Prop46
 90
       50
102
RTVSPost2010PropOp46
 70
     1
102
RTVSPost2010Prop47
 90
       50
102
RTVSPost2010PropOp47
 70
     1
102
RTVSPost2010Prop48
 90
       50
102
RTVSPost2010PropOp48
 70
     1
102
RTVSPost2010Prop49
280
     0
102
RTVSPost2010PropOp49
 70
     1
102
RTVSPost2010Prop50
 90
       50
102
RTVSPost2010PropOp50
 70
     1
102
RTVSPost2010Prop51ColorIndex
 90
      256
102
RTVSPost2010Prop51ColorRGB
 90
-16777216
102
RTVSPost2010PropOp51
 70
     0
102
RTVSPost2010Prop52
140
1.0
102
RTVSPost2010PropOp52
 70
     0
102
RTVSPost2010Prop53
 90
        2
102
RTVSPost2010PropOp53
 70
     1
102
RTVSPost2010Prop54
  1
strokes_ogs.tif
102
RTVSPost2010PropOp54
 70
     1
102
RTVSPost2010Prop55
280
     0
102
RTVSPost2010PropOp55
 70
     1
102
RTVSPost2010Prop56
140
1.0
102
RTVSPost2010PropOp56
 70
     1
102
RTVSPost2010Prop57
140
1.0
102
RTVSPost2010PropOp57
 70
     1
102
RTVSPropertyOp0
 70
     1
102
RTVSPropertyOp1
 70
     1
102
RTVSPropertyOp2
 70
     1
102
RTVSPropertyOp3
 70
     1
102
RTVSPropertyOp4
 70
     1
102
RTVSPropertyOp5
 70
     1
102
RTVSPropertyOp6
 70
     1
102
RTVSPropertyOp7
 70
     1
102
RTVSPropertyOp8
 70
     1
102
RTVSPropertyOp9
 70
     1
102
RTVSPropertyOp10
 70
     1
102
RTVSPropertyOp11
 70
     1
102
RTVSPropertyOp12
 70
     1
102
RTVSPropertyOp13
 70
     1
102
RTVSPropertyOp14
 70
     1
102
RTVSPropertyOp15
 70
     1
102
RTVSPropertyOp16
 70
     1
102
RTVSPropertyOp17
 70
     1
102
RTVSPropertyOp18
 70
     1
102
RTVSPropertyOp19
 70
     1
102
RTVSPropertyOp20
 70
     1
102
RTVSPropertyOp21
 70
     1
102
RTVSPropertyOp22
 70
     1
102
RTVSPropertyOp23
 70
     1
102
RTVSPropertyOp24
 70
     1
102
RTVSPropertyOp25
 70
     1
102
RTVSPropertyOp26
 70
     1
102
RTVSPropertyOp27
 70
     1
102
RTVSPropertyOp28
 70
     1
102
RTVSPropertyOp29
 70
     1
102
RTVSPropertyOp30
 70
     1
102
RTVSPropertyOp31
 70
     1
102
RTVSPropertyOp32
 70
     1
102
RTVSPropertyOp33
 70
     1
102
RTVSPropertyOp34
 70
     1
102
RTVSPropertyOp35
 70
     1
102
RTVSPropertyOp36
 70
     1
102
RTVSPropertyOp37
 70
     1
102
RTVSPropertyOp38
 70
     1
102
RTVSPropertyOp39
 70
     1
102
RTVSPropertyOp40
 70
     1
102
RTVSPropertyOp41
 70
     1
102
RTVSPropertyOp42
 70
     1
102
RTVSPropertyOp43
 70
     1
102
RTVSPropertyOp44
 70
     1
102
RTVSPropertyOp45
 70
     1
102
RTVSPropertyOp46
 70
     1
102
RTVSPropertyOp47
 70
     1
102
RTVSPropertyOp48
 70
     1
102
RTVSPropertyOp49
 70
     1
102
RTVSPropertyOp50
 70
     1
102
RTVSPropertyOp51
 70
     0
102
RTVSPropertyOp52
 70
     0
102
RTVSPropertyOp53
 70
     1
102
RTVSPropertyOp54
 70
     1
102
RTVSPropertyOp55
 70
     1
102
RTVSPropertyOp56
 70
     1
102
RTVSPropertyOp57
 70
     1
102
RTVSPropertyOp58
 70
     1
102
RTVSPropertyOp59
 70
     1
102
RTVSPropertyOp60
 70
     1
102
RTVSPropertyOp61
 70
     1
102
RTVSPropertyOp62
 70
     1
  0
XRECORD
  5
A16E
102
{ACAD_REACTORS
330
A16D
102
}
330
A16D
100
AcDbXrecord
280
     1
102
RTVSPost2010Prop28
280
     0
102
RTVSPost2010PropOp28
 70
     1
102
RTVSPost2010Prop29
280
     1
102
RTVSPost2010PropOp29
 70
     1
102
RTVSPost2010Prop30
280
     1
102
RTVSPost2010PropOp30
 70
     1
102
RTVSPost2010Prop31
280
     0
102
RTVSPost2010PropOp31
 70
     1
102
RTVSPost2010Prop32
280
     0
102
RTVSPost2010PropOp32
 70
     1
102
RTVSPost2010Prop33
280
     0
102
RTVSPost2010PropOp33
 70
     1
102
RTVSPost2010Prop34
280
     0
102
RTVSPost2010PropOp34
 70
     1
102
RTVSPost2010Prop35
280
     0
102
RTVSPost2010PropOp35
 70
     1
102
RTVSPost2010Prop36
280
     0
102
RTVSPost2010PropOp36
 70
     1
102
RTVSPost2010Prop37
 90
       50
102
RTVSPost2010PropOp37
 70
     1
102
RTVSPost2010Prop38
140
0.0
102
RTVSPost2010PropOp38
 70
     1
102
RTVSPost2010Prop39
140
1.0
102
RTVSPost2010PropOp39
 70
     1
102
RTVSPost2010Prop40
 90
        0
102
RTVSPost2010PropOp40
 70
     1
102
RTVSPost2010Prop41ColorIndex
 90
       18
102
RTVSPost2010Prop41ColorRGB
 90
        0
102
RTVSPost2010PropOp41
 70
     1
102
RTVSPost2010Prop42
 90
       50
102
RTVSPost2010PropOp42
 70
     1
102
RTVSPost2010Prop43
 90
        3
102
RTVSPost2010PropOp43
 70
     1
102
RTVSPost2010Prop44ColorIndex
 90
        5
102
RTVSPost2010Prop44ColorRGB
 90
      255
102
RTVSPost2010PropOp44
 70
     1
102
RTVSPost2010Prop45
280
     0
102
RTVSPost2010PropOp45
 70
     1
102
RTVSPost2010Prop46
 90
       50
102
RTVSPost2010PropOp46
 70
     1
102
RTVSPost2010Prop47
 90
       50
102
RTVSPost2010PropOp47
 70
     1
102
RTVSPost2010Prop48
 90
       50
102
RTVSPost2010PropOp48
 70
     1
102
RTVSPost2010Prop49
280
     0
102
RTVSPost2010PropOp49
 70
     1
102
RTVSPost2010Prop50
 90
       50
102
RTVSPost2010PropOp50
 70
     1
102
RTVSPost2010Prop51ColorIndex
 90
      256
102
RTVSPost2010Prop51ColorRGB
 90
-16777216
102
RTVSPost2010PropOp51
 70
     0
102
RTVSPost2010Prop52
140
1.0
102
RTVSPost2010PropOp52
 70
     0
102
RTVSPost2010Prop53
 90
        2
102
RTVSPost2010PropOp53
 70
     1
102
RTVSPost2010Prop54
  1
strokes_ogs.tif
102
RTVSPost2010PropOp54
 70
     1
102
RTVSPost2010Prop55
280
     0
102
RTVSPost2010PropOp55
 70
     1
102
RTVSPost2010Prop56
140
1.0
102
RTVSPost2010PropOp56
 70
     1
102
RTVSPost2010Prop57
140
1.0
102
RTVSPost2010PropOp57
 70
     1
102
RTVSPropertyOp0
 70
     1
102
RTVSPropertyOp1
 70
     1
102
RTVSPropertyOp2
 70
     1
102
RTVSPropertyOp3
 70
     1
102
RTVSPropertyOp4
 70
     1
102
RTVSPropertyOp5
 70
     1
102
RTVSPropertyOp6
 70
     1
102
RTVSPropertyOp7
 70
     1
102
RTVSPropertyOp8
 70
     1
102
RTVSPropertyOp9
 70
     1
102
RTVSPropertyOp10
 70
     1
102
RTVSPropertyOp11
 70
     1
102
RTVSPropertyOp12
 70
     1
102
RTVSPropertyOp13
 70
     1
102
RTVSPropertyOp14
 70
     1
102
RTVSPropertyOp15
 70
     1
102
RTVSPropertyOp16
 70
     1
102
RTVSPropertyOp17
 70
     1
102
RTVSPropertyOp18
 70
     1
102
RTVSPropertyOp19
 70
     1
102
RTVSPropertyOp20
 70
     1
102
RTVSPropertyOp21
 70
     1
102
RTVSPropertyOp22
 70
     1
102
RTVSPropertyOp23
 70
     1
102
RTVSPropertyOp24
 70
     1
102
RTVSPropertyOp25
 70
     1
102
RTVSPropertyOp26
 70
     1
102
RTVSPropertyOp27
 70
     1
102
RTVSPropertyOp28
 70
     1
102
RTVSPropertyOp29
 70
     1
102
RTVSPropertyOp30
 70
     1
102
RTVSPropertyOp31
 70
     1
102
RTVSPropertyOp32
 70
     1
102
RTVSPropertyOp33
 70
     1
102
RTVSPropertyOp34
 70
     1
102
RTVSPropertyOp35
 70
     1
102
RTVSPropertyOp36
 70
     1
102
RTVSPropertyOp37
 70
     1
102
RTVSPropertyOp38
 70
     1
102
RTVSPropertyOp39
 70
     1
102
RTVSPropertyOp40
 70
     1
102
RTVSPropertyOp41
 70
     1
102
RTVSPropertyOp42
 70
     1
102
RTVSPropertyOp43
 70
     1
102
RTVSPropertyOp44
 70
     1
102
RTVSPropertyOp45
 70
     1
102
RTVSPropertyOp46
 70
     1
102
RTVSPropertyOp47
 70
     1
102
RTVSPropertyOp48
 70
     1
102
RTVSPropertyOp49
 70
     1
102
RTVSPropertyOp50
 70
     1
102
RTVSPropertyOp51
 70
     0
102
RTVSPropertyOp52
 70
     0
102
RTVSPropertyOp53
 70
     1
102
RTVSPropertyOp54
 70
     1
102
RTVSPropertyOp55
 70
     1
102
RTVSPropertyOp56
 70
     1
102
RTVSPropertyOp57
 70
     1
102
RTVSPropertyOp58
 70
     1
102
RTVSPropertyOp59
 70
     1
102
RTVSPropertyOp60
 70
     1
102
RTVSPropertyOp61
 70
     1
102
RTVSPropertyOp62
 70
     1
  0
XRECORD
  5
A164
102
{ACAD_REACTORS
330
A163
102
}
330
A163
100
AcDbXrecord
280
     1
102
RTVSPost2010Prop28
280
     0
102
RTVSPost2010PropOp28
 70
     1
102
RTVSPost2010Prop29
280
     1
102
RTVSPost2010PropOp29
 70
     1
102
RTVSPost2010Prop30
280
     1
102
RTVSPost2010PropOp30
 70
     1
102
RTVSPost2010Prop31
280
     0
102
RTVSPost2010PropOp31
 70
     1
102
RTVSPost2010Prop32
280
     0
102
RTVSPost2010PropOp32
 70
     1
102
RTVSPost2010Prop33
280
     0
102
RTVSPost2010PropOp33
 70
     1
102
RTVSPost2010Prop34
280
     0
102
RTVSPost2010PropOp34
 70
     1
102
RTVSPost2010Prop35
280
     0
102
RTVSPost2010PropOp35
 70
     1
102
RTVSPost2010Prop36
280
     0
102
RTVSPost2010PropOp36
 70
     1
102
RTVSPost2010Prop37
 90
       50
102
RTVSPost2010PropOp37
 70
     1
102
RTVSPost2010Prop38
140
0.0
102
RTVSPost2010PropOp38
 70
     1
102
RTVSPost2010Prop39
140
1.0
102
RTVSPost2010PropOp39
 70
     1
102
RTVSPost2010Prop40
 90
        0
102
RTVSPost2010PropOp40
 70
     1
102
RTVSPost2010Prop41ColorIndex
 90
       18
102
RTVSPost2010Prop41ColorRGB
 90
        0
102
RTVSPost2010PropOp41
 70
     1
102
RTVSPost2010Prop42
 90
       50
102
RTVSPost2010PropOp42
 70
     1
102
RTVSPost2010Prop43
 90
        3
102
RTVSPost2010PropOp43
 70
     1
102
RTVSPost2010Prop44ColorIndex
 90
        5
102
RTVSPost2010Prop44ColorRGB
 90
      255
102
RTVSPost2010PropOp44
 70
     1
102
RTVSPost2010Prop45
280
     0
102
RTVSPost2010PropOp45
 70
     1
102
RTVSPost2010Prop46
 90
       50
102
RTVSPost2010PropOp46
 70
     1
102
RTVSPost2010Prop47
 90
       50
102
RTVSPost2010PropOp47
 70
     1
102
RTVSPost2010Prop48
 90
       50
102
RTVSPost2010PropOp48
 70
     1
102
RTVSPost2010Prop49
280
     0
102
RTVSPost2010PropOp49
 70
     1
102
RTVSPost2010Prop50
 90
       50
102
RTVSPost2010PropOp50
 70
     1
102
RTVSPost2010Prop51ColorIndex
 90
      256
102
RTVSPost2010Prop51ColorRGB
 90
-16777216
102
RTVSPost2010PropOp51
 70
     0
102
RTVSPost2010Prop52
140
1.0
102
RTVSPost2010PropOp52
 70
     0
102
RTVSPost2010Prop53
 90
        2
102
RTVSPost2010PropOp53
 70
     1
102
RTVSPost2010Prop54
  1
strokes_ogs.tif
102
RTVSPost2010PropOp54
 70
     1
102
RTVSPost2010Prop55
280
     0
102
RTVSPost2010PropOp55
 70
     1
102
RTVSPost2010Prop56
140
1.0
102
RTVSPost2010PropOp56
 70
     1
102
RTVSPost2010Prop57
140
1.0
102
RTVSPost2010PropOp57
 70
     1
102
RTVSPropertyOp0
 70
     1
102
RTVSPropertyOp1
 70
     1
102
RTVSPropertyOp2
 70
     1
102
RTVSPropertyOp3
 70
     1
102
RTVSPropertyOp4
 70
     1
102
RTVSPropertyOp5
 70
     1
102
RTVSPropertyOp6
 70
     1
102
RTVSPropertyOp7
 70
     1
102
RTVSPropertyOp8
 70
     1
102
RTVSPropertyOp9
 70
     1
102
RTVSPropertyOp10
 70
     1
102
RTVSPropertyOp11
 70
     1
102
RTVSPropertyOp12
 70
     1
102
RTVSPropertyOp13
 70
     1
102
RTVSPropertyOp14
 70
     1
102
RTVSPropertyOp15
 70
     1
102
RTVSPropertyOp16
 70
     1
102
RTVSPropertyOp17
 70
     1
102
RTVSPropertyOp18
 70
     1
102
RTVSPropertyOp19
 70
     1
102
RTVSPropertyOp20
 70
     1
102
RTVSPropertyOp21
 70
     1
102
RTVSPropertyOp22
 70
     1
102
RTVSPropertyOp23
 70
     1
102
RTVSPropertyOp24
 70
     1
102
RTVSPropertyOp25
 70
     1
102
RTVSPropertyOp26
 70
     1
102
RTVSPropertyOp27
 70
     1
102
RTVSPropertyOp28
 70
     1
102
RTVSPropertyOp29
 70
     1
102
RTVSPropertyOp30
 70
     1
102
RTVSPropertyOp31
 70
     1
102
RTVSPropertyOp32
 70
     1
102
RTVSPropertyOp33
 70
     1
102
RTVSPropertyOp34
 70
     1
102
RTVSPropertyOp35
 70
     1
102
RTVSPropertyOp36
 70
     1
102
RTVSPropertyOp37
 70
     1
102
RTVSPropertyOp38
 70
     1
102
RTVSPropertyOp39
 70
     1
102
RTVSPropertyOp40
 70
     1
102
RTVSPropertyOp41
 70
     1
102
RTVSPropertyOp42
 70
     1
102
RTVSPropertyOp43
 70
     1
102
RTVSPropertyOp44
 70
     1
102
RTVSPropertyOp45
 70
     1
102
RTVSPropertyOp46
 70
     1
102
RTVSPropertyOp47
 70
     1
102
RTVSPropertyOp48
 70
     1
102
RTVSPropertyOp49
 70
     1
102
RTVSPropertyOp50
 70
     1
102
RTVSPropertyOp51
 70
     0
102
RTVSPropertyOp52
 70
     0
102
RTVSPropertyOp53
 70
     1
102
RTVSPropertyOp54
 70
     1
102
RTVSPropertyOp55
 70
     1
102
RTVSPropertyOp56
 70
     1
102
RTVSPropertyOp57
 70
     1
102
RTVSPropertyOp58
 70
     1
102
RTVSPropertyOp59
 70
     1
102
RTVSPropertyOp60
 70
     1
102
RTVSPropertyOp61
 70
     1
102
RTVSPropertyOp62
 70
     1
  0
XRECORD
  5
A158
102
{ACAD_REACTORS
330
A157
102
}
330
A157
100
AcDbXrecord
280
     1
102
RTVSPost2010Prop28
280
     0
102
RTVSPost2010PropOp28
 70
     1
102
RTVSPost2010Prop29
280
     1
102
RTVSPost2010PropOp29
 70
     1
102
RTVSPost2010Prop30
280
     1
102
RTVSPost2010PropOp30
 70
     1
102
RTVSPost2010Prop31
280
     0
102
RTVSPost2010PropOp31
 70
     1
102
RTVSPost2010Prop32
280
     0
102
RTVSPost2010PropOp32
 70
     1
102
RTVSPost2010Prop33
280
     0
102
RTVSPost2010PropOp33
 70
     1
102
RTVSPost2010Prop34
280
     0
102
RTVSPost2010PropOp34
 70
     1
102
RTVSPost2010Prop35
280
     0
102
RTVSPost2010PropOp35
 70
     1
102
RTVSPost2010Prop36
280
     0
102
RTVSPost2010PropOp36
 70
     1
102
RTVSPost2010Prop37
 90
       50
102
RTVSPost2010PropOp37
 70
     1
102
RTVSPost2010Prop38
140
0.0
102
RTVSPost2010PropOp38
 70
     1
102
RTVSPost2010Prop39
140
1.0
102
RTVSPost2010PropOp39
 70
     1
102
RTVSPost2010Prop40
 90
        0
102
RTVSPost2010PropOp40
 70
     1
102
RTVSPost2010Prop41ColorIndex
 90
       18
102
RTVSPost2010Prop41ColorRGB
 90
        0
102
RTVSPost2010PropOp41
 70
     1
102
RTVSPost2010Prop42
 90
       50
102
RTVSPost2010PropOp42
 70
     1
102
RTVSPost2010Prop43
 90
        3
102
RTVSPost2010PropOp43
 70
     1
102
RTVSPost2010Prop44ColorIndex
 90
        5
102
RTVSPost2010Prop44ColorRGB
 90
      255
102
RTVSPost2010PropOp44
 70
     1
102
RTVSPost2010Prop45
280
     0
102
RTVSPost2010PropOp45
 70
     1
102
RTVSPost2010Prop46
 90
       50
102
RTVSPost2010PropOp46
 70
     1
102
RTVSPost2010Prop47
 90
       50
102
RTVSPost2010PropOp47
 70
     1
102
RTVSPost2010Prop48
 90
       50
102
RTVSPost2010PropOp48
 70
     1
102
RTVSPost2010Prop49
280
     0
102
RTVSPost2010PropOp49
 70
     1
102
RTVSPost2010Prop50
 90
       50
102
RTVSPost2010PropOp50
 70
     1
102
RTVSPost2010Prop51ColorIndex
 90
      256
102
RTVSPost2010Prop51ColorRGB
 90
-16777216
102
RTVSPost2010PropOp51
 70
     0
102
RTVSPost2010Prop52
140
1.0
102
RTVSPost2010PropOp52
 70
     0
102
RTVSPost2010Prop53
 90
        2
102
RTVSPost2010PropOp53
 70
     1
102
RTVSPost2010Prop54
  1
strokes_ogs.tif
102
RTVSPost2010PropOp54
 70
     1
102
RTVSPost2010Prop55
280
     0
102
RTVSPost2010PropOp55
 70
     1
102
RTVSPost2010Prop56
140
1.0
102
RTVSPost2010PropOp56
 70
     1
102
RTVSPost2010Prop57
140
1.0
102
RTVSPost2010PropOp57
 70
     1
102
RTVSPropertyOp0
 70
     1
102
RTVSPropertyOp1
 70
     1
102
RTVSPropertyOp2
 70
     1
102
RTVSPropertyOp3
 70
     1
102
RTVSPropertyOp4
 70
     1
102
RTVSPropertyOp5
 70
     1
102
RTVSPropertyOp6
 70
     1
102
RTVSPropertyOp7
 70
     1
102
RTVSPropertyOp8
 70
     1
102
RTVSPropertyOp9
 70
     1
102
RTVSPropertyOp10
 70
     1
102
RTVSPropertyOp11
 70
     1
102
RTVSPropertyOp12
 70
     1
102
RTVSPropertyOp13
 70
     1
102
RTVSPropertyOp14
 70
     1
102
RTVSPropertyOp15
 70
     1
102
RTVSPropertyOp16
 70
     1
102
RTVSPropertyOp17
 70
     1
102
RTVSPropertyOp18
 70
     1
102
RTVSPropertyOp19
 70
     1
102
RTVSPropertyOp20
 70
     1
102
RTVSPropertyOp21
 70
     1
102
RTVSPropertyOp22
 70
     1
102
RTVSPropertyOp23
 70
     1
102
RTVSPropertyOp24
 70
     1
102
RTVSPropertyOp25
 70
     1
102
RTVSPropertyOp26
 70
     1
102
RTVSPropertyOp27
 70
     1
102
RTVSPropertyOp28
 70
     1
102
RTVSPropertyOp29
 70
     1
102
RTVSPropertyOp30
 70
     1
102
RTVSPropertyOp31
 70
     1
102
RTVSPropertyOp32
 70
     1
102
RTVSPropertyOp33
 70
     1
102
RTVSPropertyOp34
 70
     1
102
RTVSPropertyOp35
 70
     1
102
RTVSPropertyOp36
 70
     1
102
RTVSPropertyOp37
 70
     1
102
RTVSPropertyOp38
 70
     1
102
RTVSPropertyOp39
 70
     1
102
RTVSPropertyOp40
 70
     1
102
RTVSPropertyOp41
 70
     1
102
RTVSPropertyOp42
 70
     1
102
RTVSPropertyOp43
 70
     1
102
RTVSPropertyOp44
 70
     1
102
RTVSPropertyOp45
 70
     1
102
RTVSPropertyOp46
 70
     1
102
RTVSPropertyOp47
 70
     1
102
RTVSPropertyOp48
 70
     1
102
RTVSPropertyOp49
 70
     1
102
RTVSPropertyOp50
 70
     1
102
RTVSPropertyOp51
 70
     0
102
RTVSPropertyOp52
 70
     0
102
RTVSPropertyOp53
 70
     1
102
RTVSPropertyOp54
 70
     1
102
RTVSPropertyOp55
 70
     1
102
RTVSPropertyOp56
 70
     1
102
RTVSPropertyOp57
 70
     1
102
RTVSPropertyOp58
 70
     1
102
RTVSPropertyOp59
 70
     1
102
RTVSPropertyOp60
 70
     1
102
RTVSPropertyOp61
 70
     1
102
RTVSPropertyOp62
 70
     1
  0
XRECORD
  5
A170
102
{ACAD_REACTORS
330
A16F
102
}
330
A16F
100
AcDbXrecord
280
     1
102
RTVSPost2010Prop28
280
     0
102
RTVSPost2010PropOp28
 70
     1
102
RTVSPost2010Prop29
280
     1
102
RTVSPost2010PropOp29
 70
     1
102
RTVSPost2010Prop30
280
     1
102
RTVSPost2010PropOp30
 70
     1
102
RTVSPost2010Prop31
280
     0
102
RTVSPost2010PropOp31
 70
     1
102
RTVSPost2010Prop32
280
     0
102
RTVSPost2010PropOp32
 70
     1
102
RTVSPost2010Prop33
280
     0
102
RTVSPost2010PropOp33
 70
     1
102
RTVSPost2010Prop34
280
     0
102
RTVSPost2010PropOp34
 70
     1
102
RTVSPost2010Prop35
280
     0
102
RTVSPost2010PropOp35
 70
     1
102
RTVSPost2010Prop36
280
     0
102
RTVSPost2010PropOp36
 70
     1
102
RTVSPost2010Prop37
 90
       50
102
RTVSPost2010PropOp37
 70
     1
102
RTVSPost2010Prop38
140
0.0
102
RTVSPost2010PropOp38
 70
     1
102
RTVSPost2010Prop39
140
1.0
102
RTVSPost2010PropOp39
 70
     1
102
RTVSPost2010Prop40
 90
        0
102
RTVSPost2010PropOp40
 70
     1
102
RTVSPost2010Prop41ColorIndex
 90
       18
102
RTVSPost2010Prop41ColorRGB
 90
        0
102
RTVSPost2010PropOp41
 70
     1
102
RTVSPost2010Prop42
 90
       50
102
RTVSPost2010PropOp42
 70
     1
102
RTVSPost2010Prop43
 90
        3
102
RTVSPost2010PropOp43
 70
     1
102
RTVSPost2010Prop44ColorIndex
 90
        5
102
RTVSPost2010Prop44ColorRGB
 90
      255
102
RTVSPost2010PropOp44
 70
     1
102
RTVSPost2010Prop45
280
     0
102
RTVSPost2010PropOp45
 70
     1
102
RTVSPost2010Prop46
 90
       50
102
RTVSPost2010PropOp46
 70
     1
102
RTVSPost2010Prop47
 90
       50
102
RTVSPost2010PropOp47
 70
     1
102
RTVSPost2010Prop48
 90
       50
102
RTVSPost2010PropOp48
 70
     1
102
RTVSPost2010Prop49
280
     0
102
RTVSPost2010PropOp49
 70
     1
102
RTVSPost2010Prop50
 90
       50
102
RTVSPost2010PropOp50
 70
     1
102
RTVSPost2010Prop51ColorIndex
 90
      256
102
RTVSPost2010Prop51ColorRGB
 90
-16777216
102
RTVSPost2010PropOp51
 70
     0
102
RTVSPost2010Prop52
140
1.0
102
RTVSPost2010PropOp52
 70
     0
102
RTVSPost2010Prop53
 90
        2
102
RTVSPost2010PropOp53
 70
     1
102
RTVSPost2010Prop54
  1
strokes_ogs.tif
102
RTVSPost2010PropOp54
 70
     1
102
RTVSPost2010Prop55
280
     0
102
RTVSPost2010PropOp55
 70
     1
102
RTVSPost2010Prop56
140
1.0
102
RTVSPost2010PropOp56
 70
     1
102
RTVSPost2010Prop57
140
1.0
102
RTVSPost2010PropOp57
 70
     1
102
RTVSPropertyOp0
 70
     1
102
RTVSPropertyOp1
 70
     1
102
RTVSPropertyOp2
 70
     1
102
RTVSPropertyOp3
 70
     1
102
RTVSPropertyOp4
 70
     1
102
RTVSPropertyOp5
 70
     1
102
RTVSPropertyOp6
 70
     1
102
RTVSPropertyOp7
 70
     1
102
RTVSPropertyOp8
 70
     1
102
RTVSPropertyOp9
 70
     1
102
RTVSPropertyOp10
 70
     1
102
RTVSPropertyOp11
 70
     1
102
RTVSPropertyOp12
 70
     1
102
RTVSPropertyOp13
 70
     1
102
RTVSPropertyOp14
 70
     1
102
RTVSPropertyOp15
 70
     1
102
RTVSPropertyOp16
 70
     1
102
RTVSPropertyOp17
 70
     1
102
RTVSPropertyOp18
 70
     1
102
RTVSPropertyOp19
 70
     1
102
RTVSPropertyOp20
 70
     1
102
RTVSPropertyOp21
 70
     1
102
RTVSPropertyOp22
 70
     1
102
RTVSPropertyOp23
 70
     1
102
RTVSPropertyOp24
 70
     1
102
RTVSPropertyOp25
 70
     1
102
RTVSPropertyOp26
 70
     1
102
RTVSPropertyOp27
 70
     1
102
RTVSPropertyOp28
 70
     1
102
RTVSPropertyOp29
 70
     1
102
RTVSPropertyOp30
 70
     1
102
RTVSPropertyOp31
 70
     1
102
RTVSPropertyOp32
 70
     1
102
RTVSPropertyOp33
 70
     1
102
RTVSPropertyOp34
 70
     1
102
RTVSPropertyOp35
 70
     1
102
RTVSPropertyOp36
 70
     1
102
RTVSPropertyOp37
 70
     1
102
RTVSPropertyOp38
 70
     1
102
RTVSPropertyOp39
 70
     1
102
RTVSPropertyOp40
 70
     1
102
RTVSPropertyOp41
 70
     1
102
RTVSPropertyOp42
 70
     1
102
RTVSPropertyOp43
 70
     1
102
RTVSPropertyOp44
 70
     1
102
RTVSPropertyOp45
 70
     1
102
RTVSPropertyOp46
 70
     1
102
RTVSPropertyOp47
 70
     1
102
RTVSPropertyOp48
 70
     1
102
RTVSPropertyOp49
 70
     1
102
RTVSPropertyOp50
 70
     1
102
RTVSPropertyOp51
 70
     0
102
RTVSPropertyOp52
 70
     0
102
RTVSPropertyOp53
 70
     1
102
RTVSPropertyOp54
 70
     1
102
RTVSPropertyOp55
 70
     1
102
RTVSPropertyOp56
 70
     1
102
RTVSPropertyOp57
 70
     1
102
RTVSPropertyOp58
 70
     1
102
RTVSPropertyOp59
 70
     1
102
RTVSPropertyOp60
 70
     1
102
RTVSPropertyOp61
 70
     1
102
RTVSPropertyOp62
 70
     1
  0
ENDSEC
  0
EOF
