  0
SECTION
  2
HEADER
  9
$ACADVER
  1
AC1015
  9
$ACADMAINTVER
 70
    20
  9
$DWGCODEPAGE
  3
ANSI_932
  9
$INSBASE
 10
0.0
 20
0.0
 30
0.0
  9
$EXTMIN
 10
9.99995
 20
9.999999999999998
 30
0.0
  9
$EXTMAX
 10
465.299988
 20
537.3499759999998
 30
0.0
  9
$LIMMIN
 10
0.0
 20
0.0
  9
$LIMMAX
 10
792.0
 20
546.0
  9
$ORTHOMODE
 70
     1
  9
$REGENMODE
 70
     1
  9
$FILLMODE
 70
     1
  9
$QTEXTMODE
 70
     0
  9
$MIRRTEXT
 70
     1
  9
$LTSCALE
 40
20.0
  9
$ATTMODE
 70
     1
  9
$TEXTSIZE
 40
5.0
  9
$TRACEWID
 40
1.0
  9
$TEXTSTYLE
  7
STANDARD
  9
$CLAYER
  8
0
  9
$CELTYPE
  6
BYLAYER
  9
$CECOLOR
 62
   256
  9
$CELTSCALE
 40
1.0
  9
$DISPSILH
 70
     0
  9
$DIMSCALE
 40
1.0
  9
$DIMASZ
 40
3.0
  9
$DIMEXO
 40
1.0
  9
$DIMDLI
 40
10.0
  9
$DIMRND
 40
0.0
  9
$DIMDLE
 40
0.0
  9
$DIMEXE
 40
1.0
  9
$DIMTP
 40
0.0
  9
$DIMTM
 40
0.0
  9
$DIMTXT
 40
3.2
  9
$DIMCEN
 40
0.0
  9
$DIMTSZ
 40
0.0
  9
$DIMTOL
 70
     0
  9
$DIMLIM
 70
     0
  9
$DIMTIH
 70
     0
  9
$DIMTOH
 70
     0
  9
$DIMSE1
 70
     0
  9
$DIMSE2
 70
     0
  9
$DIMTAD
 70
     3
  9
$DIMZIN
 70
     8
  9
$DIMBLK
  1

  9
$DIMASO
 70
     1
  9
$DIMSHO
 70
     1
  9
$DIMPOST
  1

  9
$DIMAPOST
  1

  9
$DIMALT
 70
     0
  9
$DIMALTD
 70
     2
  9
$DIMALTF
 40
25.4
  9
$DIMLFAC
 40
1.0
  9
$DIMTOFL
 70
     1
  9
$DIMTVP
 40
0.0
  9
$DIMTIX
 70
     0
  9
$DIMSOXD
 70
     0
  9
$DIMSAH
 70
     1
  9
$DIMBLK1
  1

  9
$DIMBLK2
  1

  9
$DIMSTYLE
  2
STANDARD
  9
$DIMCLRD
 70
     0
  9
$DIMCLRE
 70
     0
  9
$DIMCLRT
 70
     0
  9
$DIMTFAC
 40
1.0
  9
$DIMGAP
 40
1.0
  9
$DIMJUST
 70
     0
  9
$DIMSD1
 70
     0
  9
$DIMSD2
 70
     0
  9
$DIMTOLJ
 70
     1
  9
$DIMTZIN
 70
     0
  9
$DIMALTZ
 70
     0
  9
$DIMALTTZ
 70
     0
  9
$DIMUPT
 70
     0
  9
$DIMDEC
 70
     4
  9
$DIMTDEC
 70
     4
  9
$DIMALTU
 70
     2
  9
$DIMALTTD
 70
     2
  9
$DIMTXSTY
  7
STANDARD
  9
$DIMAUNIT
 70
     0
  9
$DIMADEC
 70
     0
  9
$DIMALTRND
 40
0.0
  9
$DIMAZIN
 70
     0
  9
$DIMDSEP
 70
    46
  9
$DIMATFIT
 70
     3
  9
$DIMFRAC
 70
     0
  9
$DIMLDRBLK
  1

  9
$DIMLUNIT
 70
     2
  9
$DIMLWD
 70
    -2
  9
$DIMLWE
 70
    -2
  9
$DIMTMOVE
 70
     0
  9
$LUNITS
 70
     2
  9
$LUPREC
 70
     4
  9
$SKETCHINC
 40
1.0
  9
$FILLETRAD
 40
2.9
  9
$AUNITS
 70
     0
  9
$AUPREC
 70
     2
  9
$MENU
  1
.
  9
$ELEVATION
 40
0.0
  9
$PELEVATION
 40
0.0
  9
$THICKNESS
 40
0.0
  9
$LIMCHECK
 70
     0
  9
$CHAMFERA
 40
10.0
  9
$CHAMFERB
 40
10.0
  9
$CHAMFERC
 40
0.0
  9
$CHAMFERD
 40
0.0
  9
$SKPOLY
 70
     0
  9
$TDCREATE
 40
2451065.507098264
  9
$TDUCREATE
 40
2451065.132098264
  9
$TDUPDATE
 40
2457192.622741898
  9
$TDUUPDATE
 40
2457192.247741898
  9
$TDINDWG
 40
0.0514054861
  9
$TDUSRTIMER
 40
0.0514048032
  9
$USRTIMER
 70
     1
  9
$ANGBASE
 50
0.0
  9
$ANGDIR
 70
     0
  9
$PDMODE
 70
     0
  9
$PDSIZE
 40
0.0
  9
$PLINEWID
 40
0.0
  9
$SPLFRAME
 70
     0
  9
$SPLINETYPE
 70
     6
  9
$SPLINESEGS
 70
     8
  9
$HANDSEED
  5
A7AC
  9
$SURFTAB1
 70
     6
  9
$SURFTAB2
 70
     6
  9
$SURFTYPE
 70
     6
  9
$SURFU
 70
     6
  9
$SURFV
 70
     6
  9
$UCSBASE
  2

  9
$UCSNAME
  2

  9
$UCSORG
 10
0.0
 20
0.0
 30
0.0
  9
$UCSXDIR
 10
1.0
 20
0.0
 30
0.0
  9
$UCSYDIR
 10
0.0
 20
1.0
 30
0.0
  9
$UCSORTHOREF
  2

  9
$UCSORTHOVIEW
 70
     0
  9
$UCSORGTOP
 10
0.0
 20
0.0
 30
0.0
  9
$UCSORGBOTTOM
 10
0.0
 20
0.0
 30
0.0
  9
$UCSORGLEFT
 10
0.0
 20
0.0
 30
0.0
  9
$UCSORGRIGHT
 10
0.0
 20
0.0
 30
0.0
  9
$UCSORGFRONT
 10
0.0
 20
0.0
 30
0.0
  9
$UCSORGBACK
 10
0.0
 20
0.0
 30
0.0
  9
$PUCSBASE
  2

  9
$PUCSNAME
  2

  9
$PUCSORG
 10
0.0
 20
0.0
 30
0.0
  9
$PUCSXDIR
 10
1.0
 20
0.0
 30
0.0
  9
$PUCSYDIR
 10
0.0
 20
1.0
 30
0.0
  9
$PUCSORTHOREF
  2

  9
$PUCSORTHOVIEW
 70
     0
  9
$PUCSORGTOP
 10
0.0
 20
0.0
 30
0.0
  9
$PUCSORGBOTTOM
 10
0.0
 20
0.0
 30
0.0
  9
$PUCSORGLEFT
 10
0.0
 20
0.0
 30
0.0
  9
$PUCSORGRIGHT
 10
0.0
 20
0.0
 30
0.0
  9
$PUCSORGFRONT
 10
0.0
 20
0.0
 30
0.0
  9
$PUCSORGBACK
 10
0.0
 20
0.0
 30
0.0
  9
$USERI1
 70
     0
  9
$USERI2
 70
     0
  9
$USERI3
 70
     0
  9
$USERI4
 70
     0
  9
$USERI5
 70
     0
  9
$USERR1
 40
0.0
  9
$USERR2
 40
0.0
  9
$USERR3
 40
0.0
  9
$USERR4
 40
0.0
  9
$USERR5
 40
0.0
  9
$WORLDVIEW
 70
     1
  9
$SHADEDGE
 70
     3
  9
$SHADEDIF
 70
    70
  9
$TILEMODE
 70
     1
  9
$MAXACTVP
 70
    16
  9
$PINSBASE
 10
0.0
 20
0.0
 30
0.0
  9
$PLIMCHECK
 70
     0
  9
$PEXTMIN
 10
1.000000000000000E+20
 20
1.000000000000000E+20
 30
1.000000000000000E+20
  9
$PEXTMAX
 10
-1.000000000000000E+20
 20
-1.000000000000000E+20
 30
-1.000000000000000E+20
  9
$PLIMMIN
 10
0.0
 20
0.0
  9
$PLIMMAX
 10
420.0
 20
297.0
  9
$UNITMODE
 70
     0
  9
$VISRETAIN
 70
     0
  9
$PLINEGEN
 70
     0
  9
$PSLTSCALE
 70
     0
  9
$TREEDEPTH
 70
  3020
  9
$CMLSTYLE
  2
STANDARD
  9
$CMLJUST
 70
     0
  9
$CMLSCALE
 40
1.0
  9
$PROXYGRAPHICS
 70
     1
  9
$MEASUREMENT
 70
     0
  9
$CELWEIGHT
370
    -1
  9
$ENDCAPS
280
     0
  9
$JOINSTYLE
280
     0
  9
$LWDISPLAY
290
     0
  9
$INSUNITS
 70
     0
  9
$HYPERLINKBASE
  1

  9
$STYLESHEET
  1

  9
$XEDIT
290
     1
  9
$CEPSNTYPE
380
     0
  9
$PSTYLEMODE
290
     1
  9
$FINGERPRINTGUID
  2
{4C369458-4A50-40C3-84EA-D05AD8FAD363}
  9
$VERSIONGUID
  2
{DB19829B-65AD-4700-BBD7-F171BECE1EE9}
  9
$EXTNAMES
290
     1
  9
$PSVPSCALE
 40
0.0
  9
$OLESTARTUP
290
     0
  0
ENDSEC
  0
SECTION
  2
CLASSES
  0
CLASS
  1
ACDBDICTIONARYWDFLT
  2
AcDbDictionaryWithDefault
  3
ObjectDBX Classes
 90
        0
280
     0
281
     0
  0
CLASS
  1
ACDBPLACEHOLDER
  2
AcDbPlaceHolder
  3
ObjectDBX Classes
 90
        0
280
     0
281
     0
  0
CLASS
  1
LAYOUT
  2
AcDbLayout
  3
ObjectDBX Classes
 90
        0
280
     0
281
     0
  0
CLASS
  1
DICTIONARYVAR
  2
AcDbDictionaryVar
  3
ObjectDBX Classes
 90
        0
280
     0
281
     0
  0
CLASS
  1
MATERIAL
  2
AcDbMaterial
  3
ObjectDBX Classes
 90
     1153
280
     0
281
     0
  0
CLASS
  1
VISUALSTYLE
  2
AcDbVisualStyle
  3
ObjectDBX Classes
 90
     4095
280
     0
281
     0
  0
CLASS
  1
TABLESTYLE
  2
AcDbTableStyle
  3
ObjectDBX Classes
 90
     4095
280
     0
281
     0
  0
CLASS
  1
SCALE
  2
AcDbScale
  3
ObjectDBX Classes
 90
     1153
280
     0
281
     0
  0
CLASS
  1
MLEADERSTYLE
  2
AcDbMLeaderStyle
  3
ACDB_MLEADERSTYLE_CLASS
 90
     4095
280
     0
281
     0
  0
CLASS
  1
ACDBSECTIONVIEWSTYLE
  2
AcDbSectionViewStyle
  3
ObjectDBX Classes
 90
     1025
280
     0
281
     0
  0
CLASS
  1
ACDBDETAILVIEWSTYLE
  2
AcDbDetailViewStyle
  3
ObjectDBX Classes
 90
     1025
280
     0
281
     0
  0
CLASS
  1
CELLSTYLEMAP
  2
AcDbCellStyleMap
  3
ObjectDBX Classes
 90
     1152
280
     0
281
     0
  0
ENDSEC
  0
SECTION
  2
TABLES
  0
TABLE
  2
VPORT
  5
A1A0
330
0
100
AcDbSymbolTable
 70
     1
  0
VPORT
  5
A6F7
330
A1A0
100
AcDbSymbolTableRecord
100
AcDbViewportTableRecord
  2
*ACTIVE
 70
     0
 10
0.0
 20
0.0
 11
1.0
 21
1.0
 12
454.678507524356
 22
273.666505178281
 13
0.0
 23
0.0
 14
10.0
 24
10.0
 15
10.0
 25
10.0
 16
0.0
 26
0.0
 36
1.0
 17
0.0
 27
0.0
 37
0.0
 40
531.4728729674977
 41
1.899603698811096
 42
50.0
 43
0.0
 44
0.0
 50
0.0
 51
0.0
 71
     0
 72
   100
 73
     1
 74
     0
 75
     0
 76
     0
 77
     0
 78
     0
281
     0
 65
     1
110
0.0
120
0.0
130
0.0
111
1.0
121
0.0
131
0.0
112
0.0
122
1.0
132
0.0
 79
     0
146
0.0
1001
ACAD_NAV_VCDISPLAY
1070
     3
  0
ENDTAB
  0
TABLE
  2
LTYPE
  5
A19D
330
0
100
AcDbSymbolTable
 70
     4
  0
LTYPE
  5
A1AB
330
A19D
100
AcDbSymbolTableRecord
100
AcDbLinetypeTableRecord
  2
BYBLOCK
 70
     0
  3

 72
    65
 73
     0
 40
0.0
  0
LTYPE
  5
A1AC
330
A19D
100
AcDbSymbolTableRecord
100
AcDbLinetypeTableRecord
  2
BYLAYER
 70
     0
  3

 72
    65
 73
     0
 40
0.0
  0
LTYPE
  5
A1AD
330
A19D
100
AcDbSymbolTableRecord
100
AcDbLinetypeTableRecord
  2
CONTINUOUS
 70
     0
  3
Solid line
 72
    65
 73
     0
 40
0.0
  0
LTYPE
  5
A1BB
330
A19D
100
AcDbSymbolTableRecord
100
AcDbLinetypeTableRecord
  2
DASHED
 70
     0
  3
__ __ __ __ __ __ __ __ __ __ __ __ __ __ __ __
 72
    65
 73
     2
 40
0.75
 49
0.5
 74
     0
 49
-0.25
 74
     0
  0
LTYPE
  5
A1BC
330
A19D
100
AcDbSymbolTableRecord
100
AcDbLinetypeTableRecord
  2
CENTER
 70
     0
  3
____ _ ____ _ ____ _ ____ _ ____ _ ____ _ ____ 
 72
    65
 73
     4
 40
2.0
 49
1.25
 74
     0
 49
-0.25
 74
     0
 49
0.25
 74
     0
 49
-0.25
 74
     0
  0
LTYPE
  5
A1BD
330
A19D
100
AcDbSymbolTableRecord
100
AcDbLinetypeTableRecord
  2
PHANTOM
 70
     0
  3
______  __  __  ______  __  __  ______  __  __ 
 72
    65
 73
     6
 40
2.5
 49
1.25
 74
     0
 49
-0.25
 74
     0
 49
0.25
 74
     0
 49
-0.25
 74
     0
 49
0.25
 74
     0
 49
-0.25
 74
     0
  0
ENDTAB
  0
TABLE
  2
LAYER
  5
A19A
330
0
100
AcDbSymbolTable
 70
     8
  0
LAYER
  5
A1A8
102
{ACAD_XDICTIONARY
360
A750
102
}
330
A19A
100
AcDbSymbolTableRecord
100
AcDbLayerTableRecord
  2
0
 70
     0
 62
     7
  6
CONTINUOUS
370
    -3
390
A6FE
  0
LAYER
  5
A1BE
102
{ACAD_XDICTIONARY
360
A752
102
}
330
A19A
100
AcDbSymbolTableRecord
100
AcDbLayerTableRecord
  2
4
 70
     0
 62
     1
  6
CENTER
370
    -3
390
A6FE
  0
LAYER
  5
A1BF
102
{ACAD_XDICTIONARY
360
A754
102
}
330
A19A
100
AcDbSymbolTableRecord
100
AcDbLayerTableRecord
  2
5
 70
     0
 62
     6
  6
PHANTOM
370
    -3
390
A6FE
  0
LAYER
  5
A1C0
102
{ACAD_XDICTIONARY
360
A756
102
}
330
A19A
100
AcDbSymbolTableRecord
100
AcDbLayerTableRecord
  2
1
 70
     0
 62
     7
  6
CONTINUOUS
370
    -3
390
A6FE
  0
LAYER
  5
A1C1
102
{ACAD_XDICTIONARY
360
A758
102
}
330
A19A
100
AcDbSymbolTableRecord
100
AcDbLayerTableRecord
  2
2
 70
     0
 62
     4
  6
CONTINUOUS
370
    -3
390
A6FE
  0
LAYER
  5
A1C2
102
{ACAD_XDICTIONARY
360
A75A
102
}
330
A19A
100
AcDbSymbolTableRecord
100
AcDbLayerTableRecord
  2
3
 70
     0
 62
     2
  6
DASHED
370
    -3
390
A6FE
  0
LAYER
  5
A1C3
102
{ACAD_XDICTIONARY
360
A75C
102
}
330
A19A
100
AcDbSymbolTableRecord
100
AcDbLayerTableRecord
  2
6
 70
     0
 62
     5
  6
CONTINUOUS
370
    -3
390
A6FE
  0
LAYER
  5
A1C4
102
{ACAD_XDICTIONARY
360
A75E
102
}
330
A19A
100
AcDbSymbolTableRecord
100
AcDbLayerTableRecord
  2
7
 70
     0
 62
     3
  6
CONTINUOUS
370
    -3
390
A6FE
  0
ENDTAB
  0
TABLE
  2
STYLE
  5
A19B
330
0
100
AcDbSymbolTable
 70
     1
  0
STYLE
  5
A1A9
330
A19B
100
AcDbSymbolTableRecord
100
AcDbTextStyleTableRecord
  2
STANDARD
 70
     0
 40
0.0
 41
1.0
 50
0.0
 71
     0
 42
5.0
  3
txt
  4

  0
ENDTAB
  0
TABLE
  2
VIEW
  5
A19E
330
0
100
AcDbSymbolTable
 70
     0
  0
ENDTAB
  0
TABLE
  2
UCS
  5
A19F
330
0
100
AcDbSymbolTable
 70
     0
  0
ENDTAB
  0
TABLE
  2
APPID
  5
A1A1
330
0
100
AcDbSymbolTable
 70
     3
  0
APPID
  5
A1AA
330
A1A1
100
AcDbSymbolTableRecord
100
AcDbRegAppTableRecord
  2
ACAD
 70
     0
  0
APPID
  5
A76A
330
A1A1
100
AcDbSymbolTableRecord
100
AcDbRegAppTableRecord
  2
ACAD_NAV_VCDISPLAY
 70
     0
  0
APPID
  5
A7A3
330
A1A1
100
AcDbSymbolTableRecord
100
AcDbRegAppTableRecord
  2
ACAD_MLEADERVER
 70
     0
  0
ENDTAB
  0
TABLE
  2
DIMSTYLE
  5
A1A2
330
0
100
AcDbSymbolTable
 70
     1
100
AcDbDimStyleTable
 71
     0
  0
DIMSTYLE
105
A1C6
330
A1A2
100
AcDbSymbolTableRecord
100
AcDbDimStyleTableRecord
  2
STANDARD
 70
     0
 41
3.0
 42
1.0
 43
10.0
 44
1.0
 73
     0
 74
     0
 77
     3
 78
     8
140
3.2
141
0.0
147
1.0
172
     1
173
     1
284
     8
285
     8
286
     8
340
A1A9
  0
ENDTAB
  0
TABLE
  2
BLOCK_RECORD
  5
A199
330
0
100
AcDbSymbolTable
 70
     0
  0
BLOCK_RECORD
  5
A1B6
102
{ACAD_XDICTIONARY
360
A45E
102
}
330
A199
100
AcDbSymbolTableRecord
100
AcDbBlockTableRecord
  2
*MODEL_SPACE
340
A74C
  0
BLOCK_RECORD
  5
A1B2
102
{ACAD_XDICTIONARY
360
A45C
102
}
330
A199
100
AcDbSymbolTableRecord
100
AcDbBlockTableRecord
  2
*PAPER_SPACE
340
A74D
  0
ENDTAB
  0
ENDSEC
  0
SECTION
  2
BLOCKS
  0
BLOCK
  5
A1B7
330
A1B6
100
AcDbEntity
  8
0
100
AcDbBlockBegin
  2
*MODEL_SPACE
 70
     0
 10
0.0
 20
0.0
 30
0.0
  3
*MODEL_SPACE
  1

  0
ENDBLK
  5
A1B8
330
A1B6
100
AcDbEntity
  8
0
100
AcDbBlockEnd
  0
BLOCK
  5
A1B3
330
A1B2
100
AcDbEntity
 67
     1
  8
0
100
AcDbBlockBegin
  2
*PAPER_SPACE
 70
     0
 10
0.0
 20
0.0
 30
0.0
  3
*PAPER_SPACE
  1

  0
ENDBLK
  5
A1B4
330
A1B2
100
AcDbEntity
 67
     1
  8
0
100
AcDbBlockEnd
  0
ENDSEC
  0
SECTION
  2
ENTITIES
  0
LINE
  5
A1CE
330
A1B6
100
AcDbEntity
  8
1
  6
Continuous
100
AcDbLine
 10
188.0
 20
173.0
 30
0.0
 11
178.0
 21
173.0
 31
0.0
  0
LINE
  5
A1CF
330
A1B6
100
AcDbEntity
  8
1
  6
Continuous
100
AcDbLine
 10
188.0
 20
323.0
 30
0.0
 11
178.0
 21
323.0
 31
0.0
  0
LINE
  5
A1D0
330
A1B6
100
AcDbEntity
  8
4
  6
CENTER
 48
0.2
100
AcDbLine
 10
167.596115
 20
395.0
 30
0.0
 11
200.728622
 21
395.0
 31
0.0
  0
LINE
  5
A1D1
330
A1B6
100
AcDbEntity
  8
1
  6
Continuous
100
AcDbLine
 10
186.800003
 20
405.0
 30
0.0
 11
179.4999999999998
 21
405.0
 31
0.0
  0
LINE
  5
A1D2
330
A1B6
100
AcDbEntity
  8
1
  6
Continuous
100
AcDbLine
 10
195.699997
 20
169.0
 30
0.0
 11
195.699997
 21
199.0
 31
0.0
  0
LINE
  5
A1D3
330
A1B6
100
AcDbEntity
  8
1
  6
Continuous
100
AcDbLine
 10
165.699997
 20
171.0
 30
0.0
 11
165.699997
 21
197.0
 31
0.0
  0
LINE
  5
A1D4
330
A1B6
100
AcDbEntity
  8
1
  6
Continuous
100
AcDbLine
 10
167.6999969999999
 20
169.0
 30
0.0
 11
195.699997
 21
169.0
 31
0.0
  0
LINE
  5
A1D5
330
A1B6
100
AcDbEntity
  8
1
  6
Continuous
100
AcDbLine
 10
167.6999969999999
 20
199.0
 30
0.0
 11
178.0
 21
199.0
 31
0.0
  0
LINE
  5
A1D6
330
A1B6
100
AcDbEntity
  8
4
  6
CENTER
 48
0.2
100
AcDbLine
 10
173.699997
 20
169.699997
 30
0.0
 11
173.699997
 21
180.3000029999997
 31
0.0
  0
LINE
  5
A1D7
330
A1B6
100
AcDbEntity
  8
4
  6
CENTER
 48
0.2
100
AcDbLine
 10
168.3999939999999
 20
175.0
 30
0.0
 11
179.0
 21
175.0
 31
0.0
  0
LINE
  5
A1D8
330
A1B6
100
AcDbEntity
  8
4
  6
CENTER
 48
0.2
100
AcDbLine
 10
173.699997
 20
187.6999969999999
 30
0.0
 11
173.699997
 21
198.300003
 31
0.0
  0
LINE
  5
A1D9
330
A1B6
100
AcDbEntity
  8
4
  6
CENTER
 48
0.2
100
AcDbLine
 10
168.3999939999999
 20
193.0
 30
0.0
 11
179.0
 21
193.0
 31
0.0
  0
LINE
  5
A1DA
330
A1B6
100
AcDbEntity
  8
1
  6
Continuous
100
AcDbLine
 10
188.0
 20
199.0
 30
0.0
 11
195.699997
 21
199.0
 31
0.0
  0
LINE
  5
A1DB
330
A1B6
100
AcDbEntity
  8
1
  6
Continuous
100
AcDbLine
 10
175.0
 20
177.5
 30
0.0
 11
175.0
 21
190.5
 31
0.0
  0
LINE
  5
A1DC
330
A1B6
100
AcDbEntity
  8
1
  6
Continuous
100
AcDbLine
 10
176.0
 20
191.5
 30
0.0
 11
178.0
 21
191.5
 31
0.0
  0
LINE
  5
A1DD
330
A1B6
100
AcDbEntity
  8
1
  6
Continuous
100
AcDbLine
 10
176.0
 20
176.5
 30
0.0
 11
178.0
 21
176.5
 31
0.0
  0
LINE
  5
A1DE
330
A1B6
100
AcDbEntity
  8
1
  6
Continuous
100
AcDbLine
 10
175.0
 20
177.5
 30
0.0
 11
176.0
 21
176.5
 31
0.0
  0
LINE
  5
A1DF
330
A1B6
100
AcDbEntity
  8
1
  6
Continuous
100
AcDbLine
 10
175.0000149999999
 20
190.500015
 30
0.0
 11
176.0000149999999
 21
191.500015
 31
0.0
  0
LINE
  5
A1E0
330
A1B6
100
AcDbEntity
  8
1
  6
Continuous
100
AcDbLine
 10
176.0
 20
176.5
 30
0.0
 11
176.0
 21
191.5
 31
0.0
  0
LINE
  5
A1E1
330
A1B6
100
AcDbEntity
  8
1
  6
Continuous
100
AcDbLine
 10
193.9000029999998
 20
181.0
 30
0.0
 11
193.9000029999998
 21
183.4999999999998
 31
0.0
  0
LINE
  5
A1E2
330
A1B6
100
AcDbEntity
  8
1
  6
Continuous
100
AcDbLine
 10
188.0
 20
192.850006
 30
0.0
 11
189.600006
 21
192.850006
 31
0.0
  0
LINE
  5
A1E3
330
A1B6
100
AcDbEntity
  8
1
  6
Continuous
100
AcDbLine
 10
188.0
 20
175.1499939999999
 30
0.0
 11
189.600006
 21
175.1499939999999
 31
0.0
  0
LINE
  5
A1E4
330
A1B6
100
AcDbEntity
  8
1
  6
Continuous
100
AcDbLine
 10
192.5999999999999
 20
169.0
 30
0.0
 11
192.5999999999999
 21
199.0
 31
0.0
  0
LINE
  5
A1E5
330
A1B6
100
AcDbEntity
  8
1
  6
Continuous
100
AcDbLine
 10
177.5
 20
402.5
 30
0.0
 11
179.4999999999998
 21
402.5
 31
0.0
  0
LINE
  5
A1E6
330
A1B6
100
AcDbEntity
  8
1
  6
Continuous
100
AcDbLine
 10
177.5
 20
387.5
 30
0.0
 11
179.4999999999998
 21
387.5
 31
0.0
  0
LINE
  5
A1E7
330
A1B6
100
AcDbEntity
  8
1
  6
Continuous
100
AcDbLine
 10
176.5
 20
388.5
 30
0.0
 11
176.5
 21
401.4999999999998
 31
0.0
  0
LINE
  5
A1E8
330
A1B6
100
AcDbEntity
  8
1
  6
Continuous
100
AcDbLine
 10
176.5000149999999
 20
388.5
 30
0.0
 11
177.5
 21
387.5000309999999
 31
0.0
  0
LINE
  5
A1E9
330
A1B6
100
AcDbEntity
  8
1
  6
Continuous
100
AcDbLine
 10
176.499985
 20
401.4999999999998
 30
0.0
 11
177.5
 21
402.5
 31
0.0
  0
LINE
  5
A1EA
330
A1B6
100
AcDbEntity
  8
1
  6
Continuous
100
AcDbLine
 10
177.5
 20
387.5
 30
0.0
 11
177.5
 21
402.5
 31
0.0
  0
LINE
  5
A1EB
330
A1B6
100
AcDbEntity
  8
1
  6
Continuous
100
AcDbLine
 10
188.3999939999999
 20
386.1499939999998
 30
0.0
 11
188.3999939999999
 21
403.850006
 31
0.0
  0
LINE
  5
A1EC
330
A1B6
100
AcDbEntity
  8
1
  6
Continuous
100
AcDbLine
 10
186.800003
 20
403.850006
 30
0.0
 11
188.3999939999999
 21
403.850006
 31
0.0
  0
LINE
  5
A1ED
330
A1B6
100
AcDbEntity
  8
1
  6
Continuous
100
AcDbLine
 10
186.800003
 20
386.1499939999998
 30
0.0
 11
188.3999939999999
 21
386.1499939999998
 31
0.0
  0
LINE
  5
A1EE
330
A1B6
100
AcDbEntity
  8
1
  6
Continuous
100
AcDbLine
 10
191.400003
 20
387.0
 30
0.0
 11
191.400003
 21
405.1000059999998
 31
0.0
  0
LINE
  5
A1EF
330
A1B6
100
AcDbEntity
  8
1
  6
Continuous
100
AcDbLine
 10
164.5
 20
423.0
 30
0.0
 11
191.600006
 21
423.0
 31
0.0
  0
LINE
  5
A1F0
330
A1B6
100
AcDbEntity
  8
1
  6
Continuous
100
AcDbLine
 10
191.3999939999999
 20
407.9999999999998
 30
0.0
 11
191.600006
 21
408.0
 31
0.0
  0
LINE
  5
A1F1
330
A1B6
100
AcDbEntity
  8
1
  6
Continuous
100
AcDbLine
 10
194.5
 20
408.0000059999997
 30
0.0
 11
194.5
 21
420.1000059999998
 31
0.0
  0
LINE
  5
A1F2
330
A1B6
100
AcDbEntity
  8
1
  6
Continuous
100
AcDbLine
 10
191.400003
 20
405.1000059999998
 30
0.0
 11
191.6
 21
405.1000059999998
 31
0.0
  0
LINE
  5
A1F3
330
A1B6
100
AcDbEntity
  8
1
  6
Continuous
100
AcDbLine
 10
164.5
 20
420.1000059999998
 30
0.0
 11
191.600006
 21
420.1000059999998
 31
0.0
  0
LINE
  5
A1F4
330
A1B6
100
AcDbEntity
  8
4
  6
CENTER
 48
0.2
100
AcDbLine
 10
187.25
 20
414.0
 30
0.0
 11
198.8500059999998
 21
414.0
 31
0.0
  0
LINE
  5
A1F5
330
A1B6
100
AcDbEntity
  8
4
  6
CENTER
 48
0.2
100
AcDbLine
 10
172.5
 20
415.7499999999997
 30
0.0
 11
172.5
 21
427.3500059999998
 31
0.0
  0
LINE
  5
A1F6
330
A1B6
100
AcDbEntity
  8
1
  6
Continuous
100
AcDbLine
 10
25.0
 20
169.0
 30
0.0
 11
46.0
 21
169.0
 31
0.0
  0
LINE
  5
A1F7
330
A1B6
100
AcDbEntity
  8
1
  6
Continuous
100
AcDbLine
 10
25.0
 20
199.0
 30
0.0
 11
42.0
 21
199.0
 31
0.0
  0
LINE
  5
A1F8
330
A1B6
100
AcDbEntity
  8
4
  6
CENTER
100
AcDbLine
 10
53.0
 20
164.0
 30
0.0
 11
53.0
 21
428.0
 31
0.0
  0
LINE
  5
A1F9
330
A1B6
100
AcDbEntity
  8
1
  6
Continuous
100
AcDbLine
 10
309.8019709999998
 20
173.0
 30
0.0
 11
302.0
 21
173.0
 31
0.0
  0
LINE
  5
A1FA
330
A1B6
100
AcDbEntity
  8
1
  6
Continuous
100
AcDbLine
 10
25.0
 20
169.0
 30
0.0
 11
25.0
 21
199.0
 31
0.0
  0
LINE
  5
A1FB
330
A1B6
100
AcDbEntity
  8
4
  6
CENTER
 48
0.2
100
AcDbLine
 10
15.0
 20
184.0
 30
0.0
 11
68.0
 21
184.0
 31
0.0
  0
LINE
  5
A1FC
330
A1B6
100
AcDbEntity
  8
1
  6
Continuous
100
AcDbLine
 10
188.4999939999999
 20
387.0
 30
0.0
 11
191.400003
 21
387.0
 31
0.0
  0
LINE
  5
A1FD
330
A1B6
100
AcDbEntity
  8
1
  6
Continuous
100
AcDbLine
 10
27.9
 20
169.0
 30
0.0
 11
27.9
 21
199.0
 31
0.0
  0
LINE
  5
A1FE
330
A1B6
100
AcDbEntity
  8
4
  6
CENTER
 48
0.2
100
AcDbLine
 10
34.0
 20
169.699997
 30
0.0
 11
34.0
 21
180.3000029999997
 31
0.0
  0
LINE
  5
A1FF
330
A1B6
100
AcDbEntity
  8
4
  6
CENTER
 48
0.2
100
AcDbLine
 10
23.0
 20
175.0
 30
0.0
 11
39.299999
 21
175.0
 31
0.0
  0
LINE
  5
A200
330
A1B6
100
AcDbEntity
  8
4
  6
CENTER
 48
0.2
100
AcDbLine
 10
34.0
 20
187.6999969999999
 30
0.0
 11
34.0
 21
198.300003
 31
0.0
  0
LINE
  5
A201
330
A1B6
100
AcDbEntity
  8
4
  6
CENTER
 48
0.2
100
AcDbLine
 10
23.0
 20
193.0
 30
0.0
 11
39.299999
 21
193.0
 31
0.0
  0
LINE
  5
A202
330
A1B6
100
AcDbEntity
  8
1
  6
Continuous
100
AcDbLine
 10
38.0
 20
423.0
 30
0.0
 11
68.0
 21
423.0
 31
0.0
  0
LINE
  5
A203
330
A1B6
100
AcDbEntity
  8
1
  6
Continuous
100
AcDbLine
 10
38.0
 20
420.1000059999998
 30
0.0
 11
68.0
 21
420.1000059999998
 31
0.0
  0
LINE
  5
A204
330
A1B6
100
AcDbEntity
  8
1
  6
Continuous
100
AcDbLine
 10
38.0
 20
408.0
 30
0.0
 11
68.0
 21
408.0
 31
0.0
  0
LINE
  5
A205
330
A1B6
100
AcDbEntity
  8
1
  6
Continuous
100
AcDbLine
 10
38.0
 20
402.0
 30
0.0
 11
38.0
 21
423.0
 31
0.0
  0
LINE
  5
A206
330
A1B6
100
AcDbEntity
  8
1
  6
Continuous
100
AcDbLine
 10
68.0
 20
402.0
 30
0.0
 11
68.0
 21
423.0
 31
0.0
  0
LINE
  5
A207
330
A1B6
100
AcDbEntity
  8
1
  6
Continuous
100
AcDbLine
 10
43.5
 20
405.0
 30
0.0
 11
62.5
 21
405.0
 31
0.0
  0
LINE
  5
A208
330
A1B6
100
AcDbEntity
  8
4
  6
CENTER
 48
0.2
100
AcDbLine
 10
62.0
 20
408.7000119999998
 30
0.0
 11
62.0
 21
428.0
 31
0.0
  0
LINE
  5
A209
330
A1B6
100
AcDbEntity
  8
4
  6
CENTER
 48
0.2
100
AcDbLine
 10
56.700001
 20
414.0
 30
0.0
 11
67.300003
 21
414.0
 31
0.0
  0
LINE
  5
A20A
330
A1B6
100
AcDbEntity
  8
4
  6
CENTER
 48
0.2
100
AcDbLine
 10
44.0
 20
408.7000119999998
 30
0.0
 11
44.0
 21
428.0
 31
0.0
  0
LINE
  5
A20B
330
A1B6
100
AcDbEntity
  8
4
  6
CENTER
 48
0.2
100
AcDbLine
 10
38.700001
 20
414.0
 30
0.0
 11
49.299999
 21
414.0
 31
0.0
  0
LINE
  5
A20C
330
A1B6
100
AcDbEntity
  8
4
  6
CENTER
 48
0.2
100
AcDbLine
 10
38.0
 20
395.0
 30
0.0
 11
68.0
 21
395.0
 31
0.0
  0
LINE
  5
A20D
330
A1B6
100
AcDbEntity
  8
1
  6
Continuous
100
AcDbLine
 10
40.0
 20
169.0
 30
0.0
 11
40.0
 21
199.0
 31
0.0
  0
LINE
  5
A20E
330
A1B6
100
AcDbEntity
  8
1
  6
Continuous
100
AcDbLine
 10
341.0
 20
199.0
 30
0.0
 11
320.0
 21
199.0
 31
0.0
  0
LINE
  5
A20F
330
A1B6
100
AcDbEntity
  8
1
  6
Continuous
100
AcDbLine
 10
341.0
 20
169.0
 30
0.0
 11
320.0
 21
169.0
 31
0.0
  0
LINE
  5
A210
330
A1B6
100
AcDbEntity
  8
4
  6
CENTER
100
AcDbLine
 10
313.0
 20
164.0
 30
0.0
 11
313.0
 21
428.0
 31
0.0
  0
LINE
  5
A211
330
A1B6
100
AcDbEntity
  8
4
  6
CENTER
 48
0.2
100
AcDbLine
 10
332.0
 20
169.699997
 30
0.0
 11
332.0
 21
180.3000029999997
 31
0.0
  0
LINE
  5
A212
330
A1B6
100
AcDbEntity
  8
1
  6
Continuous
100
AcDbLine
 10
341.0
 20
169.0
 30
0.0
 11
341.0
 21
199.0
 31
0.0
  0
LINE
  5
A213
330
A1B6
100
AcDbEntity
  8
4
  6
CENTER
 48
0.2
100
AcDbLine
 10
346.0
 20
184.0
 30
0.0
 11
300.0
 21
184.0
 31
0.0
  0
LINE
  5
A214
330
A1B6
100
AcDbEntity
  8
4
  6
CENTER
 48
0.2
100
AcDbLine
 10
346.0
 20
175.0
 30
0.0
 11
326.700012
 21
175.0
 31
0.0
  0
LINE
  5
A215
330
A1B6
100
AcDbEntity
  8
4
  6
CENTER
 48
0.2
100
AcDbLine
 10
332.0
 20
187.6999969999999
 30
0.0
 11
332.0
 21
198.300003
 31
0.0
  0
LINE
  5
A216
330
A1B6
100
AcDbEntity
  8
4
  6
CENTER
 48
0.2
100
AcDbLine
 10
346.0
 20
193.0
 30
0.0
 11
326.700012
 21
193.0
 31
0.0
  0
LINE
  5
A217
330
A1B6
100
AcDbEntity
  8
1
  6
Continuous
100
AcDbLine
 10
166.5
 20
490.0
 30
0.0
 11
194.5
 21
490.0
 31
0.0
  0
LINE
  5
A218
330
A1B6
100
AcDbEntity
  8
1
  6
Continuous
100
AcDbLine
 10
166.5
 20
520.0
 30
0.0
 11
194.5
 21
520.0
 31
0.0
  0
LINE
  5
A219
330
A1B6
100
AcDbEntity
  8
1
  6
Continuous
100
AcDbLine
 10
324.0
 20
323.0
 30
0.0
 11
302.0
 21
323.0
 31
0.0
  0
LINE
  5
A21A
330
A1B6
100
AcDbEntity
  8
1
  6
Continuous
100
AcDbLine
 10
193.9000029999998
 20
184.4999999999997
 30
0.0
 11
193.150003
 21
184.0
 31
0.0
  0
LINE
  5
A21B
330
A1B6
100
AcDbEntity
  8
1
  6
Continuous
100
AcDbLine
 10
193.150003
 20
184.0
 30
0.0
 11
193.9000029999998
 21
183.4999999999998
 31
0.0
  0
LINE
  5
A21C
330
A1B6
100
AcDbEntity
  8
1
  6
Continuous
100
AcDbLine
 10
193.9000029999998
 20
184.4999999999997
 30
0.0
 11
193.9000029999998
 21
187.0
 31
0.0
  0
LINE
  5
A21D
330
A1B6
100
AcDbEntity
  8
1
  6
Continuous
100
AcDbLine
 10
164.5
 20
420.1000059999998
 30
0.0
 11
164.5
 21
423.0
 31
0.0
  0
LINE
  5
A21E
330
A1B6
100
AcDbEntity
  8
1
  6
Continuous
100
AcDbLine
 10
192.9000029999998
 20
395.5
 30
0.0
 11
192.9000029999998
 21
398.0
 31
0.0
  0
LINE
  5
A21F
330
A1B6
100
AcDbEntity
  8
1
  6
Continuous
100
AcDbLine
 10
192.9000029999998
 20
392.0
 30
0.0
 11
192.9000029999998
 21
394.5
 31
0.0
  0
LINE
  5
A220
330
A1B6
100
AcDbEntity
  8
1
  6
Continuous
100
AcDbLine
 10
192.9000029999998
 20
395.5
 30
0.0
 11
192.1499879999999
 21
395.0
 31
0.0
  0
LINE
  5
A221
330
A1B6
100
AcDbEntity
  8
1
  6
Continuous
100
AcDbLine
 10
192.1499879999999
 20
395.0
 30
0.0
 11
192.8999879999999
 21
394.5
 31
0.0
  0
LINE
  5
A222
330
A1B6
100
AcDbEntity
  8
1
  6
Continuous
100
AcDbLine
 10
310.041962
 20
183.4999999999998
 30
0.0
 11
312.5
 21
183.4999999999998
 31
0.0
  0
LINE
  5
A223
330
A1B6
100
AcDbEntity
  8
1
  6
Continuous
100
AcDbLine
 10
310.041962
 20
184.4999999999997
 30
0.0
 11
312.5
 21
184.4999999999997
 31
0.0
  0
LINE
  5
A224
330
A1B6
100
AcDbEntity
  8
1
  6
Continuous
100
AcDbLine
 10
312.5
 20
181.041962
 30
0.0
 11
312.5
 21
183.4999999999998
 31
0.0
  0
LINE
  5
A225
330
A1B6
100
AcDbEntity
  8
1
  6
Continuous
100
AcDbLine
 10
313.5
 20
181.041962
 30
0.0
 11
313.5
 21
183.4999999999998
 31
0.0
  0
LINE
  5
A226
330
A1B6
100
AcDbEntity
  8
1
  6
Continuous
100
AcDbLine
 10
312.5
 20
184.4999999999997
 30
0.0
 11
312.5
 21
186.958038
 31
0.0
  0
LINE
  5
A227
330
A1B6
100
AcDbEntity
  8
1
  6
Continuous
100
AcDbLine
 10
313.5
 20
184.4999999999997
 30
0.0
 11
313.5
 21
186.958038
 31
0.0
  0
LINE
  5
A228
330
A1B6
100
AcDbEntity
  8
1
  6
Continuous
100
AcDbLine
 10
313.5
 20
183.4999999999998
 30
0.0
 11
315.9580379999998
 21
183.4999999999998
 31
0.0
  0
LINE
  5
A229
330
A1B6
100
AcDbEntity
  8
1
  6
Continuous
100
AcDbLine
 10
313.5
 20
184.4999999999997
 30
0.0
 11
315.9580379999998
 21
184.4999999999997
 31
0.0
  0
LINE
  5
A22A
330
A1B6
100
AcDbEntity
  8
1
  6
Continuous
100
AcDbLine
 10
323.1000059999999
 20
169.0
 30
0.0
 11
323.1000059999999
 21
199.0
 31
0.0
  0
LINE
  5
A22B
330
A1B6
100
AcDbEntity
  8
1
  6
Continuous
100
AcDbLine
 10
191.400003
 20
392.0
 30
0.0
 11
192.9000029999998
 21
392.0
 31
0.0
  0
LINE
  5
A22C
330
A1B6
100
AcDbEntity
  8
1
  6
Continuous
100
AcDbLine
 10
191.400003
 20
398.0
 30
0.0
 11
192.9000029999998
 21
398.0
 31
0.0
  0
LINE
  5
A22D
330
A1B6
100
AcDbEntity
  8
1
  6
Continuous
100
AcDbLine
 10
192.5999999999999
 20
181.0
 30
0.0
 11
193.9000029999998
 21
181.0
 31
0.0
  0
LINE
  5
A22E
330
A1B6
100
AcDbEntity
  8
1
  6
Continuous
100
AcDbLine
 10
192.5999999999999
 20
187.0
 30
0.0
 11
193.9000029999998
 21
187.0
 31
0.0
  0
LINE
  5
A22F
330
A1B6
100
AcDbEntity
  8
1
  6
Continuous
100
AcDbLine
 10
298.0
 20
423.0
 30
0.0
 11
298.0
 21
402.0
 31
0.0
  0
LINE
  5
A230
330
A1B6
100
AcDbEntity
  8
1
  6
Continuous
100
AcDbLine
 10
328.0
 20
423.0
 30
0.0
 11
328.0
 21
402.0
 31
0.0
  0
LINE
  5
A231
330
A1B6
100
AcDbEntity
  8
4
  6
CENTER
 48
0.2
100
AcDbLine
 10
327.2999879999998
 20
414.0
 30
0.0
 11
316.700012
 21
414.0
 31
0.0
  0
LINE
  5
A232
330
A1B6
100
AcDbEntity
  8
1
  6
Continuous
100
AcDbLine
 10
328.0
 20
423.0
 30
0.0
 11
298.0
 21
423.0
 31
0.0
  0
LINE
  5
A233
330
A1B6
100
AcDbEntity
  8
4
  6
CENTER
 48
0.2
100
AcDbLine
 10
322.0
 20
428.0
 30
0.0
 11
322.0
 21
408.7000119999998
 31
0.0
  0
LINE
  5
A234
330
A1B6
100
AcDbEntity
  8
4
  6
CENTER
 48
0.2
100
AcDbLine
 10
309.2999879999998
 20
414.0
 30
0.0
 11
298.700012
 21
414.0
 31
0.0
  0
LINE
  5
A235
330
A1B6
100
AcDbEntity
  8
4
  6
CENTER
 48
0.2
100
AcDbLine
 10
304.0
 20
428.0
 30
0.0
 11
304.0
 21
408.7000119999998
 31
0.0
  0
LINE
  5
A236
330
A1B6
100
AcDbEntity
  8
1
  6
Continuous
100
AcDbLine
 10
313.5
 20
392.041962
 30
0.0
 11
313.5
 21
394.5
 31
0.0
  0
LINE
  5
A237
330
A1B6
100
AcDbEntity
  8
1
  6
Continuous
100
AcDbLine
 10
312.5
 20
392.041962
 30
0.0
 11
312.5
 21
394.5
 31
0.0
  0
LINE
  5
A238
330
A1B6
100
AcDbEntity
  8
1
  6
Continuous
100
AcDbLine
 10
315.9580379999998
 20
394.5
 30
0.0
 11
313.5
 21
394.5
 31
0.0
  0
LINE
  5
A239
330
A1B6
100
AcDbEntity
  8
1
  6
Continuous
100
AcDbLine
 10
315.9580379999998
 20
395.5
 30
0.0
 11
313.5
 21
395.5
 31
0.0
  0
LINE
  5
A23A
330
A1B6
100
AcDbEntity
  8
1
  6
Continuous
100
AcDbLine
 10
312.5
 20
394.5
 30
0.0
 11
310.041962
 21
394.5
 31
0.0
  0
LINE
  5
A23B
330
A1B6
100
AcDbEntity
  8
1
  6
Continuous
100
AcDbLine
 10
312.5
 20
395.5
 30
0.0
 11
310.041962
 21
395.5
 31
0.0
  0
LINE
  5
A23C
330
A1B6
100
AcDbEntity
  8
1
  6
Continuous
100
AcDbLine
 10
313.5
 20
395.5
 30
0.0
 11
313.5
 21
397.9580379999999
 31
0.0
  0
LINE
  5
A23D
330
A1B6
100
AcDbEntity
  8
1
  6
Continuous
100
AcDbLine
 10
312.5
 20
395.5
 30
0.0
 11
312.5
 21
397.9580379999999
 31
0.0
  0
LINE
  5
A23E
330
A1B6
100
AcDbEntity
  8
1
  6
Continuous
100
AcDbLine
 10
328.0
 20
405.1000059999998
 30
0.0
 11
298.0
 21
405.1000059999998
 31
0.0
  0
LINE
  5
A23F
330
A1B6
100
AcDbEntity
  8
4
  6
CENTER
 48
0.2
100
AcDbLine
 10
306.4999999999999
 20
395.0
 30
0.0
 11
319.5
 21
395.0
 31
0.0
  0
LINE
  5
A240
330
A1B6
100
AcDbEntity
  8
1
  6
Continuous
100
AcDbLine
 10
164.5
 20
492.0
 30
0.0
 11
164.5
 21
518.0
 31
0.0
  0
LINE
  5
A241
330
A1B6
100
AcDbEntity
  8
1
  6
Continuous
100
AcDbLine
 10
194.5
 20
490.0
 30
0.0
 11
194.5
 21
520.0
 31
0.0
  0
LINE
  5
A242
330
A1B6
100
AcDbEntity
  8
4
  6
CENTER
 48
0.2
100
AcDbLine
 10
159.6499939999999
 20
505.0
 30
0.0
 11
199.5
 21
505.0
 31
0.0
  0
LINE
  5
A243
330
A1B6
100
AcDbEntity
  8
4
  6
CENTER
 48
0.2
100
AcDbLine
 10
177.800003
 20
496.0
 30
0.0
 11
167.1999969999999
 21
496.0
 31
0.0
  0
LINE
  5
A244
330
A1B6
100
AcDbEntity
  8
4
  6
CENTER
 48
0.2
100
AcDbLine
 10
172.5
 20
490.700012
 30
0.0
 11
172.5
 21
501.2999879999998
 31
0.0
  0
LINE
  5
A245
330
A1B6
100
AcDbEntity
  8
4
  6
CENTER
 48
0.2
100
AcDbLine
 10
177.800003
 20
514.0
 30
0.0
 11
167.1999969999999
 21
514.0
 31
0.0
  0
LINE
  5
A246
330
A1B6
100
AcDbEntity
  8
4
  6
CENTER
 48
0.2
100
AcDbLine
 10
172.5
 20
508.7000119999998
 30
0.0
 11
172.5
 21
519.299988
 31
0.0
  0
LINE
  5
A247
330
A1B6
100
AcDbEntity
  8
1
  6
Continuous
100
AcDbLine
 10
165.699997
 20
530.0999759999998
 30
0.0
 11
165.699997
 21
533.0
 31
0.0
  0
LINE
  5
A248
330
A1B6
100
AcDbEntity
  8
1
  6
Continuous
100
AcDbLine
 10
195.699997
 20
518.0
 30
0.0
 11
195.699997
 21
530.0999759999998
 31
0.0
  0
LINE
  5
A249
330
A1B6
100
AcDbEntity
  8
1
  6
Continuous
100
AcDbLine
 10
165.699997
 20
533.0
 30
0.0
 11
192.8000029999998
 21
533.0
 31
0.0
  0
LINE
  5
A24A
330
A1B6
100
AcDbEntity
  8
1
  6
Continuous
100
AcDbLine
 10
165.699997
 20
530.0999759999998
 30
0.0
 11
192.8000029999998
 21
530.0999759999998
 31
0.0
  0
LINE
  5
A24B
330
A1B6
100
AcDbEntity
  8
4
  6
CENTER
 48
0.2
100
AcDbLine
 10
188.449997
 20
524.0
 30
0.0
 11
200.0500029999999
 21
524.0
 31
0.0
  0
LINE
  5
A24C
330
A1B6
100
AcDbEntity
  8
1
  6
Continuous
100
AcDbLine
 10
194.5
 20
84.0
 30
0.0
 11
194.5
 21
58.640076
 31
0.0
  0
LINE
  5
A24D
330
A1B6
100
AcDbEntity
  8
4
  6
CENTER
 48
0.2
100
AcDbLine
 10
173.699997
 20
48.25
 30
0.0
 11
173.699997
 21
36.650002
 31
0.0
  0
LINE
  5
A24E
330
A1B6
100
AcDbEntity
  8
1
  6
Continuous
100
AcDbLine
 10
192.5999999999999
 20
56.0
 30
0.0
 11
192.8000029999998
 21
56.0
 31
0.0
  0
LINE
  5
A24F
330
A1B6
100
AcDbEntity
  8
1
  6
Continuous
100
AcDbLine
 10
189.600006
 20
77.849998
 30
0.0
 11
189.600006
 21
60.15000200000001
 31
0.0
  0
LINE
  5
A250
330
A1B6
100
AcDbEntity
  8
1
  6
Continuous
100
AcDbLine
 10
178.0
 20
78.800003
 30
0.0
 11
178.0
 21
59.200001
 31
0.0
  0
LINE
  5
A251
330
A1B6
100
AcDbEntity
  8
1
  6
Continuous
100
AcDbLine
 10
192.5999999999999
 20
58.900002
 30
0.0
 11
192.8000029999998
 21
58.900002
 31
0.0
  0
LINE
  5
A252
330
A1B6
100
AcDbEntity
  8
1
  6
Continuous
100
AcDbLine
 10
175.0
 20
75.5
 30
0.0
 11
175.0
 21
62.5
 31
0.0
  0
LINE
  5
A253
330
A1B6
100
AcDbEntity
  8
1
  6
Continuous
100
AcDbLine
 10
195.699997
 20
56.0
 30
0.0
 11
195.699997
 21
43.900002
 31
0.0
  0
LINE
  5
A254
330
A1B6
100
AcDbEntity
  8
4
  6
CENTER
 48
0.2
100
AcDbLine
 10
188.449997
 20
50.0
 30
0.0
 11
200.0500029999999
 21
50.0
 31
0.0
  0
LINE
  5
A255
330
A1B6
100
AcDbEntity
  8
1
  6
Continuous
100
AcDbLine
 10
165.699997
 20
43.900002
 30
0.0
 11
192.8000029999998
 21
43.900002
 31
0.0
  0
LINE
  5
A256
330
A1B6
100
AcDbEntity
  8
1
  6
Continuous
100
AcDbLine
 10
165.699997
 20
41.0
 30
0.0
 11
192.8000029999998
 21
41.0
 31
0.0
  0
LINE
  5
A257
330
A1B6
100
AcDbEntity
  8
1
  6
Continuous
100
AcDbLine
 10
165.699997
 20
43.900002
 30
0.0
 11
165.699997
 21
41.0
 31
0.0
  0
LINE
  5
A258
330
A1B6
100
AcDbEntity
  8
1
  6
Continuous
100
AcDbLine
 10
188.0
 20
60.150002
 30
0.0
 11
189.600006
 21
60.150002
 31
0.0
  0
LINE
  5
A259
330
A1B6
100
AcDbEntity
  8
1
  6
Continuous
100
AcDbLine
 10
193.9000029999998
 20
68.5
 30
0.0
 11
193.150003
 21
69.0
 31
0.0
  0
LINE
  5
A25A
330
A1B6
100
AcDbEntity
  8
1
  6
Continuous
100
AcDbLine
 10
189.7000059999999
 20
76.99999999999999
 30
0.0
 11
192.5999999999999
 21
77.0
 31
0.0
  0
LINE
  5
A25B
330
A1B6
100
AcDbEntity
  8
1
  6
Continuous
100
AcDbLine
 10
192.5999999999999
 20
77.0
 30
0.0
 11
192.5999999999999
 21
58.900002
 31
0.0
  0
LINE
  5
A25C
330
A1B6
100
AcDbEntity
  8
1
  6
Continuous
100
AcDbLine
 10
176.0
 20
76.5
 30
0.0
 11
176.0
 21
61.5
 31
0.0
  0
LINE
  5
A25D
330
A1B6
100
AcDbEntity
  8
1
  6
Continuous
100
AcDbLine
 10
188.0
 20
77.849998
 30
0.0
 11
189.600006
 21
77.849998
 31
0.0
  0
LINE
  5
A25E
330
A1B6
100
AcDbEntity
  8
1
  6
Continuous
100
AcDbLine
 10
176.0
 20
61.5
 30
0.0
 11
178.0
 21
61.5
 31
0.0
  0
LINE
  5
A25F
330
A1B6
100
AcDbEntity
  8
1
  6
Continuous
100
AcDbLine
 10
176.0
 20
76.5
 30
0.0
 11
178.0
 21
76.5
 31
0.0
  0
LINE
  5
A260
330
A1B6
100
AcDbEntity
  8
1
  6
Continuous
100
AcDbLine
 10
175.0
 20
62.49999200000001
 30
0.0
 11
176.0
 21
61.5
 31
0.0
  0
LINE
  5
A261
330
A1B6
100
AcDbEntity
  8
1
  6
Continuous
100
AcDbLine
 10
175.0
 20
75.5
 30
0.0
 11
176.0
 21
76.5
 31
0.0
  0
LINE
  5
A262
330
A1B6
100
AcDbEntity
  8
1
  6
Continuous
100
AcDbLine
 10
192.5999999999999
 20
66.0
 30
0.0
 11
193.9000029999998
 21
66.0
 31
0.0
  0
LINE
  5
A263
330
A1B6
100
AcDbEntity
  8
1
  6
Continuous
100
AcDbLine
 10
192.5999999999999
 20
72.0
 30
0.0
 11
193.9000029999998
 21
72.0
 31
0.0
  0
LINE
  5
A264
330
A1B6
100
AcDbEntity
  8
1
  6
Continuous
100
AcDbLine
 10
193.150003
 20
69.0
 30
0.0
 11
193.9000029999998
 21
69.5
 31
0.0
  0
LINE
  5
A265
330
A1B6
100
AcDbEntity
  8
1
  6
Continuous
100
AcDbLine
 10
166.5
 20
84.0
 30
0.0
 11
194.5
 21
84.0
 31
0.0
  0
LINE
  5
A266
330
A1B6
100
AcDbEntity
  8
1
  6
Continuous
100
AcDbLine
 10
166.5
 20
54.0
 30
0.0
 11
192.8000029999998
 21
54.0
 31
0.0
  0
LINE
  5
A267
330
A1B6
100
AcDbEntity
  8
4
  6
CENTER
 48
0.2
100
AcDbLine
 10
159.6499939999999
 20
69.0
 30
0.0
 11
199.5
 21
69.0
 31
0.0
  0
LINE
  5
A268
330
A1B6
100
AcDbEntity
  8
1
  6
Continuous
100
AcDbLine
 10
164.5
 20
82.0
 30
0.0
 11
164.5
 21
56.0
 31
0.0
  0
LINE
  5
A269
330
A1B6
100
AcDbEntity
  8
4
  6
CENTER
 48
0.2
100
AcDbLine
 10
173.600006
 20
525.75
 30
0.0
 11
173.600006
 21
537.3499759999998
 31
0.0
  0
LINE
  5
A26A
330
A1B6
100
AcDbEntity
  8
4
  6
CENTER
 48
0.2
100
AcDbLine
 10
447.0
 20
307.0
 30
0.0
 11
439.0
 21
307.0
 31
0.0
  0
LINE
  5
A26B
330
A1B6
100
AcDbEntity
  8
4
  6
CENTER
 48
0.2
100
AcDbLine
 10
447.0
 20
317.0
 30
0.0
 11
439.0
 21
317.0
 31
0.0
  0
LINE
  5
A26C
330
A1B6
100
AcDbEntity
  8
4
  6
CENTER
100
AcDbLine
 10
183.0
 20
164.0
 30
0.0
 11
183.0
 21
427.3500059999998
 31
0.0
  0
LINE
  5
A26D
330
A1B6
100
AcDbEntity
  8
4
  6
CENTER
 48
0.2
100
AcDbLine
 10
183.0
 20
49.0
 30
0.0
 11
183.0
 21
89.0
 31
0.0
  0
LINE
  5
A26E
330
A1B6
100
AcDbEntity
  8
1
  6
Continuous
100
AcDbLine
 10
192.8000029999998
 20
520.0
 30
0.0
 11
192.8000029999998
 21
530.0999759999998
 31
0.0
  0
LINE
  5
A26F
330
A1B6
100
AcDbEntity
  8
1
  6
Continuous
100
AcDbLine
 10
189.700006
 20
169.0
 30
0.0
 11
189.700006
 21
199.0
 31
0.0
  0
LINE
  5
A270
330
A1B6
100
AcDbEntity
  8
1
  6
Continuous
100
AcDbLine
 10
191.600006
 20
408.0
 30
0.0
 11
191.600006
 21
420.1000059999998
 31
0.0
  0
LINE
  5
A271
330
A1B6
100
AcDbEntity
  8
1
  6
Continuous
100
AcDbLine
 10
458.299988
 20
169.0
 30
0.0
 11
430.2999879999998
 21
169.0
 31
0.0
  0
LINE
  5
A272
330
A1B6
100
AcDbEntity
  8
1
  6
Continuous
100
AcDbLine
 10
430.2999879999998
 20
169.0
 30
0.0
 11
430.2999879999998
 21
199.0
 31
0.0
  0
LINE
  5
A273
330
A1B6
100
AcDbEntity
  8
1
  6
Continuous
100
AcDbLine
 10
458.299988
 20
199.0
 30
0.0
 11
430.2999879999998
 21
199.0
 31
0.0
  0
LINE
  5
A274
330
A1B6
100
AcDbEntity
  8
4
  6
CENTER
 48
0.2
100
AcDbLine
 10
452.2999879999998
 20
169.699997
 30
0.0
 11
452.2999879999998
 21
180.3000029999997
 31
0.0
  0
LINE
  5
A275
330
A1B6
100
AcDbEntity
  8
4
  6
CENTER
 48
0.2
100
AcDbLine
 10
452.2999879999998
 20
187.6999969999999
 30
0.0
 11
452.2999879999998
 21
198.300003
 31
0.0
  0
LINE
  5
A276
330
A1B6
100
AcDbEntity
  8
1
  6
Continuous
100
AcDbLine
 10
460.2999879999998
 20
171.0
 30
0.0
 11
460.2999879999998
 21
197.0
 31
0.0
  0
LINE
  5
A277
330
A1B6
100
AcDbEntity
  8
4
  6
CENTER
 48
0.2
100
AcDbLine
 10
457.6000059999998
 20
193.0
 30
0.0
 11
447.0
 21
193.0
 31
0.0
  0
LINE
  5
A278
330
A1B6
100
AcDbEntity
  8
4
  6
CENTER
 48
0.2
100
AcDbLine
 10
457.6000059999998
 20
175.0
 30
0.0
 11
447.0
 21
175.0
 31
0.0
  0
LINE
  5
A279
330
A1B6
100
AcDbEntity
  8
1
  6
Continuous
100
AcDbLine
 10
438.0
 20
323.0
 30
0.0
 11
448.0
 21
323.0
 31
0.0
  0
LINE
  5
A27A
330
A1B6
100
AcDbEntity
  8
4
  6
CENTER
 48
0.2
100
AcDbLine
 10
465.299988
 20
184.0
 30
0.0
 11
425.2999879999999
 21
184.0
 31
0.0
  0
LINE
  5
A27B
330
A1B6
100
AcDbEntity
  8
4
  6
CENTER
 48
0.2
100
AcDbLine
 10
432.0
 20
295.5
 30
0.0
 11
454.0
 21
295.5
 31
0.0
  0
LINE
  5
A27C
330
A1B6
100
AcDbEntity
  8
4
  6
CENTER
 48
0.2
100
AcDbLine
 10
425.2999879999999
 20
175.0
 30
0.0
 11
438.2000119999998
 21
175.0
 31
0.0
  0
LINE
  5
A27D
330
A1B6
100
AcDbEntity
  8
4
  6
CENTER
 48
0.2
100
AcDbLine
 10
425.2999879999999
 20
193.0
 30
0.0
 11
438.2000119999998
 21
193.0
 31
0.0
  0
LINE
  5
A27E
330
A1B6
100
AcDbEntity
  8
4
  6
CENTER
 48
0.2
100
AcDbLine
 10
185.25
 20
193.0
 30
0.0
 11
196.850006
 21
193.0
 31
0.0
  0
LINE
  5
A27F
330
A1B6
100
AcDbEntity
  8
1
  6
Continuous
100
AcDbLine
 10
192.8000029999998
 20
56.0
 30
0.0
 11
192.8000029999998
 21
43.900002
 31
0.0
  0
LINE
  5
A280
330
A1B6
100
AcDbEntity
  8
4
  6
CENTER
 48
0.2
100
AcDbLine
 10
177.800003
 20
60.0
 30
0.0
 11
167.1999969999999
 21
60.0
 31
0.0
  0
LINE
  5
A281
330
A1B6
100
AcDbEntity
  8
4
  6
CENTER
 48
0.2
100
AcDbLine
 10
172.5
 20
54.700001
 30
0.0
 11
172.5
 21
65.30000300000001
 31
0.0
  0
LINE
  5
A282
330
A1B6
100
AcDbEntity
  8
4
  6
CENTER
 48
0.2
100
AcDbLine
 10
177.800003
 20
78.0
 30
0.0
 11
167.1999969999999
 21
78.0
 31
0.0
  0
LINE
  5
A283
330
A1B6
100
AcDbEntity
  8
4
  6
CENTER
 48
0.2
100
AcDbLine
 10
172.5
 20
72.69999699999998
 30
0.0
 11
172.5
 21
83.300003
 31
0.0
  0
LINE
  5
A284
330
A1B6
100
AcDbEntity
  8
1
  6
Continuous
100
AcDbLine
 10
42.0
 20
323.0
 30
0.0
 11
64.0
 21
323.0
 31
0.0
  0
LINE
  5
A285
330
A1B6
100
AcDbEntity
  8
1
  6
Continuous
100
AcDbLine
 10
42.0
 20
309.0
 30
0.0
 11
42.0
 21
309.0
 31
0.0
  0
LINE
  5
A286
330
A1B6
100
AcDbEntity
  8
1
  6
Continuous
100
AcDbLine
 10
42.0
 20
305.0
 30
0.0
 11
42.0
 21
305.0
 31
0.0
  0
LINE
  5
A287
330
A1B6
100
AcDbEntity
  8
1
  6
Continuous
100
AcDbLine
 10
42.0
 20
319.0
 30
0.0
 11
42.0
 21
319.0
 31
0.0
  0
LINE
  5
A288
330
A1B6
100
AcDbEntity
  8
1
  6
Continuous
100
AcDbLine
 10
42.0
 20
315.0
 30
0.0
 11
42.0
 21
315.0
 31
0.0
  0
LINE
  5
A289
330
A1B6
100
AcDbEntity
  8
4
  6
CENTER
 48
0.1
100
AcDbLine
 10
39.5
 20
317.0
 30
0.0
 11
43.5
 21
317.0
 31
0.0
  0
LINE
  5
A28A
330
A1B6
100
AcDbEntity
  8
4
  6
CENTER
 48
0.1
100
AcDbLine
 10
39.5
 20
307.0
 30
0.0
 11
43.5
 21
307.0
 31
0.0
  0
LINE
  5
A28B
330
A1B6
100
AcDbEntity
  8
1
  6
Continuous
100
AcDbLine
 10
324.0
 20
199.0
 30
0.0
 11
324.0
 21
323.0
 31
0.0
  0
LINE
  5
A28C
330
A1B6
100
AcDbEntity
  8
1
  6
Continuous
100
AcDbLine
 10
302.0
 20
173.0
 30
0.0
 11
302.0
 21
323.0
 31
0.0
  0
LINE
  5
A28D
330
A1B6
100
AcDbEntity
  8
1
  6
Continuous
100
AcDbLine
 10
62.5
 20
323.0
 30
0.0
 11
62.5
 21
405.0
 31
0.0
  0
LINE
  5
A28E
330
A1B6
100
AcDbEntity
  8
1
  6
Continuous
100
AcDbLine
 10
43.5
 20
323.0
 30
0.0
 11
43.5
 21
405.0
 31
0.0
  0
LINE
  5
A28F
330
A1B6
100
AcDbEntity
  8
1
  6
Continuous
100
AcDbLine
 10
188.0
 20
173.0
 30
0.0
 11
188.0
 21
323.0
 31
0.0
  0
LINE
  5
A290
330
A1B6
100
AcDbEntity
  8
1
  6
Continuous
100
AcDbLine
 10
178.0
 20
173.0
 30
0.0
 11
178.0
 21
323.0
 31
0.0
  0
LINE
  5
A291
330
A1B6
100
AcDbEntity
  8
1
  6
Continuous
100
AcDbLine
 10
180.6999969999999
 20
280.0
 30
0.0
 11
180.6999969999999
 21
303.0
 31
0.0
  0
LINE
  5
A292
330
A1B6
100
AcDbEntity
  8
1
  6
Continuous
100
AcDbLine
 10
184.3999939999999
 20
280.0
 30
0.0
 11
184.3999939999999
 21
303.0
 31
0.0
  0
LINE
  5
A293
330
A1B6
100
AcDbEntity
  8
1
  6
Continuous
100
AcDbLine
 10
183.3999939999999
 20
304.0
 30
0.0
 11
181.6999969999999
 21
304.0
 31
0.0
  0
LINE
  5
A294
330
A1B6
100
AcDbEntity
  8
1
  6
Continuous
100
AcDbLine
 10
183.3999939999999
 20
279.0
 30
0.0
 11
181.6999969999999
 21
279.0
 31
0.0
  0
LINE
  5
A295
330
A1B6
100
AcDbEntity
  8
4
  6
CENTER
 48
0.2
100
AcDbLine
 10
160.6999969999999
 20
184.0
 30
0.0
 11
200.6999969999998
 21
184.0
 31
0.0
  0
LINE
  5
A296
330
A1B6
100
AcDbEntity
  8
4
  6
CENTER
 48
0.2
100
AcDbLine
 10
185.25
 20
175.0
 30
0.0
 11
196.850006
 21
175.0
 31
0.0
  0
LINE
  5
A297
330
A1B6
100
AcDbEntity
  8
1
  6
Continuous
100
AcDbLine
 10
42.0
 20
173.0
 30
0.0
 11
42.0
 21
323.0
 31
0.0
  0
LINE
  5
A298
330
A1B6
100
AcDbEntity
  8
1
  6
Continuous
100
AcDbLine
 10
64.0
 20
173.0
 30
0.0
 11
64.0
 21
323.0
 31
0.0
  0
LINE
  5
A299
330
A1B6
100
AcDbEntity
  8
1
  6
Continuous
100
AcDbLine
 10
448.0
 20
199.0
 30
0.0
 11
448.0
 21
323.0
 31
0.0
  0
LINE
  5
A29A
330
A1B6
100
AcDbEntity
  8
1
  6
Continuous
100
AcDbLine
 10
438.0
 20
199.0
 30
0.0
 11
438.0
 21
323.0
 31
0.0
  0
LINE
  5
A29B
330
A1B6
100
AcDbEntity
  8
1
  6
Continuous
100
AcDbLine
 10
322.5
 20
323.0
 30
0.0
 11
322.5
 21
390.3918149999999
 31
0.0
  0
LINE
  5
A29C
330
A1B6
100
AcDbEntity
  8
1
  6
Continuous
100
AcDbLine
 10
303.5
 20
323.0
 30
0.0
 11
303.5
 21
390.3918149999999
 31
0.0
  0
LINE
  5
A29D
330
A1B6
100
AcDbEntity
  8
4
  6
CENTER
 48
0.2
100
AcDbLine
 10
193.1521149999999
 20
295.5
 30
0.0
 11
172.6358799999999
 21
295.5
 31
0.0
  0
LINE
  5
A29E
330
A1B6
100
AcDbEntity
  8
1
  6
Continuous
100
AcDbLine
 10
183.8999939999999
 20
282.0
 30
0.0
 11
183.8999939999999
 21
303.8660279999998
 31
0.0
  0
LINE
  5
A29F
330
A1B6
100
AcDbEntity
  8
1
  6
Continuous
100
AcDbLine
 10
184.3999939999999
 20
293.5
 30
0.0
 11
184.1492
 21
293.5
 31
0.0
  0
LINE
  5
A2A0
330
A1B6
100
AcDbEntity
  8
1
  6
Continuous
100
AcDbLine
 10
184.3999939999999
 20
297.5
 30
0.0
 11
184.1492
 21
297.5
 31
0.0
  0
LINE
  5
A2A1
330
A1B6
100
AcDbEntity
  8
1
  6
Continuous
100
AcDbLine
 10
184.3999939999999
 20
282.0
 30
0.0
 11
180.6999969999999
 21
282.0
 31
0.0
  0
LINE
  5
A2A2
330
A1B6
100
AcDbEntity
  8
1
  6
Continuous
100
AcDbLine
 10
183.3999939999999
 20
287.7999879999998
 30
0.0
 11
181.199997
 21
287.7999879999998
 31
0.0
  0
LINE
  5
A2A3
330
A1B6
100
AcDbEntity
  8
1
  6
Continuous
100
AcDbLine
 10
183.3999939999999
 20
285.0
 30
0.0
 11
181.199997
 21
285.0
 31
0.0
  0
LINE
  5
A2A4
330
A1B6
100
AcDbEntity
  8
1
  6
Continuous
100
AcDbLine
 10
184.045959
 20
293.5
 30
0.0
 11
183.8999939999999
 21
293.5
 31
0.0
  0
LINE
  5
A2A5
330
A1B6
100
AcDbEntity
  8
1
  6
Continuous
100
AcDbLine
 10
184.045959
 20
297.5
 30
0.0
 11
183.8999939999999
 21
297.5
 31
0.0
  0
LINE
  5
A2A6
330
A1B6
100
AcDbEntity
  8
1
  6
Continuous
100
AcDbLine
 10
183.3999939999999
 20
286.5
 30
0.0
 11
181.199997
 21
286.5
 31
0.0
  0
LINE
  5
A2A7
330
A1B6
100
AcDbEntity
  8
1
  6
Continuous
100
AcDbLine
 10
183.3999939999999
 20
289.2999879999998
 30
0.0
 11
181.199997
 21
289.2999879999998
 31
0.0
  0
LINE
  5
A2A8
330
A1B6
100
AcDbEntity
  8
5
  6
PHANTOM
 48
0.1
100
AcDbLine
 10
183.3999939999999
 20
294.0
 30
0.0
 11
181.6999969999999
 21
294.0
 31
0.0
  0
LINE
  5
A2A9
330
A1B6
100
AcDbEntity
  8
5
  6
PHANTOM
 48
0.1
100
AcDbLine
 10
183.3999939999999
 20
302.4999999999999
 30
0.0
 11
181.6999969999999
 21
302.4999999999999
 31
0.0
  0
LINE
  5
A2AA
330
A1B6
100
AcDbEntity
  8
4
  6
CENTER
 48
0.2
100
AcDbLine
 10
193.1521149999999
 20
299.0
 30
0.0
 11
172.6358799999999
 21
299.0
 31
0.0
  0
LINE
  5
A2AB
330
A1B6
100
AcDbEntity
  8
5
  6
PHANTOM
 48
0.1
100
AcDbLine
 10
183.3999939999999
 20
295.5
 30
0.0
 11
181.6999969999999
 21
295.5
 31
0.0
  0
LINE
  5
A2AC
330
A1B6
100
AcDbEntity
  8
5
  6
PHANTOM
 48
0.1
100
AcDbLine
 10
183.3999939999999
 20
300.0
 30
0.0
 11
181.6999969999999
 21
300.0
 31
0.0
  0
LINE
  5
A2AD
330
A1B6
100
AcDbEntity
  8
5
  6
PHANTOM
 48
0.1
100
AcDbLine
 10
183.3999939999999
 20
298.0
 30
0.0
 11
181.6999969999999
 21
298.0
 31
0.0
  0
LINE
  5
A2AE
330
A1B6
100
AcDbEntity
  8
5
  6
PHANTOM
 48
0.1
100
AcDbLine
 10
184.3999939999999
 20
285.5
 30
0.0
 11
180.6999969999999
 21
285.5
 31
0.0
  0
LINE
  5
A2AF
330
A1B6
100
AcDbEntity
  8
1
  6
Continuous
100
AcDbLine
 10
302.0
 20
287.7999879999998
 30
0.0
 11
301.2999879999998
 21
287.7999879999998
 31
0.0
  0
LINE
  5
A2B0
330
A1B6
100
AcDbEntity
  8
4
  6
CENTER
 48
0.2
100
AcDbLine
 10
329.0
 20
295.5
 30
0.0
 11
297.0
 21
295.5
 31
0.0
  0
LINE
  5
A2B1
330
A1B6
100
AcDbEntity
  8
1
  6
Continuous
100
AcDbLine
 10
302.0
 20
294.7999879999998
 30
0.0
 11
299.9187319999998
 21
289.884888
 31
0.0
  0
LINE
  5
A2B2
330
A1B6
100
AcDbEntity
  8
5
  6
PHANTOM
 48
0.1
100
AcDbLine
 10
302.0
 20
294.0
 30
0.0
 11
297.5
 21
294.0
 31
0.0
  0
LINE
  5
A2B3
330
A1B6
100
AcDbEntity
  8
5
  6
PHANTOM
 48
0.1
100
AcDbLine
 10
302.0
 20
304.0
 30
0.0
 11
297.5
 21
304.0
 31
0.0
  0
LINE
  5
A2B4
330
A1B6
100
AcDbEntity
  8
4
  6
CENTER
 48
0.2
100
AcDbLine
 10
329.0
 20
299.0
 30
0.0
 11
291.0
 21
299.0
 31
0.0
  0
LINE
  5
A2B5
330
A1B6
100
AcDbEntity
  8
5
  6
PHANTOM
 48
0.1
100
AcDbLine
 10
296.8479919999998
 20
296.850861
 30
0.0
 11
299.4346919999998
 21
298.099426
 31
0.0
  0
LINE
  5
A2B6
330
A1B6
100
AcDbEntity
  8
5
  6
PHANTOM
 48
0.1
100
AcDbLine
 10
296.847961
 20
301.149109
 30
0.0
 11
299.4346919999998
 21
299.900574
 31
0.0
  0
LINE
  5
A2B7
330
A1B6
100
AcDbEntity
  8
4
  6
CENTER
 48
0.2
100
AcDbLine
 10
37.0
 20
299.0
 30
0.0
 11
75.0
 21
299.0
 31
0.0
  0
LINE
  5
A2B8
330
A1B6
100
AcDbEntity
  8
5
  6
PHANTOM
 48
0.1
100
AcDbLine
 10
64.0
 20
304.0
 30
0.0
 11
68.5
 21
304.0
 31
0.0
  0
LINE
  5
A2B9
330
A1B6
100
AcDbEntity
  8
1
  6
Continuous
100
AcDbLine
 10
63.99998899999999
 20
294.800018
 30
0.0
 11
66.08126099999998
 21
289.884888
 31
0.0
  0
LINE
  5
A2BA
330
A1B6
100
AcDbEntity
  8
5
  6
PHANTOM
 48
0.1
100
AcDbLine
 10
64.0
 20
294.0
 30
0.0
 11
68.5
 21
294.0
 31
0.0
  0
LINE
  5
A2BB
330
A1B6
100
AcDbEntity
  8
4
  6
CENTER
 48
0.2
100
AcDbLine
 10
37.0
 20
295.5
 30
0.0
 11
69.0
 21
295.5
 31
0.0
  0
LINE
  5
A2BC
330
A1B6
100
AcDbEntity
  8
5
  6
PHANTOM
 48
0.1
100
AcDbLine
 10
69.15203100000001
 20
296.850861
 30
0.0
 11
66.56531499999998
 21
298.099426
 31
0.0
  0
LINE
  5
A2BD
330
A1B6
100
AcDbEntity
  8
5
  6
PHANTOM
 48
0.1
100
AcDbLine
 10
69.15203100000001
 20
301.1491389999998
 30
0.0
 11
66.565308
 21
299.900574
 31
0.0
  0
LINE
  5
A2BE
330
A1B6
100
AcDbEntity
  8
1
  6
Continuous
100
AcDbLine
 10
64.0
 20
287.7999879999998
 30
0.0
 11
64.69999699999999
 21
287.7999879999998
 31
0.0
  0
LINE
  5
A2BF
330
A1B6
100
AcDbEntity
  8
4
  6
CENTER
 48
0.1
100
AcDbLine
 10
326.5
 20
307.0
 30
0.0
 11
322.5
 21
307.0
 31
0.0
  0
LINE
  5
A2C0
330
A1B6
100
AcDbEntity
  8
4
  6
CENTER
 48
0.1
100
AcDbLine
 10
326.5
 20
317.0
 30
0.0
 11
322.5
 21
317.0
 31
0.0
  0
LINE
  5
A2C1
330
A1B6
100
AcDbEntity
  8
1
  6
Continuous
100
AcDbLine
 10
324.0
 20
315.0
 30
0.0
 11
324.0
 21
315.0
 31
0.0
  0
LINE
  5
A2C2
330
A1B6
100
AcDbEntity
  8
1
  6
Continuous
100
AcDbLine
 10
324.0
 20
319.0
 30
0.0
 11
324.0
 21
319.0
 31
0.0
  0
LINE
  5
A2C3
330
A1B6
100
AcDbEntity
  8
1
  6
Continuous
100
AcDbLine
 10
324.0
 20
305.0
 30
0.0
 11
324.0
 21
305.0
 31
0.0
  0
LINE
  5
A2C4
330
A1B6
100
AcDbEntity
  8
1
  6
Continuous
100
AcDbLine
 10
324.0
 20
309.0
 30
0.0
 11
324.0
 21
309.0
 31
0.0
  0
LINE
  5
A2C5
330
A1B6
100
AcDbEntity
  8
4
  6
CENTER
 48
0.2
100
AcDbLine
 10
183.0
 20
485.0
 30
0.0
 11
183.0
 21
525.0
 31
0.0
  0
LINE
  5
A2C6
330
A1B6
100
AcDbEntity
  8
1
  6
Continuous
100
AcDbLine
 10
193.9000029999998
 20
66.0
 30
0.0
 11
193.9000029999998
 21
68.5
 31
0.0
  0
LINE
  5
A2C7
330
A1B6
100
AcDbEntity
  8
1
  6
Continuous
100
AcDbLine
 10
188.0
 20
59.200001
 30
0.0
 11
188.0
 21
78.800003
 31
0.0
  0
LINE
  5
A2C8
330
A1B6
100
AcDbEntity
  8
1
  6
Continuous
100
AcDbLine
 10
186.800003
 20
58.0
 30
0.0
 11
179.1999969999999
 21
58.0
 31
0.0
  0
LINE
  5
A2C9
330
A1B6
100
AcDbEntity
  8
1
  6
Continuous
100
AcDbLine
 10
186.800003
 20
80.0
 30
0.0
 11
179.1999969999999
 21
80.0
 31
0.0
  0
LINE
  5
A2CA
330
A1B6
100
AcDbEntity
  8
1
  6
Continuous
100
AcDbLine
 10
186.800003
 20
59.200001
 30
0.0
 11
186.800003
 21
78.800003
 31
0.0
  0
LINE
  5
A2CB
330
A1B6
100
AcDbEntity
  8
1
  6
Continuous
100
AcDbLine
 10
186.800003
 20
59.200001
 30
0.0
 11
179.1999969999999
 21
59.200001
 31
0.0
  0
LINE
  5
A2CC
330
A1B6
100
AcDbEntity
  8
1
  6
Continuous
100
AcDbLine
 10
179.1999969999999
 20
59.200001
 30
0.0
 11
179.1999969999999
 21
78.800003
 31
0.0
  0
LINE
  5
A2CD
330
A1B6
100
AcDbEntity
  8
1
  6
Continuous
100
AcDbLine
 10
186.800003
 20
78.800003
 30
0.0
 11
179.1999969999999
 21
78.800003
 31
0.0
  0
LINE
  5
A2CE
330
A1B6
100
AcDbEntity
  8
1
  6
Continuous
100
AcDbLine
 10
193.9000029999998
 20
69.5
 30
0.0
 11
193.9000029999998
 21
72.0
 31
0.0
  0
LINE
  5
A2CF
330
A1B6
100
AcDbEntity
  8
1
  6
Continuous
100
AcDbLine
 10
186.800003
 20
65.0
 30
0.0
 11
179.1999969999999
 21
65.0
 31
0.0
  0
LINE
  5
A2D0
330
A1B6
100
AcDbEntity
  8
1
  6
Continuous
100
AcDbLine
 10
186.800003
 20
73.0
 30
0.0
 11
179.1999969999999
 21
73.0
 31
0.0
  0
LINE
  5
A2D1
330
A1B6
100
AcDbEntity
  8
1
  6
Continuous
100
AcDbLine
 10
183.8999939999999
 20
59.200001
 30
0.0
 11
183.8999939999999
 21
65.0
 31
0.0
  0
LINE
  5
A2D2
330
A1B6
100
AcDbEntity
  8
1
  6
Continuous
100
AcDbLine
 10
185.1999969999999
 20
78.5
 30
0.0
 11
181.1000059999997
 21
78.5
 31
0.0
  0
LINE
  5
A2D3
330
A1B6
100
AcDbEntity
  8
1
  6
Continuous
100
AcDbLine
 10
186.800003
 20
59.5
 30
0.0
 11
185.1999969999999
 21
59.5
 31
0.0
  0
LINE
  5
A2D4
330
A1B6
100
AcDbEntity
  8
1
  6
Continuous
100
AcDbLine
 10
185.1999969999999
 20
59.5
 30
0.0
 11
185.1999969999999
 21
65.0
 31
0.0
  0
LINE
  5
A2D5
330
A1B6
100
AcDbEntity
  8
1
  6
Continuous
100
AcDbLine
 10
181.1000059999997
 20
59.5
 30
0.0
 11
181.1000059999997
 21
65.0
 31
0.0
  0
LINE
  5
A2D6
330
A1B6
100
AcDbEntity
  8
1
  6
Continuous
100
AcDbLine
 10
181.1000059999997
 20
59.5
 30
0.0
 11
179.4999999999998
 21
59.5
 31
0.0
  0
LINE
  5
A2D7
330
A1B6
100
AcDbEntity
  8
1
  6
Continuous
100
AcDbLine
 10
185.1999969999999
 20
76.900002
 30
0.0
 11
181.1000059999997
 21
76.900002
 31
0.0
  0
LINE
  5
A2D8
330
A1B6
100
AcDbEntity
  8
1
  6
Continuous
100
AcDbLine
 10
185.1999969999999
 20
73.0
 30
0.0
 11
185.1999969999999
 21
76.900002
 31
0.0
  0
LINE
  5
A2D9
330
A1B6
100
AcDbEntity
  8
1
  6
Continuous
100
AcDbLine
 10
181.1000059999997
 20
73.0
 30
0.0
 11
181.1000059999997
 21
76.900002
 31
0.0
  0
LINE
  5
A2DA
330
A1B6
100
AcDbEntity
  8
1
  6
Continuous
100
AcDbLine
 10
183.8999939999999
 20
73.0
 30
0.0
 11
183.8999939999999
 21
76.900002
 31
0.0
  0
LINE
  5
A2DB
330
A1B6
100
AcDbEntity
  8
1
  6
Continuous
100
AcDbLine
 10
184.3000029999998
 20
59.200001
 30
0.0
 11
184.3000029999998
 21
65.0
 31
0.0
  0
LINE
  5
A2DC
330
A1B6
100
AcDbEntity
  8
1
  6
Continuous
100
AcDbLine
 10
183.8999939999999
 20
82.19999699999998
 30
0.0
 11
180.800003
 21
82.19999699999998
 31
0.0
  0
LINE
  5
A2DD
330
A1B6
100
AcDbEntity
  8
1
  6
Continuous
100
AcDbLine
 10
180.800003
 20
80.0
 30
0.0
 11
180.800003
 21
82.19999699999998
 31
0.0
  0
LINE
  5
A2DE
330
A1B6
100
AcDbEntity
  8
1
  6
Continuous
100
AcDbLine
 10
183.8999939999999
 20
80.0
 30
0.0
 11
183.8999939999999
 21
82.19999699999998
 31
0.0
  0
LINE
  5
A2DF
330
A1B6
100
AcDbEntity
  8
1
  6
Continuous
100
AcDbLine
 10
183.3999939999999
 20
80.69999699999998
 30
0.0
 11
181.3000029999997
 21
80.69999699999998
 31
0.0
  0
LINE
  5
A2E0
330
A1B6
100
AcDbEntity
  8
1
  6
Continuous
100
AcDbLine
 10
188.500006
 20
54.0
 30
0.0
 11
188.500006
 21
60.150002
 31
0.0
  0
LINE
  5
A2E1
330
A1B6
100
AcDbEntity
  8
1
  6
Continuous
100
AcDbLine
 10
191.0
 20
54.0
 30
0.0
 11
191.0
 21
56.418064
 31
0.0
  0
LINE
  5
A2E2
330
A1B6
100
AcDbEntity
  8
1
  6
Continuous
100
AcDbLine
 10
191.0
 20
77.0
 30
0.0
 11
191.0
 21
84.0
 31
0.0
  0
LINE
  5
A2E3
330
A1B6
100
AcDbEntity
  8
1
  6
Continuous
100
AcDbLine
 10
188.500006
 20
77.849998
 30
0.0
 11
188.500006
 21
84.0
 31
0.0
  0
LINE
  5
A2E4
330
A1B6
100
AcDbEntity
  8
4
  6
CENTER
100
AcDbLine
 10
443.0
 20
164.0
 30
0.0
 11
443.0
 21
427.3500059999998
 31
0.0
  0
LINE
  5
A2E5
330
A1B6
100
AcDbEntity
  8
1
  6
Continuous
100
AcDbLine
 10
185.325684
 20
313.8335879999999
 30
0.0
 11
180.674316
 21
313.8335879999999
 31
0.0
  0
LINE
  5
A2E6
330
A1B6
100
AcDbEntity
  8
1
  6
Continuous
100
AcDbLine
 10
185.270203
 20
314.4994199999998
 30
0.0
 11
180.729797
 21
314.4994199999998
 31
0.0
  0
LINE
  5
A2E7
330
A1B6
100
AcDbEntity
  8
1
  6
Continuous
100
AcDbLine
 10
180.927383
 20
315.1666259999998
 30
0.0
 11
182.2008669999999
 21
315.1666259999998
 31
0.0
  0
LINE
  5
A2E8
330
A1B6
100
AcDbEntity
  8
1
  6
Continuous
100
AcDbLine
 10
184.731583
 20
315.833801
 30
0.0
 11
181.2684169999999
 21
315.833801
 31
0.0
  0
LINE
  5
A2E9
330
A1B6
100
AcDbEntity
  8
1
  6
Continuous
100
AcDbLine
 10
183.0006709999999
 20
313.8335879999999
 30
0.0
 11
183.0006709999999
 21
314.4994199999998
 31
0.0
  0
LINE
  5
A2EA
330
A1B6
100
AcDbEntity
  8
1
  6
Continuous
100
AcDbLine
 10
183.800491
 20
315.1666259999998
 30
0.0
 11
185.0726169999999
 21
315.1666259999998
 31
0.0
  0
LINE
  5
A2EB
330
A1B6
100
AcDbEntity
  8
1
  6
Continuous
100
AcDbLine
 10
184.6449739999999
 20
316.4996339999999
 30
0.0
 11
181.356384
 21
316.4996339999999
 31
0.0
  0
LINE
  5
A2EC
330
A1B6
100
AcDbEntity
  8
1
  6
Continuous
100
AcDbLine
 10
181.7705079999998
 20
317.1668399999998
 30
0.0
 11
184.229492
 21
317.1668399999998
 31
0.0
  0
LINE
  5
A2ED
330
A1B6
100
AcDbEntity
  8
1
  6
Continuous
100
AcDbLine
 10
184.8290249999998
 20
317.832672
 30
0.0
 11
181.9545589999999
 21
317.832672
 31
0.0
  0
LINE
  5
A2EE
330
A1B6
100
AcDbEntity
  8
1
  6
Continuous
100
AcDbLine
 10
185.191711
 20
311.1675419999999
 30
0.0
 11
181.018051
 21
311.1675419999999
 31
0.0
  0
LINE
  5
A2EF
330
A1B6
100
AcDbEntity
  8
1
  6
Continuous
100
AcDbLine
 10
181.1181949999999
 20
311.8333740000001
 30
0.0
 11
183.0006709999999
 21
311.8333740000001
 31
0.0
  0
LINE
  5
A2F0
330
A1B6
100
AcDbEntity
  8
1
  6
Continuous
100
AcDbLine
 10
185.1944119999997
 20
312.5005799999998
 30
0.0
 11
180.8055879999997
 21
312.5005799999998
 31
0.0
  0
LINE
  5
A2F1
330
A1B6
100
AcDbEntity
  8
1
  6
Continuous
100
AcDbLine
 10
185.325684
 20
313.1664119999998
 30
0.0
 11
180.674316
 21
313.1664119999998
 31
0.0
  0
LINE
  5
A2F2
330
A1B6
100
AcDbEntity
  8
1
  6
Continuous
100
AcDbLine
 10
183.0006709999999
 20
307.782867
 30
0.0
 11
183.0006709999999
 21
309.1605529999998
 31
0.0
  0
LINE
  5
A2F3
330
A1B6
100
AcDbEntity
  8
1
  6
Continuous
100
AcDbLine
 10
181.7529139999997
 20
309.494843
 30
0.0
 11
184.562424
 21
308.7410279999998
 31
0.0
  0
LINE
  5
A2F4
330
A1B6
100
AcDbEntity
  8
1
  6
Continuous
100
AcDbLine
 10
183.0006709999999
 20
310.1674499999998
 30
0.0
 11
181.401047
 21
310.1674499999998
 31
0.0
  0
LINE
  5
A2F5
330
A1B6
100
AcDbEntity
  8
1
  6
Continuous
100
AcDbLine
 10
183.333603
 20
309.83316
 30
0.0
 11
184.757294
 21
309.83316
 31
0.0
  0
LINE
  5
A2F6
330
A1B6
100
AcDbEntity
  8
1
  6
Continuous
100
AcDbLine
 10
184.8777469999999
 20
310.5003659999998
 30
0.0
 11
183.333603
 21
310.5003659999998
 31
0.0
  0
LINE
  5
A2F7
330
A1B6
100
AcDbEntity
  8
1
  6
Continuous
100
AcDbLine
 10
183.0006709999999
 20
311.8333740000001
 30
0.0
 11
183.0006709999999
 21
312.16629
 31
0.0
  0
LINE
  5
A2F8
330
A1B6
100
AcDbEntity
  8
1
  6
Continuous
100
AcDbLine
 10
183.800491
 20
311.8333740000001
 30
0.0
 11
184.881805
 21
311.8333740000001
 31
0.0
  0
LINE
  5
A2F9
330
A1B6
100
AcDbEntity
  8
1
  6
Continuous
100
AcDbLine
 10
433.000012
 20
392.0
 30
0.0
 11
433.000012
 21
394.5
 31
0.0
  0
LINE
  5
A2FA
330
A1B6
100
AcDbEntity
  8
4
  6
CENTER
 48
0.2
100
AcDbLine
 10
453.5
 20
415.7499999999997
 30
0.0
 11
453.5
 21
427.3500059999998
 31
0.0
  0
LINE
  5
A2FB
330
A1B6
100
AcDbEntity
  8
1
  6
Continuous
100
AcDbLine
 10
434.6000059999997
 20
408.0
 30
0.0
 11
434.3999939999998
 21
408.0
 31
0.0
  0
LINE
  5
A2FC
330
A1B6
100
AcDbEntity
  8
1
  6
Continuous
100
AcDbLine
 10
437.5000059999998
 20
386.9999999999998
 30
0.0
 11
437.5000059999996
 21
405.1
 31
0.0
  0
LINE
  5
A2FD
330
A1B6
100
AcDbEntity
  8
4
  6
CENTER
 48
0.2
100
AcDbLine
 10
458.4039
 20
395.0
 30
0.0
 11
425.2713929999998
 21
395.0
 31
0.0
  0
LINE
  5
A2FE
330
A1B6
100
AcDbEntity
  8
1
  6
Continuous
100
AcDbLine
 10
434.5000119999999
 20
405.1000059999998
 30
0.0
 11
434.3999999999998
 21
405.1000059999998
 31
0.0
  0
LINE
  5
A2FF
330
A1B6
100
AcDbEntity
  8
1
  6
Continuous
100
AcDbLine
 10
449.5
 20
388.5
 30
0.0
 11
449.5
 21
401.4999999999998
 31
0.0
  0
LINE
  5
A300
330
A1B6
100
AcDbEntity
  8
1
  6
Continuous
100
AcDbLine
 10
431.4999999999998
 20
408.0000059999997
 30
0.0
 11
431.5
 21
420.1000059999998
 31
0.0
  0
LINE
  5
A301
330
A1B6
100
AcDbEntity
  8
4
  6
CENTER
 48
0.2
100
AcDbLine
 10
438.75
 20
414.0
 30
0.0
 11
427.1499939999998
 21
414.0
 31
0.0
  0
LINE
  5
A302
330
A1B6
100
AcDbEntity
  8
1
  6
Continuous
100
AcDbLine
 10
461.5
 20
420.1000059999998
 30
0.0
 11
434.3999939999998
 21
420.1000059999998
 31
0.0
  0
LINE
  5
A303
330
A1B6
100
AcDbEntity
  8
1
  6
Continuous
100
AcDbLine
 10
461.5
 20
423.0
 30
0.0
 11
434.3999939999998
 21
423.0
 31
0.0
  0
LINE
  5
A304
330
A1B6
100
AcDbEntity
  8
1
  6
Continuous
100
AcDbLine
 10
461.5
 20
420.1000059999998
 30
0.0
 11
461.5
 21
423.0
 31
0.0
  0
LINE
  5
A305
330
A1B6
100
AcDbEntity
  8
1
  6
Continuous
100
AcDbLine
 10
439.200012
 20
403.850006
 30
0.0
 11
437.6000059999998
 21
403.850006
 31
0.0
  0
LINE
  5
A306
330
A1B6
100
AcDbEntity
  8
1
  6
Continuous
100
AcDbLine
 10
432.999982
 20
395.5
 30
0.0
 11
433.7499819999997
 21
395.0
 31
0.0
  0
LINE
  5
A307
330
A1B6
100
AcDbEntity
  8
1
  6
Continuous
100
AcDbLine
 10
437.5000059999996
 20
386.9999999999998
 30
0.0
 11
434.5000119999999
 21
387.0
 31
0.0
  0
LINE
  5
A308
330
A1B6
100
AcDbEntity
  8
1
  6
Continuous
100
AcDbLine
 10
433.000012
 20
395.5
 30
0.0
 11
433.000012
 21
398.0
 31
0.0
  0
LINE
  5
A309
330
A1B6
100
AcDbEntity
  8
1
  6
Continuous
100
AcDbLine
 10
434.5000119999999
 20
387.0
 30
0.0
 11
434.5000119999999
 21
405.1000059999998
 31
0.0
  0
LINE
  5
A30A
330
A1B6
100
AcDbEntity
  8
1
  6
Continuous
100
AcDbLine
 10
448.5
 20
387.5
 30
0.0
 11
448.5
 21
402.5
 31
0.0
  0
LINE
  5
A30B
330
A1B6
100
AcDbEntity
  8
1
  6
Continuous
100
AcDbLine
 10
439.200012
 20
386.1499939999998
 30
0.0
 11
437.6000059999998
 21
386.1499939999998
 31
0.0
  0
LINE
  5
A30C
330
A1B6
100
AcDbEntity
  8
1
  6
Continuous
100
AcDbLine
 10
448.5
 20
402.5
 30
0.0
 11
446.4999999999998
 21
402.5
 31
0.0
  0
LINE
  5
A30D
330
A1B6
100
AcDbEntity
  8
1
  6
Continuous
100
AcDbLine
 10
448.5
 20
387.5
 30
0.0
 11
446.4999999999998
 21
387.5
 31
0.0
  0
LINE
  5
A30E
330
A1B6
100
AcDbEntity
  8
1
  6
Continuous
100
AcDbLine
 10
449.5
 20
401.4999999999998
 30
0.0
 11
448.5
 21
402.5
 31
0.0
  0
LINE
  5
A30F
330
A1B6
100
AcDbEntity
  8
1
  6
Continuous
100
AcDbLine
 10
439.200012
 20
405.0
 30
0.0
 11
446.4999999999998
 21
405.0
 31
0.0
  0
LINE
  5
A310
330
A1B6
100
AcDbEntity
  8
1
  6
Continuous
100
AcDbLine
 10
449.5
 20
388.5
 30
0.0
 11
448.500031
 21
387.5000309999999
 31
0.0
  0
LINE
  5
A311
330
A1B6
100
AcDbEntity
  8
1
  6
Continuous
100
AcDbLine
 10
434.5000119999999
 20
398.0
 30
0.0
 11
433.000012
 21
398.0
 31
0.0
  0
LINE
  5
A312
330
A1B6
100
AcDbEntity
  8
1
  6
Continuous
100
AcDbLine
 10
434.5000119999999
 20
392.0
 30
0.0
 11
433.000012
 21
392.0
 31
0.0
  0
LINE
  5
A313
330
A1B6
100
AcDbEntity
  8
1
  6
Continuous
100
AcDbLine
 10
433.7500119999998
 20
395.0
 30
0.0
 11
433.000012
 21
394.5
 31
0.0
  0
LINE
  5
A314
330
A1B6
100
AcDbEntity
  8
1
  6
Continuous
100
AcDbLine
 10
434.3999939999998
 20
408.0
 30
0.0
 11
434.3999939999998
 21
420.1000059999998
 31
0.0
  0
LINE
  5
A315
330
A1B6
100
AcDbEntity
  8
1
  6
Continuous
100
AcDbLine
 10
446.4999999999998
 20
323.0
 30
0.0
 11
446.4999999999998
 21
405.0
 31
0.0
  0
LINE
  5
A316
330
A1B6
100
AcDbEntity
  8
1
  6
Continuous
100
AcDbLine
 10
439.200012
 20
323.0
 30
0.0
 11
439.200012
 21
405.0
 31
0.0
  0
LINE
  5
A317
330
A1B6
100
AcDbEntity
  8
1
  6
Continuous
100
AcDbLine
 10
42.0
 20
173.0
 30
0.0
 11
64.0
 21
173.0
 31
0.0
  0
LINE
  5
A318
330
A1B6
100
AcDbEntity
  8
1
  6
Continuous
100
AcDbLine
 10
440.799988
 20
323.0
 30
0.0
 11
440.799988
 21
405.0
 31
0.0
  0
LINE
  5
A319
330
A1B6
100
AcDbEntity
  8
1
  6
Continuous
100
AcDbLine
 10
444.899994
 20
323.0
 30
0.0
 11
444.899994
 21
405.0
 31
0.0
  0
LINE
  5
A31A
330
A1B6
100
AcDbEntity
  8
4
  6
CENTER
 48
0.2
100
AcDbLine
 10
432.0
 20
299.0
 30
0.0
 11
454.0
 21
299.0
 31
0.0
  0
LINE
  5
A31B
330
A1B6
100
AcDbEntity
  8
1
  6
Continuous
100
AcDbLine
 10
186.800003
 20
323.0
 30
0.0
 11
186.800003
 21
405.0
 31
0.0
  0
LINE
  5
A31C
330
A1B6
100
AcDbEntity
  8
1
  6
Continuous
100
AcDbLine
 10
179.4999999999998
 20
323.0
 30
0.0
 11
179.4999999999998
 21
405.0
 31
0.0
  0
LINE
  5
A31D
330
A1B6
100
AcDbEntity
  8
1
  6
Continuous
100
AcDbLine
 10
179.4999999999998
 20
76.900002
 30
0.0
 11
179.4999999999998
 21
73.0
 31
0.0
  0
LINE
  5
A31E
330
A1B6
100
AcDbEntity
  8
1
  6
Continuous
100
AcDbLine
 10
180.800003
 20
59.200001
 30
0.0
 11
180.800003
 21
59.5
 31
0.0
  0
LINE
  5
A31F
330
A1B6
100
AcDbEntity
  8
1
  6
Continuous
100
AcDbLine
 10
179.4999999999998
 20
65.0
 30
0.0
 11
179.4999999999998
 21
59.5
 31
0.0
  0
CIRCLE
  5
A320
330
A1B6
100
AcDbEntity
  8
1
  6
Continuous
100
AcDbCircle
 10
173.699997
 20
175.0
 30
0.0
 40
2.649999999999999
  0
CIRCLE
  5
A321
330
A1B6
100
AcDbEntity
  8
1
  6
Continuous
100
AcDbCircle
 10
173.699997
 20
193.0
 30
0.0
 40
2.649999999999999
  0
CIRCLE
  5
A323
330
A1B6
100
AcDbEntity
  8
1
  6
Continuous
100
AcDbCircle
 10
53.0
 20
184.0
 30
0.0
 40
7.5
  0
CIRCLE
  5
A324
330
A1B6
100
AcDbEntity
  8
1
  6
Continuous
100
AcDbCircle
 10
53.0
 20
184.0
 30
0.0
 40
6.5
  0
ARC
  5
A325
330
A1B6
100
AcDbEntity
  8
1
  6
Continuous
100
AcDbCircle
 10
46.0
 20
184.0
 30
0.0
 40
15.0
100
AcDbArc
 50
269.9999969999999
 51
312.833429
  0
CIRCLE
  5
A326
330
A1B6
100
AcDbEntity
  8
1
  6
Continuous
100
AcDbCircle
 10
34.0
 20
175.0
 30
0.0
 40
2.649999999999999
  0
CIRCLE
  5
A327
330
A1B6
100
AcDbEntity
  8
1
  6
Continuous
100
AcDbCircle
 10
34.0
 20
193.0
 30
0.0
 40
2.649999999999999
  0
ARC
  5
A328
330
A1B6
100
AcDbEntity
  8
1
  6
Continuous
100
AcDbCircle
 10
53.0
 20
402.0
 30
0.0
 40
15.0
100
AcDbArc
 50
309.2964799999998
 51
0.0
  0
ARC
  5
A329
330
A1B6
100
AcDbEntity
  8
1
  6
Continuous
100
AcDbCircle
 10
53.0
 20
402.0
 30
0.0
 40
15.0
100
AcDbArc
 50
180.000005
 51
230.703518
  0
CIRCLE
  5
A32A
330
A1B6
100
AcDbEntity
  8
1
  6
Continuous
100
AcDbCircle
 10
53.0
 20
395.0
 30
0.0
 40
6.5
  0
CIRCLE
  5
A32B
330
A1B6
100
AcDbEntity
  8
1
  6
Continuous
100
AcDbCircle
 10
53.0
 20
395.0
 30
0.0
 40
7.5
  0
CIRCLE
  5
A32C
330
A1B6
100
AcDbEntity
  8
1
  6
Continuous
100
AcDbCircle
 10
44.0
 20
414.0
 30
0.0
 40
2.649999999999999
  0
CIRCLE
  5
A32D
330
A1B6
100
AcDbEntity
  8
1
  6
Continuous
100
AcDbCircle
 10
62.0
 20
414.0
 30
0.0
 40
2.649999999999999
  0
ARC
  5
A32E
330
A1B6
100
AcDbEntity
  8
1
  6
Continuous
100
AcDbCircle
 10
320.0
 20
184.0
 30
0.0
 40
15.0
100
AcDbArc
 50
90.00000300000001
 51
270.000001
  0
CIRCLE
  5
A32F
330
A1B6
100
AcDbEntity
  8
1
  6
Continuous
100
AcDbCircle
 10
332.0
 20
193.0
 30
0.0
 40
2.649999999999999
  0
CIRCLE
  5
A330
330
A1B6
100
AcDbEntity
  8
1
  6
Continuous
100
AcDbCircle
 10
332.0
 20
175.0
 30
0.0
 40
2.649999999999999
  0
ARC
  5
A332
330
A1B6
100
AcDbEntity
  8
1
  6
Continuous
100
AcDbCircle
 10
191.600006
 20
420.1000059999998
 30
0.0
 40
2.9
100
AcDbArc
 50
0.0
 51
90.00000300000001
  0
CIRCLE
  5
A333
330
A1B6
100
AcDbEntity
  8
1
  6
Continuous
100
AcDbCircle
 10
313.0
 20
184.0
 30
0.0
 40
3.0
  0
CIRCLE
  5
A334
330
A1B6
100
AcDbEntity
  8
1
  6
Continuous
100
AcDbCircle
 10
313.0
 20
184.0
 30
0.0
 40
3.25
  0
CIRCLE
  5
A335
330
A1B6
100
AcDbEntity
  8
1
  6
Continuous
100
AcDbCircle
 10
313.0
 20
395.0
 30
0.0
 40
3.0
  0
CIRCLE
  5
A336
330
A1B6
100
AcDbEntity
  8
1
  6
Continuous
100
AcDbCircle
 10
313.0
 20
395.0
 30
0.0
 40
3.25
  0
ARC
  5
A337
330
A1B6
100
AcDbEntity
  8
1
  6
Continuous
100
AcDbCircle
 10
313.0
 20
402.0
 30
0.0
 40
15.0
100
AcDbArc
 50
180.000005
 51
0.00001
  0
CIRCLE
  5
A338
330
A1B6
100
AcDbEntity
  8
1
  6
Continuous
100
AcDbCircle
 10
304.0
 20
414.0
 30
0.0
 40
2.649999999999999
  0
CIRCLE
  5
A339
330
A1B6
100
AcDbEntity
  8
1
  6
Continuous
100
AcDbCircle
 10
322.0
 20
414.0
 30
0.0
 40
2.649999999999999
  0
CIRCLE
  5
A33A
330
A1B6
100
AcDbEntity
  8
1
  6
Continuous
100
AcDbCircle
 10
172.5
 20
496.0
 30
0.0
 40
2.649999999999999
  0
CIRCLE
  5
A33B
330
A1B6
100
AcDbEntity
  8
1
  6
Continuous
100
AcDbCircle
 10
172.5
 20
514.0
 30
0.0
 40
2.649999999999999
  0
ARC
  5
A33C
330
A1B6
100
AcDbEntity
  8
1
  6
Continuous
100
AcDbCircle
 10
192.8000029999998
 20
518.0
 30
0.0
 40
2.9
100
AcDbArc
 50
305.888298
 51
0.0
  0
ARC
  5
A33D
330
A1B6
100
AcDbEntity
  8
1
  6
Continuous
100
AcDbCircle
 10
192.8000029999998
 20
530.0999759999998
 30
0.0
 40
2.9
100
AcDbArc
 50
0.0
 51
90.00000300000001
  0
ARC
  5
A33E
330
A1B6
100
AcDbEntity
  8
1
  6
Continuous
100
AcDbCircle
 10
192.5999999999999
 20
58.9
 30
0.0
 40
2.9
100
AcDbArc
 50
180.000005
 51
270.000001
  0
ARC
  5
A33F
330
A1B6
100
AcDbEntity
  8
1
  6
Continuous
100
AcDbCircle
 10
192.8000029999998
 20
56.0
 30
0.0
 40
2.9
100
AcDbArc
 50
0.0
 51
90.00000300000001
  0
ARC
  5
A340
330
A1B6
100
AcDbEntity
  8
1
  6
Continuous
100
AcDbCircle
 10
192.8000029999998
 20
43.900002
 30
0.0
 40
2.9
100
AcDbArc
 50
269.9999969999999
 51
0.0
  0
CIRCLE
  5
A341
330
A1B6
100
AcDbEntity
  8
1
  6
Continuous
100
AcDbCircle
 10
172.5
 20
60.0
 30
0.0
 40
2.649999999999999
  0
CIRCLE
  5
A342
330
A1B6
100
AcDbEntity
  8
1
  6
Continuous
100
AcDbCircle
 10
172.5
 20
78.0
 30
0.0
 40
2.649999999999999
  0
CIRCLE
  5
A343
330
A1B6
100
AcDbEntity
  8
1
  6
Continuous
100
AcDbCircle
 10
452.2999879999998
 20
193.0
 30
0.0
 40
2.649999999999999
  0
CIRCLE
  5
A344
330
A1B6
100
AcDbEntity
  8
1
  6
Continuous
100
AcDbCircle
 10
452.2999879999998
 20
175.0
 30
0.0
 40
2.649999999999999
  0
ARC
  5
A345
330
A1B6
100
AcDbEntity
  8
1
  6
Continuous
100
AcDbCircle
 10
183.3999939999999
 20
280.0
 30
0.0
 40
1.0
100
AcDbArc
 50
269.9999969999999
 51
0.0
  0
ARC
  5
A346
330
A1B6
100
AcDbEntity
  8
1
  6
Continuous
100
AcDbCircle
 10
181.6999969999999
 20
280.0
 30
0.0
 40
1.0
100
AcDbArc
 50
179.9999909999999
 51
270.000001
  0
ARC
  5
A347
330
A1B6
100
AcDbEntity
  8
1
  6
Continuous
100
AcDbCircle
 10
181.6999969999999
 20
303.0
 30
0.0
 40
1.0
100
AcDbArc
 50
90.00000300000001
 51
180.000005
  0
ARC
  5
A348
330
A1B6
100
AcDbEntity
  8
1
  6
Continuous
100
AcDbCircle
 10
183.3999939999999
 20
303.0
 30
0.0
 40
1.0
100
AcDbArc
 50
0.0
 51
90.00000300000001
  0
ARC
  5
A349
330
A1B6
100
AcDbEntity
  8
1
  6
Continuous
100
AcDbCircle
 10
176.300003
 20
295.5
 30
0.0
 40
8.0
100
AcDbArc
 50
341.805127
 51
18.194873
  0
ARC
  5
A34A
330
A1B6
100
AcDbEntity
  8
1
  6
Continuous
100
AcDbCircle
 10
183.3999939999999
 20
285.5
 30
0.0
 40
0.5
100
AcDbArc
 50
269.9999969999999
 51
0.0
  0
ARC
  5
A34B
330
A1B6
100
AcDbEntity
  8
1
  6
Continuous
100
AcDbCircle
 10
181.199997
 20
285.5
 30
0.0
 40
0.5
100
AcDbArc
 50
179.9999909999999
 51
270.000001
  0
ARC
  5
A34C
330
A1B6
100
AcDbEntity
  8
1
  6
Continuous
100
AcDbCircle
 10
183.3999939999999
 20
288.2999879999998
 30
0.0
 40
0.5
100
AcDbArc
 50
269.9999969999999
 51
0.0
  0
ARC
  5
A34D
330
A1B6
100
AcDbEntity
  8
1
  6
Continuous
100
AcDbCircle
 10
181.199997
 20
288.2999879999998
 30
0.0
 40
0.5
100
AcDbArc
 50
179.9999909999999
 51
270.000001
  0
ARC
  5
A34E
330
A1B6
100
AcDbEntity
  8
5
  6
PHANTOM
 48
0.1
100
AcDbCircle
 10
181.6999969999999
 20
295.0
 30
0.0
 40
1.0
100
AcDbArc
 50
179.9999909999999
 51
270.000001
  0
ARC
  5
A34F
330
A1B6
100
AcDbEntity
  8
5
  6
PHANTOM
 48
0.1
100
AcDbCircle
 10
183.3999939999999
 20
294.4999999999998
 30
0.0
 40
0.5
100
AcDbArc
 50
269.9999969999999
 51
0.0
  0
ARC
  5
A350
330
A1B6
100
AcDbEntity
  8
1
  6
Continuous
100
AcDbCircle
 10
301.2999879999998
 20
289.2999879999998
 30
0.0
 40
1.5
100
AcDbArc
 50
157.0501189999999
 51
270.000001
  0
ARC
  5
A351
330
A1B6
100
AcDbEntity
  8
5
  6
PHANTOM
 48
0.1
100
AcDbCircle
 10
297.5
 20
295.5
 30
0.0
 40
1.5
100
AcDbArc
 50
115.765464
 51
270.000001
  0
ARC
  5
A352
330
A1B6
100
AcDbEntity
  8
5
  6
PHANTOM
 48
0.1
100
AcDbCircle
 10
297.5
 20
302.4999999999999
 30
0.0
 40
1.5
100
AcDbArc
 50
90.00000300000001
 51
244.234533
  0
ARC
  5
A353
330
A1B6
100
AcDbEntity
  8
5
  6
PHANTOM
 48
0.1
100
AcDbCircle
 10
299.0
 20
299.0
 30
0.0
 40
1.0
100
AcDbArc
 50
295.765465
 51
64.23453499999999
  0
ARC
  5
A354
330
A1B6
100
AcDbEntity
  8
1
  6
Continuous
100
AcDbCircle
 10
64.69999699999999
 20
289.2999879999998
 30
0.0
 40
1.5
100
AcDbArc
 50
269.9999969999999
 51
22.949888
  0
ARC
  5
A355
330
A1B6
100
AcDbEntity
  8
5
  6
PHANTOM
 48
0.1
100
AcDbCircle
 10
67.0
 20
299.0
 30
0.0
 40
1.0
100
AcDbArc
 50
115.765464
 51
244.234533
  0
ARC
  5
A356
330
A1B6
100
AcDbEntity
  8
5
  6
PHANTOM
 48
0.1
100
AcDbCircle
 10
68.5
 20
302.4999999999999
 30
0.0
 40
1.5
100
AcDbArc
 50
295.765479
 51
90.00000300000001
  0
ARC
  5
A357
330
A1B6
100
AcDbEntity
  8
5
  6
PHANTOM
 48
0.1
100
AcDbCircle
 10
68.5
 20
295.5
 30
0.0
 40
1.5
100
AcDbArc
 50
269.9999969999999
 51
64.23452799999999
  0
ARC
  5
A358
330
A1B6
100
AcDbEntity
  8
1
  6
Continuous
100
AcDbCircle
 10
186.800003
 20
59.200001
 30
0.0
 40
1.199999999999999
100
AcDbArc
 50
269.9999969999999
 51
0.0
  0
ARC
  5
A359
330
A1B6
100
AcDbEntity
  8
1
  6
Continuous
100
AcDbCircle
 10
186.800003
 20
78.800003
 30
0.0
 40
1.199999999999999
100
AcDbArc
 50
0.0
 51
90.00000300000001
  0
ARC
  5
A35A
330
A1B6
100
AcDbEntity
  8
1
  6
Continuous
100
AcDbCircle
 10
179.1999969999999
 20
78.800003
 30
0.0
 40
1.199999999999999
100
AcDbArc
 50
90.00000300000001
 51
180.000005
  0
ARC
  5
A35B
330
A1B6
100
AcDbEntity
  8
1
  6
Continuous
100
AcDbCircle
 10
179.1999969999999
 20
59.200001
 30
0.0
 40
1.199999999999999
100
AcDbArc
 50
179.9999909999999
 51
270.000001
  0
ARC
  5
A35C
330
A1B6
100
AcDbEntity
  8
1
  6
Continuous
100
AcDbCircle
 10
185.1999969999999
 20
76.900002
 30
0.0
 40
1.6
100
AcDbArc
 50
0.0
 51
90.00000300000001
  0
ARC
  5
A35D
330
A1B6
100
AcDbEntity
  8
1
  6
Continuous
100
AcDbCircle
 10
181.1000059999997
 20
76.900002
 30
0.0
 40
1.6
100
AcDbArc
 50
90.00000300000001
 51
180.000005
  0
ARC
  5
A35E
330
A1B6
100
AcDbEntity
  8
1
  6
Continuous
100
AcDbCircle
 10
176.300003
 20
295.5
 30
0.0
 40
8.099999999999997
100
AcDbArc
 50
339.7632919999998
 51
20.236708
  0
ARC
  5
A35F
330
A1B6
100
AcDbEntity
  8
1
  6
Continuous
100
AcDbCircle
 10
188.5993799999999
 20
313.500671
 30
0.0
 40
7.932788
100
AcDbArc
 50
153.986
 51
157.0559929999998
  0
ARC
  5
A360
330
A1B6
100
AcDbEntity
  8
1
  6
Continuous
100
AcDbCircle
 10
181.356384
 20
316.5659479999998
 30
0.0
 40
0.066678
100
AcDbArc
 50
157.0559929999998
 51
270.000001
  0
ARC
  5
A361
330
A1B6
100
AcDbEntity
  8
1
  6
Continuous
100
AcDbCircle
 10
180.927383
 20
315.232941
 30
0.0
 40
0.066678
100
AcDbArc
 50
167.2709909999998
 51
270.000001
  0
ARC
  5
A362
330
A1B6
100
AcDbEntity
  8
1
  6
Continuous
100
AcDbCircle
 10
188.5993799999999
 20
313.500671
 30
0.0
 40
7.932788
100
AcDbArc
 50
164.7939959999999
 51
167.2709909999998
  0
ARC
  5
A363
330
A1B6
100
AcDbEntity
  8
1
  6
Continuous
100
AcDbCircle
 10
188.5993799999999
 20
313.500671
 30
0.0
 40
7.932788
100
AcDbArc
 50
164.7419909999999
 51
164.7939959999999
  0
ARC
  5
A364
330
A1B6
100
AcDbEntity
  8
1
  6
Continuous
100
AcDbCircle
 10
181.2684169999999
 20
315.499542
 30
0.0
 40
0.333392
100
AcDbArc
 50
90.00000300000001
 51
164.7419909999999
  0
ARC
  5
A365
330
A1B6
100
AcDbEntity
  8
1
  6
Continuous
100
AcDbCircle
 10
184.731583
 20
315.499542
 30
0.0
 40
0.333392
100
AcDbArc
 50
15.25749699999999
 51
90.00000300000001
  0
ARC
  5
A366
330
A1B6
100
AcDbEntity
  8
1
  6
Continuous
100
AcDbCircle
 10
177.40062
 20
313.500671
 30
0.0
 40
7.932788
100
AcDbArc
 50
13.26810299999998
 51
15.25749699999999
  0
ARC
  5
A367
330
A1B6
100
AcDbEntity
  8
1
  6
Continuous
100
AcDbCircle
 10
177.40062
 20
313.500671
 30
0.0
 40
7.932788
100
AcDbArc
 50
12.7289
 51
13.26810299999998
  0
ARC
  5
A368
330
A1B6
100
AcDbEntity
  8
1
  6
Continuous
100
AcDbCircle
 10
185.0726169999999
 20
315.232941
 30
0.0
 40
0.066678
100
AcDbArc
 50
269.9999969999999
 51
12.7289
  0
ARC
  5
A369
330
A1B6
100
AcDbEntity
  8
1
  6
Continuous
100
AcDbCircle
 10
181.7705079999998
 20
316.83255
 30
0.0
 40
0.333392
100
AcDbArc
 50
90.00000300000001
 51
153.986
  0
ARC
  5
A36A
330
A1B6
100
AcDbEntity
  8
1
  6
Continuous
100
AcDbCircle
 10
184.6449739999999
 20
316.5659479999998
 30
0.0
 40
0.066678
100
AcDbArc
 50
269.9999969999999
 51
22.94399999999999
  0
ARC
  5
A36B
330
A1B6
100
AcDbEntity
  8
1
  6
Continuous
100
AcDbCircle
 10
177.40062
 20
313.500671
 30
0.0
 40
7.932788
100
AcDbArc
 50
22.94399999999999
 51
26.01439599999999
  0
ARC
  5
A36C
330
A1B6
100
AcDbEntity
  8
1
  6
Continuous
100
AcDbCircle
 10
184.229492
 20
316.83255
 30
0.0
 40
0.333392
100
AcDbArc
 50
26.01439599999999
 51
90.00000300000001
  0
ARC
  5
A36D
330
A1B6
100
AcDbEntity
  8
1
  6
Continuous
100
AcDbCircle
 10
183.0006709999999
 20
317.4997559999998
 30
0.0
 40
1.717978999999997
100
AcDbArc
 50
90.00000300000001
 51
144.4620119999999
  0
ARC
  5
A36E
330
A1B6
100
AcDbEntity
  8
1
  6
Continuous
100
AcDbCircle
 10
183.0006709999999
 20
317.4997559999998
 30
0.0
 40
1.717978999999997
100
AcDbArc
 50
35.537703
 51
76.53739899999997
  0
ARC
  5
A36F
330
A1B6
100
AcDbEntity
  8
1
  6
Continuous
100
AcDbCircle
 10
188.5993799999999
 20
313.500671
 30
0.0
 40
7.932788
100
AcDbArc
 50
187.792995
 51
190.104003
  0
ARC
  5
A370
330
A1B6
100
AcDbEntity
  8
1
  6
Continuous
100
AcDbCircle
 10
180.8055879999997
 20
312.4328919999998
 30
0.0
 40
0.066678
100
AcDbArc
 50
90.00000300000001
 51
187.7930049999999
  0
ARC
  5
A371
330
A1B6
100
AcDbEntity
  8
1
  6
Continuous
100
AcDbCircle
 10
181.1181949999999
 20
312.16629
 30
0.0
 40
0.333392
100
AcDbArc
 50
190.104003
 51
269.9999969999999
  0
ARC
  5
A372
330
A1B6
100
AcDbEntity
  8
1
  6
Continuous
100
AcDbCircle
 10
185.1944119999997
 20
312.4328919999998
 30
0.0
 40
0.066678
100
AcDbArc
 50
352.207003
 51
90.00000300000001
  0
ARC
  5
A373
330
A1B6
100
AcDbEntity
  8
1
  6
Continuous
100
AcDbCircle
 10
177.40062
 20
313.500671
 30
0.0
 40
7.932788
100
AcDbArc
 50
349.8960009999998
 51
352.207003
  0
ARC
  5
A374
330
A1B6
100
AcDbEntity
  8
1
  6
Continuous
100
AcDbCircle
 10
184.881805
 20
312.16629
 30
0.0
 40
0.333392
100
AcDbArc
 50
269.9999969999999
 51
349.8960009999998
  0
ARC
  5
A375
330
A1B6
100
AcDbEntity
  8
1
  6
Continuous
100
AcDbCircle
 10
183.0006709999999
 20
309.500244
 30
0.0
 40
1.717978999999997
100
AcDbArc
 50
215.5380019999999
 51
225.6990009999999
  0
ARC
  5
A376
330
A1B6
100
AcDbEntity
  8
1
  6
Continuous
100
AcDbCircle
 10
183.0006709999999
 20
309.500244
 30
0.0
 40
1.717978999999997
100
AcDbArc
 50
242.2499979999999
 51
324.4619999999998
  0
ARC
  5
A377
330
A1B6
100
AcDbEntity
  8
1
  6
Continuous
100
AcDbCircle
 10
183.333603
 20
310.1674499999998
 30
0.0
 40
0.333392
100
AcDbArc
 50
90.00000300000001
 51
270.000001
  0
ARC
  5
A378
330
A1B6
100
AcDbEntity
  8
1
  6
Continuous
100
AcDbCircle
 10
177.40062
 20
313.500671
 30
0.0
 40
8.599396
100
AcDbArc
 50
324.4619999999998
 51
35.537703
  0
ARC
  5
A379
330
A1B6
100
AcDbEntity
  8
1
  6
Continuous
100
AcDbCircle
 10
188.5993799999999
 20
313.500671
 30
0.0
 40
8.599396
100
AcDbArc
 50
144.461998
 51
215.5379979999999
  0
ARC
  5
A37C
330
A1B6
100
AcDbEntity
  8
1
  6
Continuous
100
AcDbCircle
 10
434.3999939999998
 20
420.1000059999998
 30
0.0
 40
2.9
100
AcDbArc
 50
90.00000300000001
 51
180.000005
  0
ARC
  5
A37D
330
A1B6
100
AcDbEntity
  8
1
  6
Continuous
100
AcDbCircle
 10
45.75
 20
317.0
 30
0.0
 40
4.25
100
AcDbArc
 50
151.9275179999999
 51
208.0724919999999
  0
ARC
  5
A37E
330
A1B6
100
AcDbEntity
  8
1
  6
Continuous
100
AcDbCircle
 10
45.75
 20
307.0
 30
0.0
 40
4.25
100
AcDbArc
 50
151.9275179999999
 51
208.0724919999999
  0
ARC
  5
A37F
330
A1B6
100
AcDbEntity
  8
1
  6
Continuous
100
AcDbCircle
 10
320.25
 20
317.0
 30
0.0
 40
4.25
100
AcDbArc
 50
331.9275129999998
 51
28.072487
  0
ARC
  5
A380
330
A1B6
100
AcDbEntity
  8
1
  6
Continuous
100
AcDbCircle
 10
320.25
 20
307.0
 30
0.0
 40
4.25
100
AcDbArc
 50
331.9275129999998
 51
28.072487
  0
CIRCLE
  5
A381
330
A1B6
100
AcDbEntity
  8
1
  6
Continuous
100
AcDbCircle
 10
443.0
 20
317.0
 30
0.0
 40
2.0
  0
CIRCLE
  5
A382
330
A1B6
100
AcDbEntity
  8
1
  6
Continuous
100
AcDbCircle
 10
443.0
 20
307.0
 30
0.0
 40
2.0
  0
ARC
  5
A383
330
A1B6
100
AcDbEntity
  8
1
  6
Continuous
100
AcDbCircle
 10
313.0
 20
395.0
 30
0.0
 40
8.849999999999997
100
AcDbArc
 50
232.03228
 51
307.967715
  0
TEXT
  5
A384
330
A1B6
100
AcDbEntity
  8
6
  6
Continuous
100
AcDbText
 10
27.97945
 20
10.0487
 30
0.0
 40
1.399999999999999
  1
6
 41
1.069393
100
AcDbText
  0
TEXT
  5
A385
330
A1B6
100
AcDbEntity
  8
1
  6
Continuous
100
AcDbText
 10
17.97945
 20
10.0487
 30
0.0
 40
1.399999999999999
  1
1
 41
1.069393
100
AcDbText
  0
TEXT
  5
A386
330
A1B6
100
AcDbEntity
  8
1
  6
Continuous
100
AcDbText
 10
9.99995
 20
10.0
 30
0.0
 40
1.399999999999999
  1
LAYER
 41
1.009912999999996
100
AcDbText
  0
TEXT
  5
A387
330
A1B6
100
AcDbEntity
  8
2
  6
Continuous
100
AcDbText
 10
19.97944999999998
 20
10.0487
 30
0.0
 40
1.399999999999999
  1
2
 41
1.069393
100
AcDbText
  0
TEXT
  5
A388
330
A1B6
100
AcDbEntity
  8
3
  6
DASHED
100
AcDbText
 10
21.97945
 20
10.0487
 30
0.0
 40
1.399999999999999
  1
3
 41
1.069393
100
AcDbText
  0
TEXT
  5
A389
330
A1B6
100
AcDbEntity
  8
4
  6
CENTER
100
AcDbText
 10
23.97944999999999
 20
10.0487
 30
0.0
 40
1.399999999999999
  1
4
 41
1.069393
100
AcDbText
  0
TEXT
  5
A38A
330
A1B6
100
AcDbEntity
  8
5
  6
PHANTOM
100
AcDbText
 10
25.97945
 20
10.0487
 30
0.0
 40
1.399999999999999
  1
5
 41
1.069393
100
AcDbText
  0
TEXT
  5
A38B
330
A1B6
100
AcDbEntity
  8
7
  6
Continuous
100
AcDbText
 10
10.00005
 20
26.0
 30
0.0
 40
3.0
  1
CODE No.5130
 41
1.003962999999999
100
AcDbText
  0
TEXT
  5
A38C
330
A1B6
100
AcDbEntity
  8
7
  6
Continuous
100
AcDbText
 10
10.00005
 20
18.0
 30
0.0
 40
3.0
  1
TYPE No.TM-70A-2L
 41
1.002774
100
AcDbText
  0
TEXT
  5
A38D
330
A1B6
100
AcDbEntity
  8
7
  6
Continuous
100
AcDbText
 10
29.97944999999999
 20
10.0487
 30
0.0
 40
1.399999999999999
  1
7
 41
1.069393
100
AcDbText
  0
LINE
  5
A38E
330
A1B6
100
AcDbEntity
  8
1
  6
Continuous
100
AcDbLine
 10
27.899994
 20
187.0
 30
0.0
 11
33.000006
 21
187.0
 31
0.0
  0
LINE
  5
A38F
330
A1B6
100
AcDbEntity
  8
1
  6
Continuous
100
AcDbLine
 10
27.899994
 20
181.0
 30
0.0
 11
33.000006
 21
181.0
 31
0.0
  0
LINE
  5
A390
330
A1B6
100
AcDbEntity
  8
1
  6
Continuous
100
AcDbLine
 10
28.999994
 20
182.0
 30
0.0
 11
28.999994
 21
186.0
 31
0.0
  0
LINE
  5
A391
330
A1B6
100
AcDbEntity
  8
1
  6
Continuous
100
AcDbLine
 10
56.0
 20
415.0000239999998
 30
0.0
 11
56.0
 21
420.099976
 31
0.0
  0
LINE
  5
A392
330
A1B6
100
AcDbEntity
  8
1
  6
Continuous
100
AcDbLine
 10
50.0
 20
415.0000239999998
 30
0.0
 11
50.0
 21
420.099976
 31
0.0
  0
LINE
  5
A393
330
A1B6
100
AcDbEntity
  8
1
  6
Continuous
100
AcDbLine
 10
55.0
 20
418.999976
 30
0.0
 11
51.0
 21
418.999976
 31
0.0
  0
LINE
  5
A394
330
A1B6
100
AcDbEntity
  8
1
  6
Continuous
100
AcDbLine
 10
339.9
 20
182.0
 30
0.0
 11
339.9
 21
186.0
 31
0.0
  0
LINE
  5
A395
330
A1B6
100
AcDbEntity
  8
1
  6
Continuous
100
AcDbLine
 10
311.0
 20
421.8999999999998
 30
0.0
 11
315.0
 21
421.8999999999998
 31
0.0
  0
LINE
  5
A396
330
A1B6
100
AcDbEntity
  8
1
  6
Continuous
100
AcDbLine
 10
193.4
 20
503.0
 30
0.0
 11
193.4
 21
507.0
 31
0.0
  0
LINE
  5
A397
330
A1B6
100
AcDbEntity
  8
1
  6
Continuous
100
AcDbLine
 10
185.700006
 20
45.000002
 30
0.0
 11
191.700003
 21
45.000002
 31
0.0
  0
LINE
  5
A398
330
A1B6
100
AcDbEntity
  8
1
  6
Continuous
100
AcDbLine
 10
191.700003
 20
50.99999799999999
 30
0.0
 11
191.700003
 21
45.000002
 31
0.0
  0
LINE
  5
A399
330
A1B6
100
AcDbEntity
  8
1
  6
Continuous
100
AcDbLine
 10
431.3999879999998
 20
182.0
 30
0.0
 11
431.3999879999998
 21
186.0
 31
0.0
  0
LINE
  5
A39A
330
A1B6
100
AcDbEntity
  8
1
  6
Continuous
100
AcDbLine
 10
441.5000059999998
 20
419.000006
 30
0.0
 11
435.4999939999998
 21
419.000006
 31
0.0
  0
LINE
  5
A39B
330
A1B6
100
AcDbEntity
  8
1
  6
Continuous
100
AcDbLine
 10
435.4999939999998
 20
413.000024
 30
0.0
 11
435.4999939999998
 21
419.000006
 31
0.0
  0
LINE
  5
A39C
330
A1B6
100
AcDbEntity
  8
1
  6
Continuous
100
AcDbLine
 10
311.0
 20
422.4999999999998
 30
0.0
 11
311.0
 21
414.0000239999998
 31
0.0
  0
LINE
  5
A39D
330
A1B6
100
AcDbEntity
  8
1
  6
Continuous
100
AcDbLine
 10
315.0
 20
422.4999999999998
 30
0.0
 11
315.0
 21
414.0000239999998
 31
0.0
  0
LINE
  5
A39E
330
A1B6
100
AcDbEntity
  8
1
  6
Continuous
100
AcDbLine
 10
185.4999939999999
 20
503.0
 30
0.0
 11
194.0
 21
503.0
 31
0.0
  0
LINE
  5
A39F
330
A1B6
100
AcDbEntity
  8
1
  6
Continuous
100
AcDbLine
 10
185.4999939999999
 20
507.0
 30
0.0
 11
194.0
 21
507.0
 31
0.0
  0
LINE
  5
A3A0
330
A1B6
100
AcDbEntity
  8
1
  6
Continuous
100
AcDbLine
 10
340.5
 20
182.0
 30
0.0
 11
332.000002
 21
182.0
 31
0.0
  0
LINE
  5
A3A1
330
A1B6
100
AcDbEntity
  8
1
  6
Continuous
100
AcDbLine
 10
340.5
 20
186.0
 30
0.0
 11
332.000002
 21
186.0
 31
0.0
  0
LINE
  5
A3A2
330
A1B6
100
AcDbEntity
  8
1
  6
Continuous
100
AcDbLine
 10
439.299994
 20
182.0
 30
0.0
 11
430.7999879999998
 21
182.0
 31
0.0
  0
LINE
  5
A3A3
330
A1B6
100
AcDbEntity
  8
1
  6
Continuous
100
AcDbLine
 10
439.299994
 20
186.0
 30
0.0
 11
430.7999879999998
 21
186.0
 31
0.0
  0
ARC
  5
A3A4
330
A1B6
100
AcDbEntity
  8
1
  6
Continuous
100
AcDbCircle
 10
33.000006
 20
184.0
 30
0.0
 40
3.0
100
AcDbArc
 50
269.999999
 51
89.99999700000001
  0
ARC
  5
A3A5
330
A1B6
100
AcDbEntity
  8
1
  6
Continuous
100
AcDbCircle
 10
27.999994
 20
182.0
 30
0.0
 40
1.0
100
AcDbArc
 50
269.999999
 51
0.000009
  0
ARC
  5
A3A6
330
A1B6
100
AcDbEntity
  8
1
  6
Continuous
100
AcDbCircle
 10
27.999994
 20
186.0
 30
0.0
 40
1.0
100
AcDbArc
 50
359.999995
 51
89.99999700000001
  0
ARC
  5
A3A7
330
A1B6
100
AcDbEntity
  8
1
  6
Continuous
100
AcDbCircle
 10
53.0
 20
415.0000239999998
 30
0.0
 40
3.0
100
AcDbArc
 50
179.9999909999999
 51
0.00001
  0
ARC
  5
A3A8
330
A1B6
100
AcDbEntity
  8
1
  6
Continuous
100
AcDbCircle
 10
55.0
 20
419.9999759999998
 30
0.0
 40
1.0
100
AcDbArc
 50
269.9999969999999
 51
0.0
  0
ARC
  5
A3A9
330
A1B6
100
AcDbEntity
  8
1
  6
Continuous
100
AcDbCircle
 10
51.0
 20
419.9999759999998
 30
0.0
 40
1.0
100
AcDbArc
 50
179.9999909999999
 51
270.000001
  0
ARC
  5
A3AA
330
A1B6
100
AcDbEntity
  8
1
  6
Continuous
100
AcDbCircle
 10
340.5
 20
181.4999999999997
 30
0.0
 40
0.5
100
AcDbArc
 50
359.999995
 51
89.99999700000001
  0
ARC
  5
A3AB
330
A1B6
100
AcDbEntity
  8
1
  6
Continuous
100
AcDbCircle
 10
340.5
 20
186.5
 30
0.0
 40
0.5
100
AcDbArc
 50
269.999999
 51
0.000009
  0
ARC
  5
A3AC
330
A1B6
100
AcDbEntity
  8
1
  6
Continuous
100
AcDbCircle
 10
315.5
 20
422.4999999999998
 30
0.0
 40
0.5
100
AcDbArc
 50
90.00000300000001
 51
180.000005
  0
ARC
  5
A3AD
330
A1B6
100
AcDbEntity
  8
1
  6
Continuous
100
AcDbCircle
 10
310.4999999999999
 20
422.4999999999998
 30
0.0
 40
0.5
100
AcDbArc
 50
0.0
 51
90.00000300000001
  0
ARC
  5
A3AE
330
A1B6
100
AcDbEntity
  8
1
  6
Continuous
100
AcDbCircle
 10
194.0
 20
507.5
 30
0.0
 40
0.5
100
AcDbArc
 50
269.999999
 51
0.000009
  0
ARC
  5
A3AF
330
A1B6
100
AcDbEntity
  8
1
  6
Continuous
100
AcDbCircle
 10
194.0
 20
502.5
 30
0.0
 40
0.5
100
AcDbArc
 50
359.999995
 51
89.99999700000001
  0
ARC
  5
A3B0
330
A1B6
100
AcDbEntity
  8
1
  6
Continuous
100
AcDbCircle
 10
185.700006
 20
44.000002
 30
0.0
 40
1.0
100
AcDbArc
 50
89.99999700000001
 51
180.0
  0
ARC
  5
A3B1
330
A1B6
100
AcDbEntity
  8
1
  6
Continuous
100
AcDbCircle
 10
192.700003
 20
50.99999799999999
 30
0.0
 40
1.0
100
AcDbArc
 50
89.99999700000001
 51
180.0
  0
ARC
  5
A3B2
330
A1B6
100
AcDbEntity
  8
1
  6
Continuous
100
AcDbCircle
 10
430.7999879999998
 20
186.5
 30
0.0
 40
0.5
100
AcDbArc
 50
180.0
 51
270.0000029999998
  0
ARC
  5
A3B3
330
A1B6
100
AcDbEntity
  8
1
  6
Continuous
100
AcDbCircle
 10
430.7999879999998
 20
181.4999999999997
 30
0.0
 40
0.5
100
AcDbArc
 50
89.99999700000001
 51
180.0
  0
ARC
  5
A3B4
330
A1B6
100
AcDbEntity
  8
1
  6
Continuous
100
AcDbCircle
 10
441.5000059999998
 20
420.0000059999998
 30
0.0
 40
1.0
100
AcDbArc
 50
269.999999
 51
359.999995
  0
ARC
  5
A3B5
330
A1B6
100
AcDbEntity
  8
1
  6
Continuous
100
AcDbCircle
 10
434.499994
 20
413.000024
 30
0.0
 40
1.0
100
AcDbArc
 50
269.999999
 51
359.999995
  0
ARC
  5
A3B6
330
A1B6
100
AcDbEntity
  8
1
  6
Continuous
100
AcDbCircle
 10
313.0
 20
414.0000239999998
 30
0.0
 40
2.0
100
AcDbArc
 50
179.9999909999999
 51
0.00001
  0
ARC
  5
A3B7
330
A1B6
100
AcDbEntity
  8
1
  6
Continuous
100
AcDbCircle
 10
185.4999939999999
 20
505.0
 30
0.0
 40
2.0
100
AcDbArc
 50
90.000011
 51
270.0000029999998
  0
ARC
  5
A3B8
330
A1B6
100
AcDbEntity
  8
1
  6
Continuous
100
AcDbCircle
 10
332.000002
 20
184.0
 30
0.0
 40
2.0
100
AcDbArc
 50
90.000011
 51
270.0000029999998
  0
ARC
  5
A3B9
330
A1B6
100
AcDbEntity
  8
1
  6
Continuous
100
AcDbCircle
 10
439.299994
 20
184.0
 30
0.0
 40
2.0
100
AcDbArc
 50
269.999999
 51
89.99999700000001
  0
LINE
  5
A3BA
330
A1B6
100
AcDbEntity
  8
1
  6
Continuous
100
AcDbLine
 10
184.700006
 20
44.000002
 30
0.0
 11
184.700006
 21
43.900002
 31
0.0
  0
LINE
  5
A3BB
330
A1B6
100
AcDbEntity
  8
1
  6
Continuous
100
AcDbLine
 10
192.700003
 20
51.999998
 30
0.0
 11
192.8000029999998
 21
51.999998
 31
0.0
  0
LINE
  5
A3BC
330
A1B6
100
AcDbEntity
  8
1
  6
Continuous
100
AcDbLine
 10
434.499994
 20
412.000024
 30
0.0
 11
434.3999939999998
 21
412.000024
 31
0.0
  0
LINE
  5
A3BD
330
A1B6
100
AcDbEntity
  8
1
  6
Continuous
100
AcDbLine
 10
442.500006
 20
420.0000059999998
 30
0.0
 11
442.500006
 21
420.1000059999998
 31
0.0
  0
ARC
  5
A3BE
330
A1B6
100
AcDbEntity
  8
1
  6
Continuous
100
AcDbCircle
 10
184.4999939999999
 20
419.9999759999998
 30
0.0
 40
1.0
100
AcDbArc
 50
180.000005
 51
270.000001
  0
LINE
  5
A3BF
330
A1B6
100
AcDbEntity
  8
1
  6
Continuous
100
AcDbLine
 10
183.4999939999999
 20
419.9999749999998
 30
0.0
 11
183.4999939999999
 21
420.099976
 31
0.0
  0
LINE
  5
A3C0
330
A1B6
100
AcDbEntity
  8
1
  6
Continuous
100
AcDbLine
 10
184.4999939999999
 20
418.999976
 30
0.0
 11
190.500006
 21
418.999976
 31
0.0
  0
LINE
  5
A3C1
330
A1B6
100
AcDbEntity
  8
1
  6
Continuous
100
AcDbLine
 10
190.500006
 20
412.999994
 30
0.0
 11
190.500006
 21
418.999976
 31
0.0
  0
ARC
  5
A3C2
330
A1B6
100
AcDbEntity
  8
1
  6
Continuous
100
AcDbCircle
 10
191.500006
 20
412.999994
 30
0.0
 40
1.0
100
AcDbArc
 50
180.000005
 51
270.000001
  0
LINE
  5
A3C3
330
A1B6
100
AcDbEntity
  8
1
  6
Continuous
100
AcDbLine
 10
191.500006
 20
411.999994
 30
0.0
 11
191.600006
 21
411.999994
 31
0.0
  0
LINE
  5
A3C4
330
A1B6
100
AcDbEntity
  8
1
  6
Continuous
100
AcDbLine
 10
184.6999909999999
 20
529.9999749999998
 30
0.0
 11
184.6999909999999
 21
530.0999759999998
 31
0.0
  0
ARC
  5
A3C5
330
A1B6
100
AcDbEntity
  8
1
  6
Continuous
100
AcDbCircle
 10
185.6999909999999
 20
529.9999759999998
 30
0.0
 40
1.0
100
AcDbArc
 50
180.000005
 51
270.000001
  0
LINE
  5
A3C6
330
A1B6
100
AcDbEntity
  8
1
  6
Continuous
100
AcDbLine
 10
185.6999909999999
 20
528.9999759999998
 30
0.0
 11
191.700003
 21
528.9999759999998
 31
0.0
  0
LINE
  5
A3C7
330
A1B6
100
AcDbEntity
  8
1
  6
Continuous
100
AcDbLine
 10
191.700003
 20
522.9999939999999
 30
0.0
 11
191.700003
 21
528.9999759999998
 31
0.0
  0
LINE
  5
A3C8
330
A1B6
100
AcDbEntity
  8
1
  6
Continuous
100
AcDbLine
 10
192.700003
 20
521.999994
 30
0.0
 11
192.8000029999998
 21
521.999994
 31
0.0
  0
ARC
  5
A3C9
330
A1B6
100
AcDbEntity
  8
1
  6
Continuous
100
AcDbCircle
 10
192.700003
 20
522.9999939999999
 30
0.0
 40
1.0
100
AcDbArc
 50
180.000005
 51
270.000001
  0
ARC
  5
A3CA
330
A1B6
100
AcDbEntity
  8
1
  6
Continuous
100
AcDbCircle
 10
166.5
 20
518.0
 30
0.0
 40
2.0
100
AcDbArc
 50
90.0
 51
180.0
  0
ARC
  5
A3CB
330
A1B6
100
AcDbEntity
  8
1
  6
Continuous
100
AcDbCircle
 10
166.5
 20
492.0
 30
0.0
 40
2.0
100
AcDbArc
 50
180.0
 51
270.0
  0
ARC
  5
A3CC
330
A1B6
100
AcDbEntity
  8
1
  6
Continuous
100
AcDbCircle
 10
166.5
 20
82.0
 30
0.0
 40
2.0
100
AcDbArc
 50
90.0
 51
180.0
  0
ARC
  5
A3CD
330
A1B6
100
AcDbEntity
  8
1
  6
Continuous
100
AcDbCircle
 10
166.5
 20
56.0
 30
0.0
 40
2.0
100
AcDbArc
 50
180.0
 51
270.0
  0
ARC
  5
A3CE
330
A1B6
100
AcDbEntity
  8
1
  6
Continuous
100
AcDbCircle
 10
167.6999969999999
 20
197.0
 30
0.0
 40
2.0
100
AcDbArc
 50
90.0
 51
180.0
  0
ARC
  5
A3CF
330
A1B6
100
AcDbEntity
  8
1
  6
Continuous
100
AcDbCircle
 10
167.6999969999999
 20
171.0
 30
0.0
 40
2.0
100
AcDbArc
 50
180.0
 51
270.0
  0
ARC
  5
A3D0
330
A1B6
100
AcDbEntity
  8
1
  6
Continuous
100
AcDbCircle
 10
458.299988
 20
171.0
 30
0.0
 40
2.0
100
AcDbArc
 50
270.0
 51
0.0
  0
ARC
  5
A3D1
330
A1B6
100
AcDbEntity
  8
1
  6
Continuous
100
AcDbCircle
 10
458.299988
 20
197.0
 30
0.0
 40
2.0
100
AcDbArc
 50
0.0
 51
90.0
  0
ARC
  5
A3D2
330
A1B6
100
AcDbEntity
  8
5
  6
PHANTOM
 48
0.2
100
AcDbCircle
 10
313.0
 20
339.0
 30
0.0
 40
15.0
100
AcDbArc
 50
180.000005
 51
0.00001
  0
LINE
  5
A3D3
330
A1B6
100
AcDbEntity
  8
4
  6
CENTER
 48
0.2
100
AcDbLine
 10
306.4999999999999
 20
332.0
 30
0.0
 11
319.5
 21
332.0
 31
0.0
  0
LINE
  5
A3D4
330
A1B6
100
AcDbEntity
  8
5
  6
PHANTOM
 48
0.2
100
AcDbLine
 10
328.0
 20
342.100006
 30
0.0
 11
298.0
 21
342.100006
 31
0.0
  0
LINE
  5
A3D5
330
A1B6
100
AcDbEntity
  8
5
  6
PHANTOM
 48
0.2
100
AcDbLine
 10
328.0
 20
360.0
 30
0.0
 11
298.0
 21
360.0
 31
0.0
  0
LINE
  5
A3D6
330
A1B6
100
AcDbEntity
  8
4
  6
CENTER
 48
0.2
100
AcDbLine
 10
327.2999879999998
 20
351.0
 30
0.0
 11
316.700012
 21
351.0
 31
0.0
  0
CIRCLE
  5
A3D7
330
A1B6
100
AcDbEntity
  8
5
  6
PHANTOM
 48
0.2
100
AcDbCircle
 10
313.0
 20
332.0
 30
0.0
 40
3.25
  0
CIRCLE
  5
A3D8
330
A1B6
100
AcDbEntity
  8
5
  6
PHANTOM
 48
0.2
100
AcDbCircle
 10
313.0
 20
332.0
 30
0.0
 40
3.0
  0
LINE
  5
A3D9
330
A1B6
100
AcDbEntity
  8
5
  6
PHANTOM
 48
0.1
100
AcDbLine
 10
312.5
 20
332.5
 30
0.0
 11
312.5
 21
334.9580379999999
 31
0.0
  0
LINE
  5
A3DA
330
A1B6
100
AcDbEntity
  8
5
  6
PHANTOM
 48
0.1
100
AcDbLine
 10
313.5
 20
332.5
 30
0.0
 11
313.5
 21
334.9580379999999
 31
0.0
  0
ARC
  5
A3DB
330
A1B6
100
AcDbEntity
  8
5
  6
PHANTOM
 48
0.2
100
AcDbCircle
 10
313.0
 20
332.0
 30
0.0
 40
8.849999999999997
100
AcDbArc
 50
232.03228
 51
307.967715
  0
LINE
  5
A3DC
330
A1B6
100
AcDbEntity
  8
5
  6
PHANTOM
 48
0.1
100
AcDbLine
 10
312.5
 20
332.5
 30
0.0
 11
310.041962
 21
332.5
 31
0.0
  0
LINE
  5
A3DD
330
A1B6
100
AcDbEntity
  8
5
  6
PHANTOM
 48
0.1
100
AcDbLine
 10
312.5
 20
331.4999999999999
 30
0.0
 11
310.041962
 21
331.4999999999999
 31
0.0
  0
LINE
  5
A3DE
330
A1B6
100
AcDbEntity
  8
5
  6
PHANTOM
 48
0.1
100
AcDbLine
 10
315.9580379999998
 20
332.5
 30
0.0
 11
313.5
 21
332.5
 31
0.0
  0
LINE
  5
A3DF
330
A1B6
100
AcDbEntity
  8
5
  6
PHANTOM
 48
0.1
100
AcDbLine
 10
315.9580379999998
 20
331.4999999999999
 30
0.0
 11
313.5
 21
331.4999999999999
 31
0.0
  0
LINE
  5
A3E0
330
A1B6
100
AcDbEntity
  8
5
  6
PHANTOM
 48
0.1
100
AcDbLine
 10
312.5
 20
329.041962
 30
0.0
 11
312.5
 21
331.4999999999999
 31
0.0
  0
LINE
  5
A3E1
330
A1B6
100
AcDbEntity
  8
5
  6
PHANTOM
 48
0.1
100
AcDbLine
 10
313.5
 20
329.041962
 30
0.0
 11
313.5
 21
331.4999999999999
 31
0.0
  0
LINE
  5
A3E2
330
A1B6
100
AcDbEntity
  8
5
  6
PHANTOM
 48
0.1
100
AcDbLine
 10
311.0
 20
359.5
 30
0.0
 11
311.0
 21
351.000024
 31
0.0
  0
LINE
  5
A3E3
330
A1B6
100
AcDbEntity
  8
5
  6
PHANTOM
 48
0.1
100
AcDbLine
 10
315.0
 20
359.5
 30
0.0
 11
315.0
 21
351.000024
 31
0.0
  0
LINE
  5
A3E4
330
A1B6
100
AcDbEntity
  8
4
  6
CENTER
 48
0.2
100
AcDbLine
 10
304.0
 20
365.0
 30
0.0
 11
304.0
 21
345.700012
 31
0.0
  0
LINE
  5
A3E5
330
A1B6
100
AcDbEntity
  8
5
  6
PHANTOM
 48
0.2
100
AcDbLine
 10
298.0
 20
360.0
 30
0.0
 11
298.0
 21
339.0
 31
0.0
  0
CIRCLE
  5
A3E6
330
A1B6
100
AcDbEntity
  8
5
  6
PHANTOM
 48
0.2
100
AcDbCircle
 10
304.0
 20
351.0
 30
0.0
 40
2.649999999999999
  0
LINE
  5
A3E7
330
A1B6
100
AcDbEntity
  8
4
  6
CENTER
 48
0.2
100
AcDbLine
 10
309.2999879999998
 20
351.0
 30
0.0
 11
298.700012
 21
351.0
 31
0.0
  0
ARC
  5
A3E8
330
A1B6
100
AcDbEntity
  8
5
  6
PHANTOM
 48
0.1
100
AcDbCircle
 10
313.0
 20
351.000024
 30
0.0
 40
2.0
100
AcDbArc
 50
179.9999909999999
 51
0.00001
  0
LINE
  5
A3E9
330
A1B6
100
AcDbEntity
  8
5
  6
PHANTOM
 48
0.1
100
AcDbLine
 10
311.0
 20
358.8999999999999
 30
0.0
 11
315.0
 21
358.8999999999999
 31
0.0
  0
ARC
  5
A3EA
330
A1B6
100
AcDbEntity
  8
5
  6
PHANTOM
 48
0.2
100
AcDbCircle
 10
315.5
 20
359.5
 30
0.0
 40
0.5
100
AcDbArc
 50
90.00000300000001
 51
180.000005
  0
ARC
  5
A3EB
330
A1B6
100
AcDbEntity
  8
5
  6
PHANTOM
 48
0.2
100
AcDbCircle
 10
310.4999999999999
 20
359.5
 30
0.0
 40
0.5
100
AcDbArc
 50
0.0
 51
90.00000300000001
  0
LINE
  5
A3EC
330
A1B6
100
AcDbEntity
  8
4
  6
CENTER
 48
0.2
100
AcDbLine
 10
322.0
 20
365.0
 30
0.0
 11
322.0
 21
345.700012
 31
0.0
  0
LINE
  5
A3ED
330
A1B6
100
AcDbEntity
  8
5
  6
PHANTOM
 48
0.2
100
AcDbLine
 10
328.0
 20
360.0
 30
0.0
 11
328.0
 21
339.0
 31
0.0
  0
CIRCLE
  5
A3EE
330
A1B6
100
AcDbEntity
  8
5
  6
PHANTOM
 48
0.2
100
AcDbCircle
 10
322.0
 20
351.0
 30
0.0
 40
2.649999999999999
  0
LINE
  5
A3EF
330
A1B6
100
AcDbEntity
  8
5
  6
PHANTOM
 48
0.2
100
AcDbLine
 10
448.5
 20
324.5
 30
0.0
 11
446.4999999999998
 21
324.5
 31
0.0
  0
LINE
  5
A3F0
330
A1B6
100
AcDbEntity
  8
5
  6
PHANTOM
 48
0.2
100
AcDbLine
 10
448.5
 20
339.5
 30
0.0
 11
446.4999999999998
 21
339.5
 31
0.0
  0
LINE
  5
A3F1
330
A1B6
100
AcDbEntity
  8
5
  6
PHANTOM
 48
0.2
100
AcDbLine
 10
461.5
 20
360.0
 30
0.0
 11
434.3999939999998
 21
360.0
 31
0.0
  0
LINE
  5
A3F2
330
A1B6
100
AcDbEntity
  8
5
  6
PHANTOM
 48
0.2
100
AcDbLine
 10
461.5
 20
357.100006
 30
0.0
 11
434.3999939999998
 21
357.100006
 31
0.0
  0
LINE
  5
A3F3
330
A1B6
100
AcDbEntity
  8
4
  6
CENTER
 48
0.2
100
AcDbLine
 10
458.4039
 20
332.0
 30
0.0
 11
425.2713929999998
 21
332.0
 31
0.0
  0
LINE
  5
A3F4
330
A1B6
100
AcDbEntity
  8
5
  6
PHANTOM
 48
0.2
100
AcDbLine
 10
434.600012
 20
324.0
 30
0.0
 11
434.600012
 21
342.100006
 31
0.0
  0
LINE
  5
A3F5
330
A1B6
100
AcDbEntity
  8
5
  6
PHANTOM
 48
0.2
100
AcDbLine
 10
433.1000119999997
 20
332.5
 30
0.0
 11
433.1000119999997
 21
335.0
 31
0.0
  0
LINE
  5
A3F6
330
A1B6
100
AcDbEntity
  8
5
  6
PHANTOM
 48
0.2
100
AcDbLine
 10
437.5000059999996
 20
324.0
 30
0.0
 11
437.5000059999998
 21
342.1
 31
0.0
  0
LINE
  5
A3F7
330
A1B6
100
AcDbEntity
  8
5
  6
PHANTOM
 48
0.2
100
AcDbLine
 10
433.8500119999998
 20
332.0
 30
0.0
 11
433.1000119999997
 21
331.4999999999999
 31
0.0
  0
LINE
  5
A3F8
330
A1B6
100
AcDbEntity
  8
5
  6
PHANTOM
 48
0.2
100
AcDbLine
 10
434.600012
 20
329.0
 30
0.0
 11
433.1000119999997
 21
329.0
 31
0.0
  0
LINE
  5
A3F9
330
A1B6
100
AcDbEntity
  8
5
  6
PHANTOM
 48
0.2
100
AcDbLine
 10
439.200012
 20
323.1499939999999
 30
0.0
 11
437.6000059999998
 21
323.1499939999999
 31
0.0
  0
LINE
  5
A3FA
330
A1B6
100
AcDbEntity
  8
5
  6
PHANTOM
 48
0.2
100
AcDbLine
 10
437.5000059999996
 20
324.0
 30
0.0
 11
434.600012
 21
324.0
 31
0.0
  0
LINE
  5
A3FB
330
A1B6
100
AcDbEntity
  8
5
  6
PHANTOM
 48
0.2
100
AcDbLine
 10
433.099982
 20
332.5
 30
0.0
 11
433.8499819999998
 21
332.0
 31
0.0
  0
LINE
  5
A3FC
330
A1B6
100
AcDbEntity
  8
5
  6
PHANTOM
 48
0.2
100
AcDbLine
 10
433.1000119999997
 20
329.0
 30
0.0
 11
433.1000119999997
 21
331.4999999999999
 31
0.0
  0
LINE
  5
A3FD
330
A1B6
100
AcDbEntity
  8
5
  6
PHANTOM
 48
0.1
100
AcDbLine
 10
435.4999939999998
 20
350.0000239999998
 30
0.0
 11
435.4999939999998
 21
356.000006
 31
0.0
  0
LINE
  5
A3FE
330
A1B6
100
AcDbEntity
  8
5
  6
PHANTOM
 48
0.2
100
AcDbLine
 10
434.3999939999998
 20
345.0
 30
0.0
 11
434.3999939999998
 21
357.100006
 31
0.0
  0
LINE
  5
A3FF
330
A1B6
100
AcDbEntity
  8
5
  6
PHANTOM
 48
0.2
100
AcDbLine
 10
431.4999999999998
 20
345.0000059999999
 30
0.0
 11
431.5
 21
357.100006
 31
0.0
  0
LINE
  5
A400
330
A1B6
100
AcDbEntity
  8
4
  6
CENTER
 48
0.2
100
AcDbLine
 10
438.75
 20
351.0
 30
0.0
 11
427.1499939999998
 21
351.0
 31
0.0
  0
LINE
  5
A401
330
A1B6
100
AcDbEntity
  8
5
  6
PHANTOM
 48
0.1
100
AcDbLine
 10
434.499994
 20
349.000024
 30
0.0
 11
434.3999939999998
 21
349.000024
 31
0.0
  0
ARC
  5
A402
330
A1B6
100
AcDbEntity
  8
5
  6
PHANTOM
 48
0.1
100
AcDbCircle
 10
434.499994
 20
350.0000239999998
 30
0.0
 40
1.0
100
AcDbArc
 50
269.999999
 51
359.999995
  0
LINE
  5
A405
330
A1B6
100
AcDbEntity
  8
5
  6
PHANTOM
 48
0.2
100
AcDbLine
 10
434.600012
 20
335.0
 30
0.0
 11
433.1000119999997
 21
335.0
 31
0.0
  0
LINE
  5
A406
330
A1B6
100
AcDbEntity
  8
5
  6
PHANTOM
 48
0.1
100
AcDbLine
 10
439.200012
 20
342.0
 30
0.0
 11
446.4999999999998
 21
342.0
 31
0.0
  0
LINE
  5
A407
330
A1B6
100
AcDbEntity
  8
5
  6
PHANTOM
 48
0.2
100
AcDbLine
 10
439.200012
 20
340.850006
 30
0.0
 11
437.6000059999998
 21
340.850006
 31
0.0
  0
LINE
  5
A408
330
A1B6
100
AcDbEntity
  8
5
  6
PHANTOM
 48
0.2
100
AcDbLine
 10
434.600012
 20
342.1000059999999
 30
0.0
 11
434.3999999999992
 21
342.1000059999999
 31
0.0
  0
LINE
  5
A409
330
A1B6
100
AcDbEntity
  8
5
  6
PHANTOM
 48
0.2
100
AcDbLine
 10
434.6000059999998
 20
345.0
 30
0.0
 11
434.3999939999998
 21
345.0
 31
0.0
  0
ARC
  5
A40A
330
A1B6
100
AcDbEntity
  8
5
  6
PHANTOM
 48
0.1
100
AcDbCircle
 10
441.5000059999998
 20
357.0000059999999
 30
0.0
 40
1.0
100
AcDbArc
 50
269.999999
 51
359.999995
  0
LINE
  5
A40B
330
A1B6
100
AcDbEntity
  8
5
  6
PHANTOM
 48
0.1
100
AcDbLine
 10
442.500006
 20
357.0000059999999
 30
0.0
 11
442.500006
 21
357.100006
 31
0.0
  0
LINE
  5
A40C
330
A1B6
100
AcDbEntity
  8
5
  6
PHANTOM
 48
0.1
100
AcDbLine
 10
441.5000059999998
 20
356.000006
 30
0.0
 11
435.4999939999998
 21
356.000006
 31
0.0
  0
ARC
  5
A40D
330
A1B6
100
AcDbEntity
  8
5
  6
PHANTOM
 48
0.2
100
AcDbCircle
 10
434.3999939999998
 20
357.100006
 30
0.0
 40
2.9
100
AcDbArc
 50
90.00000300000001
 51
180.000005
  0
LINE
  5
A40E
330
A1B6
100
AcDbEntity
  8
5
  6
PHANTOM
 48
0.2
100
AcDbLine
 10
448.5
 20
324.5
 30
0.0
 11
448.5
 21
339.5
 31
0.0
  0
LINE
  5
A40F
330
A1B6
100
AcDbEntity
  8
5
  6
PHANTOM
 48
0.2
100
AcDbLine
 10
449.5
 20
325.4999999999999
 30
0.0
 11
449.5
 21
338.5
 31
0.0
  0
LINE
  5
A410
330
A1B6
100
AcDbEntity
  8
5
  6
PHANTOM
 48
0.2
100
AcDbLine
 10
449.5
 20
325.4999999999999
 30
0.0
 11
448.500031
 21
324.5000309999998
 31
0.0
  0
LINE
  5
A411
330
A1B6
100
AcDbEntity
  8
4
  6
CENTER
 48
0.2
100
AcDbLine
 10
453.5
 20
352.7499999999998
 30
0.0
 11
453.5
 21
364.350006
 31
0.0
  0
LINE
  5
A412
330
A1B6
100
AcDbEntity
  8
5
  6
PHANTOM
 48
0.2
100
AcDbLine
 10
449.5
 20
338.5
 30
0.0
 11
448.5
 21
339.5
 31
0.0
  0
LINE
  5
A413
330
A1B6
100
AcDbEntity
  8
5
  6
PHANTOM
 48
0.2
100
AcDbLine
 10
461.5
 20
357.100006
 30
0.0
 11
461.5
 21
360.0
 31
0.0
  0
ARC
  5
A414
330
A1B6
100
AcDbEntity
  8
5
  6
PHANTOM
 48
0.2
100
AcDbCircle
 10
191.500006
 20
349.999994
 30
0.0
 40
1.0
100
AcDbArc
 50
180.000005
 51
270.000001
  0
LINE
  5
A415
330
A1B6
100
AcDbEntity
  8
5
  6
PHANTOM
 48
0.1
100
AcDbLine
 10
191.400003
 20
335.0
 30
0.0
 11
192.9000029999998
 21
335.0
 31
0.0
  0
LINE
  5
A416
330
A1B6
100
AcDbEntity
  8
5
  6
PHANTOM
 48
0.1
100
AcDbLine
 10
191.400003
 20
329.0
 30
0.0
 11
192.9000029999998
 21
329.0
 31
0.0
  0
LINE
  5
A417
330
A1B6
100
AcDbEntity
  8
4
  6
CENTER
 48
0.2
100
AcDbLine
 10
187.25
 20
351.0
 30
0.0
 11
198.8500059999998
 21
351.0
 31
0.0
  0
LINE
  5
A418
330
A1B6
100
AcDbEntity
  8
5
  6
PHANTOM
 48
0.2
100
AcDbLine
 10
164.5
 20
357.100006
 30
0.0
 11
191.600006
 21
357.100006
 31
0.0
  0
LINE
  5
A419
330
A1B6
100
AcDbEntity
  8
5
  6
PHANTOM
 48
0.2
100
AcDbLine
 10
191.400003
 20
342.100006
 30
0.0
 11
191.5999999999999
 21
342.100006
 31
0.0
  0
LINE
  5
A41A
330
A1B6
100
AcDbEntity
  8
5
  6
PHANTOM
 48
0.2
100
AcDbLine
 10
191.3999939999999
 20
345.0
 30
0.0
 11
191.600006
 21
345.0
 31
0.0
  0
LINE
  5
A41B
330
A1B6
100
AcDbEntity
  8
5
  6
PHANTOM
 48
0.2
100
AcDbLine
 10
164.5
 20
360.0
 30
0.0
 11
191.600006
 21
360.0
 31
0.0
  0
LINE
  5
A41C
330
A1B6
100
AcDbEntity
  8
4
  6
CENTER
 48
0.2
100
AcDbLine
 10
167.596115
 20
332.0
 30
0.0
 11
200.728622
 21
332.0
 31
0.0
  0
LINE
  5
A41D
330
A1B6
100
AcDbEntity
  8
5
  6
PHANTOM
 48
0.2
100
AcDbLine
 10
191.400003
 20
324.0
 30
0.0
 11
191.400003
 21
342.100006
 31
0.0
  0
LINE
  5
A41E
330
A1B6
100
AcDbEntity
  8
5
  6
PHANTOM
 48
0.2
100
AcDbLine
 10
188.4999939999999
 20
324.0
 30
0.0
 11
188.4999939999999
 21
342.1
 31
0.0
  0
LINE
  5
A41F
330
A1B6
100
AcDbEntity
  8
5
  6
PHANTOM
 48
0.2
100
AcDbLine
 10
177.5
 20
324.5
 30
0.0
 11
177.5
 21
339.5
 31
0.0
  0
LINE
  5
A420
330
A1B6
100
AcDbEntity
  8
5
  6
PHANTOM
 48
0.2
100
AcDbLine
 10
176.5
 20
325.4999999999999
 30
0.0
 11
176.5
 21
338.5
 31
0.0
  0
LINE
  5
A421
330
A1B6
100
AcDbEntity
  8
5
  6
PHANTOM
 48
0.2
100
AcDbLine
 10
188.4999939999999
 20
324.0
 30
0.0
 11
191.400003
 21
324.0
 31
0.0
  0
LINE
  5
A422
330
A1B6
100
AcDbEntity
  8
5
  6
PHANTOM
 48
0.2
100
AcDbLine
 10
186.800003
 20
323.1499939999999
 30
0.0
 11
188.3999939999999
 21
323.1499939999999
 31
0.0
  0
LINE
  5
A423
330
A1B6
100
AcDbEntity
  8
5
  6
PHANTOM
 48
0.2
100
AcDbLine
 10
176.5000149999999
 20
325.4999999999999
 30
0.0
 11
177.5
 21
324.5000309999998
 31
0.0
  0
LINE
  5
A424
330
A1B6
100
AcDbEntity
  8
5
  6
PHANTOM
 48
0.2
100
AcDbLine
 10
177.5
 20
324.5
 30
0.0
 11
179.4999999999998
 21
324.5
 31
0.0
  0
LINE
  5
A425
330
A1B6
100
AcDbEntity
  8
5
  6
PHANTOM
 48
0.2
100
AcDbLine
 10
190.500006
 20
349.999994
 30
0.0
 11
190.500006
 21
355.999976
 31
0.0
  0
LINE
  5
A426
330
A1B6
100
AcDbEntity
  8
4
  6
CENTER
 48
0.2
100
AcDbLine
 10
172.5
 20
352.7499999999998
 30
0.0
 11
172.5
 21
364.350006
 31
0.0
  0
LINE
  5
A428
330
A1B6
100
AcDbEntity
  8
5
  6
PHANTOM
 48
0.2
100
AcDbLine
 10
186.800003
 20
340.850006
 30
0.0
 11
188.3999939999999
 21
340.850006
 31
0.0
  0
LINE
  5
A429
330
A1B6
100
AcDbEntity
  8
5
  6
PHANTOM
 48
0.2
100
AcDbLine
 10
176.499985
 20
338.5
 30
0.0
 11
177.5
 21
339.5
 31
0.0
  0
LINE
  5
A42A
330
A1B6
100
AcDbEntity
  8
5
  6
PHANTOM
 48
0.2
100
AcDbLine
 10
177.5
 20
339.5
 30
0.0
 11
179.4999999999998
 21
339.5
 31
0.0
  0
LINE
  5
A42B
330
A1B6
100
AcDbEntity
  8
5
  6
PHANTOM
 48
0.1
100
AcDbLine
 10
186.800003
 20
342.0
 30
0.0
 11
179.4999999999998
 21
342.0
 31
0.0
  0
LINE
  5
A42C
330
A1B6
100
AcDbEntity
  8
5
  6
PHANTOM
 48
0.2
100
AcDbLine
 10
164.5
 20
357.100006
 30
0.0
 11
164.5
 21
360.0
 31
0.0
  0
ARC
  5
A42D
330
A1B6
100
AcDbEntity
  8
5
  6
PHANTOM
 48
0.2
100
AcDbCircle
 10
184.4999939999999
 20
356.9999759999998
 30
0.0
 40
1.0
100
AcDbArc
 50
180.000005
 51
270.000001
  0
LINE
  5
A42E
330
A1B6
100
AcDbEntity
  8
5
  6
PHANTOM
 48
0.2
100
AcDbLine
 10
183.4999939999999
 20
356.999975
 30
0.0
 11
183.4999939999999
 21
357.0999759999998
 31
0.0
  0
LINE
  5
A42F
330
A1B6
100
AcDbEntity
  8
5
  6
PHANTOM
 48
0.2
100
AcDbLine
 10
184.4999939999999
 20
355.999976
 30
0.0
 11
190.500006
 21
355.999976
 31
0.0
  0
LINE
  5
A430
330
A1B6
100
AcDbEntity
  8
5
  6
PHANTOM
 48
0.1
100
AcDbLine
 10
192.9000029999998
 20
332.5
 30
0.0
 11
192.9000029999998
 21
335.0
 31
0.0
  0
LINE
  5
A431
330
A1B6
100
AcDbEntity
  8
5
  6
PHANTOM
 48
0.1
100
AcDbLine
 10
192.1499879999999
 20
332.0
 30
0.0
 11
192.8999879999999
 21
331.4999999999999
 31
0.0
  0
LINE
  5
A432
330
A1B6
100
AcDbEntity
  8
5
  6
PHANTOM
 48
0.1
100
AcDbLine
 10
192.9000029999998
 20
332.5
 30
0.0
 11
192.1499879999999
 21
332.0
 31
0.0
  0
LINE
  5
A433
330
A1B6
100
AcDbEntity
  8
5
  6
PHANTOM
 48
0.1
100
AcDbLine
 10
192.9000029999998
 20
329.0
 30
0.0
 11
192.9000029999998
 21
331.4999999999999
 31
0.0
  0
LINE
  5
A434
330
A1B6
100
AcDbEntity
  8
5
  6
PHANTOM
 48
0.2
100
AcDbLine
 10
191.600006
 20
345.0
 30
0.0
 11
191.600006
 21
357.100006
 31
0.0
  0
LINE
  5
A435
330
A1B6
100
AcDbEntity
  8
5
  6
PHANTOM
 48
0.2
100
AcDbLine
 10
194.4999999999999
 20
345.0000059999999
 30
0.0
 11
194.5
 21
357.100006
 31
0.0
  0
LINE
  5
A436
330
A1B6
100
AcDbEntity
  8
5
  6
PHANTOM
 48
0.2
100
AcDbLine
 10
191.500006
 20
348.999994
 30
0.0
 11
191.600006
 21
348.999994
 31
0.0
  0
ARC
  5
A438
330
A1B6
100
AcDbEntity
  8
5
  6
PHANTOM
 48
0.2
100
AcDbCircle
 10
191.600006
 20
357.100006
 30
0.0
 40
2.9
100
AcDbArc
 50
0.0
 51
90.00000300000001
  0
CIRCLE
  5
A439
330
A1B6
100
AcDbEntity
  8
5
  6
PHANTOM
 48
0.2
100
AcDbCircle
 10
62.0
 20
351.0
 30
0.0
 40
2.649999999999999
  0
ARC
  5
A43A
330
A1B6
100
AcDbEntity
  8
5
  6
PHANTOM
 48
0.2
100
AcDbCircle
 10
53.0
 20
339.0
 30
0.0
 40
15.0
100
AcDbArc
 50
309.2964799999998
 51
0.0
  0
LINE
  5
A43B
330
A1B6
100
AcDbEntity
  8
4
  6
CENTER
 48
0.2
100
AcDbLine
 10
38.0
 20
332.0
 30
0.0
 11
68.0
 21
332.0
 31
0.0
  0
LINE
  5
A43C
330
A1B6
100
AcDbEntity
  8
4
  6
CENTER
 48
0.2
100
AcDbLine
 10
56.700001
 20
351.0
 30
0.0
 11
67.300003
 21
351.0
 31
0.0
  0
LINE
  5
A43D
330
A1B6
100
AcDbEntity
  8
5
  6
PHANTOM
 48
0.2
100
AcDbLine
 10
38.0
 20
345.0
 30
0.0
 11
68.0
 21
345.0
 31
0.0
  0
LINE
  5
A43E
330
A1B6
100
AcDbEntity
  8
5
  6
PHANTOM
 48
0.2
100
AcDbLine
 10
38.0
 20
357.100006
 30
0.0
 11
68.0
 21
357.100006
 31
0.0
  0
LINE
  5
A43F
330
A1B6
100
AcDbEntity
  8
5
  6
PHANTOM
 48
0.2
100
AcDbLine
 10
38.0
 20
360.0
 30
0.0
 11
68.0
 21
360.0
 31
0.0
  0
CIRCLE
  5
A440
330
A1B6
100
AcDbEntity
  8
5
  6
PHANTOM
 48
0.2
100
AcDbCircle
 10
53.0
 20
332.0
 30
0.0
 40
7.5
  0
CIRCLE
  5
A441
330
A1B6
100
AcDbEntity
  8
5
  6
PHANTOM
 48
0.2
100
AcDbCircle
 10
53.0
 20
332.0
 30
0.0
 40
6.5
  0
ARC
  5
A442
330
A1B6
100
AcDbEntity
  8
5
  6
PHANTOM
 48
0.2
100
AcDbCircle
 10
53.0
 20
339.0
 30
0.0
 40
15.0
100
AcDbArc
 50
180.000005
 51
230.703518
  0
LINE
  5
A443
330
A1B6
100
AcDbEntity
  8
5
  6
PHANTOM
 48
0.1
100
AcDbLine
 10
56.0
 20
352.0000239999998
 30
0.0
 11
56.0
 21
357.0999759999998
 31
0.0
  0
LINE
  5
A444
330
A1B6
100
AcDbEntity
  8
5
  6
PHANTOM
 48
0.1
100
AcDbLine
 10
50.0
 20
352.0000239999998
 30
0.0
 11
50.0
 21
357.0999759999998
 31
0.0
  0
LINE
  5
A445
330
A1B6
100
AcDbEntity
  8
4
  6
CENTER
 48
0.2
100
AcDbLine
 10
44.0
 20
345.700012
 30
0.0
 11
44.0
 21
365.0
 31
0.0
  0
LINE
  5
A446
330
A1B6
100
AcDbEntity
  8
4
  6
CENTER
 48
0.2
100
AcDbLine
 10
62.0
 20
345.700012
 30
0.0
 11
62.0
 21
365.0
 31
0.0
  0
LINE
  5
A447
330
A1B6
100
AcDbEntity
  8
5
  6
PHANTOM
 48
0.2
100
AcDbLine
 10
38.0
 20
339.0
 30
0.0
 11
38.0
 21
360.0
 31
0.0
  0
LINE
  5
A448
330
A1B6
100
AcDbEntity
  8
4
  6
CENTER
 48
0.2
100
AcDbLine
 10
38.700001
 20
351.0
 30
0.0
 11
49.299999
 21
351.0
 31
0.0
  0
LINE
  5
A449
330
A1B6
100
AcDbEntity
  8
5
  6
PHANTOM
 48
0.2
100
AcDbLine
 10
43.5
 20
342.0
 30
0.0
 11
62.5
 21
342.0
 31
0.0
  0
CIRCLE
  5
A44A
330
A1B6
100
AcDbEntity
  8
5
  6
PHANTOM
 48
0.2
100
AcDbCircle
 10
44.0
 20
351.0
 30
0.0
 40
2.649999999999999
  0
ARC
  5
A44B
330
A1B6
100
AcDbEntity
  8
5
  6
PHANTOM
 48
0.1
100
AcDbCircle
 10
53.0
 20
352.0000239999998
 30
0.0
 40
3.0
100
AcDbArc
 50
179.9999909999999
 51
0.00001
  0
LINE
  5
A44C
330
A1B6
100
AcDbEntity
  8
5
  6
PHANTOM
 48
0.1
100
AcDbLine
 10
55.0
 20
355.999976
 30
0.0
 11
51.0
 21
355.999976
 31
0.0
  0
ARC
  5
A44D
330
A1B6
100
AcDbEntity
  8
5
  6
PHANTOM
 48
0.1
100
AcDbCircle
 10
55.0
 20
356.9999759999998
 30
0.0
 40
1.0
100
AcDbArc
 50
269.9999969999999
 51
0.0
  0
ARC
  5
A44E
330
A1B6
100
AcDbEntity
  8
5
  6
PHANTOM
 48
0.1
100
AcDbCircle
 10
51.0
 20
356.9999759999998
 30
0.0
 40
1.0
100
AcDbArc
 50
179.9999909999999
 51
270.000001
  0
LINE
  5
A44F
330
A1B6
100
AcDbEntity
  8
5
  6
PHANTOM
 48
0.2
100
AcDbLine
 10
68.0
 20
339.0
 30
0.0
 11
68.0
 21
360.0
 31
0.0
  0
LINE
  5
A46E
330
A1B6
100
AcDbEntity
  8
1
  6
Continuous
100
AcDbLine
 10
189.600006
 20
192.850006
 30
0.0
 11
189.600006
 21
175.1499939999999
 31
0.0
  0
LINE
  5
A46F
330
A1B6
100
AcDbEntity
  8
1
  6
Continuous
100
AcDbLine
 10
189.700006
 20
77.0
 30
0.0
 11
189.700006
 21
58.900002
 31
0.0
  0
LINE
  5
A50F
330
A1B6
100
AcDbEntity
  8
1
  6
Continuous
100
AcDbLine
 10
188.4999939999999
 20
387.0
 30
0.0
 11
188.4999939999999
 21
405.1
 31
0.0
  0
ARC
  5
A510
330
A1B6
100
AcDbEntity
  8
1
  6
Continuous
100
AcDbCircle
 10
191.3999939999999
 20
405.1
 30
0.0
 40
2.9
100
AcDbArc
 50
90.0
 51
180.0
  0
ARC
  5
A511
330
A1B6
100
AcDbEntity
  8
1
  6
Continuous
100
AcDbCircle
 10
191.6
 20
408.0000059999997
 30
0.0
 40
2.9
100
AcDbArc
 50
270.0
 51
0.0
  0
LINE
  5
A512
330
A1B6
100
AcDbEntity
  8
5
  6
PHANTOM
 48
0.2
100
AcDbLine
 10
188.3999939999999
 20
323.1499939999999
 30
0.0
 11
188.3999939999999
 21
340.850006
 31
0.0
  0
ARC
  5
A513
330
A1B6
100
AcDbEntity
  8
5
  6
PHANTOM
 48
0.2
100
AcDbCircle
 10
191.3999939999999
 20
342.1
 30
0.0
 40
2.9
100
AcDbArc
 50
90.0
 51
180.0
  0
ARC
  5
A514
330
A1B6
100
AcDbEntity
  8
5
  6
PHANTOM
 48
0.2
100
AcDbCircle
 10
191.5999999999999
 20
345.0000059999999
 30
0.0
 40
2.9
100
AcDbArc
 50
270.0
 51
0.0
  0
LINE
  5
A638
330
A1B6
100
AcDbEntity
  8
1
  6
Continuous
100
AcDbLine
 10
437.6000059999998
 20
386.1499939999998
 30
0.0
 11
437.6000059999998
 21
403.850006
 31
0.0
  0
ARC
  5
A639
330
A1B6
100
AcDbEntity
  8
1
  6
Continuous
100
AcDbCircle
 10
434.3999999999998
 20
408.0000059999997
 30
0.0
 40
2.9
100
AcDbArc
 50
180.0
 51
270.0
  0
ARC
  5
A63A
330
A1B6
100
AcDbEntity
  8
1
  6
Continuous
100
AcDbCircle
 10
434.6000059999997
 20
405.1
 30
0.0
 40
2.9
100
AcDbArc
 50
0.0
 51
90.0
  0
LINE
  5
A64A
330
A1B6
100
AcDbEntity
  8
5
  6
PHANTOM
 48
0.2
100
AcDbLine
 10
437.6000059999998
 20
323.1499939999999
 30
0.0
 11
437.6000059999998
 21
340.8500059999999
 31
0.0
  0
ARC
  5
A64B
330
A1B6
100
AcDbEntity
  8
5
  6
PHANTOM
 48
0.2
100
AcDbCircle
 10
434.3999999999998
 20
345.0000059999999
 30
0.0
 40
2.9
100
AcDbArc
 50
180.0
 51
269.9999999999837
  0
ARC
  5
A64C
330
A1B6
100
AcDbEntity
  8
5
  6
PHANTOM
 48
0.2
100
AcDbCircle
 10
434.6000059999998
 20
342.1
 30
0.0
 40
2.9
100
AcDbArc
 50
0.0
 51
90.0
  0
ENDSEC
  0
SECTION
  2
OBJECTS
  0
DICTIONARY
  5
A1A4
330
0
100
AcDbDictionary
281
     1
  3
ACAD_CIP_PREVIOUS_PRODUCT_INFO
350
A74F
  3
ACAD_COLOR
350
A731
  3
ACAD_DETAILVIEWSTYLE
350
A74A
  3
ACAD_GROUP
350
A1A5
  3
ACAD_LAYOUT
350
A1B1
  3
ACAD_MATERIAL
350
A6FF
  3
ACAD_MLEADERSTYLE
350
A746
  3
ACAD_MLINESTYLE
350
A1AE
  3
ACAD_PLOTSETTINGS
350
A1B0
  3
ACAD_PLOTSTYLENAME
350
A6FD
  3
ACAD_SCALELIST
350
A734
  3
ACAD_SECTIONVIEWSTYLE
350
A748
  3
ACAD_TABLESTYLE
350
A732
  3
ACAD_VISUALSTYLE
350
A718
  3
ACDB_RECOMPOSE_DATA
350
A76D
  3
AcDbVariableDictionary
350
A760
  3
DWGPROPS
350
A76E
  0
DICTIONARY
  5
A750
330
A1A8
100
AcDbDictionary
280
     1
281
     1
  3
ADSK_XREC_LAYER_RECONCILED
360
A751
  0
DICTIONARY
  5
A752
330
A1BE
100
AcDbDictionary
280
     1
281
     1
  3
ADSK_XREC_LAYER_RECONCILED
360
A753
  0
DICTIONARY
  5
A754
330
A1BF
100
AcDbDictionary
280
     1
281
     1
  3
ADSK_XREC_LAYER_RECONCILED
360
A755
  0
DICTIONARY
  5
A756
330
A1C0
100
AcDbDictionary
280
     1
281
     1
  3
ADSK_XREC_LAYER_RECONCILED
360
A757
  0
DICTIONARY
  5
A758
330
A1C1
100
AcDbDictionary
280
     1
281
     1
  3
ADSK_XREC_LAYER_RECONCILED
360
A759
  0
DICTIONARY
  5
A75A
330
A1C2
100
AcDbDictionary
280
     1
281
     1
  3
ADSK_XREC_LAYER_RECONCILED
360
A75B
  0
DICTIONARY
  5
A75C
330
A1C3
100
AcDbDictionary
280
     1
281
     1
  3
ADSK_XREC_LAYER_RECONCILED
360
A75D
  0
DICTIONARY
  5
A75E
330
A1C4
100
AcDbDictionary
280
     1
281
     1
  3
ADSK_XREC_LAYER_RECONCILED
360
A75F
  0
DICTIONARY
  5
A45E
330
A1B6
100
AcDbDictionary
281
     1
  3
ACAD_LAYOUTSELFREF
350
A6F9
  0
DICTIONARY
  5
A45C
330
A1B2
100
AcDbDictionary
281
     1
  3
ACAD_LAYOUTSELFREF
350
A6F8
  0
XRECORD
  5
A74F
102
{ACAD_REACTORS
330
A1A4
102
}
330
A1A4
100
AcDbXrecord
280
     1
300
ACDLT
300
2014
300
ACDLT_F_S
  0
DICTIONARY
  5
A731
102
{ACAD_REACTORS
330
A1A4
102
}
330
A1A4
100
AcDbDictionary
281
     1
  0
DICTIONARY
  5
A74A
102
{ACAD_REACTORS
330
A1A4
102
}
330
A1A4
100
AcDbDictionary
281
     1
  3
Imperial24
350
A74B
  0
DICTIONARY
  5
A1A5
102
{ACAD_REACTORS
330
A1A4
102
}
330
A1A4
100
AcDbDictionary
281
     1
  0
DICTIONARY
  5
A1B1
102
{ACAD_REACTORS
330
A1A4
102
}
330
A1A4
100
AcDbDictionary
281
     1
  3
Model
350
A74C
  3
レイアウト1
350
A74D
  0
DICTIONARY
  5
A6FF
102
{ACAD_REACTORS
330
A1A4
102
}
330
A1A4
100
AcDbDictionary
281
     1
  3
ByBlock
350
A708
  3
ByLayer
350
A700
  3
Global
350
A710
  0
DICTIONARY
  5
A746
102
{ACAD_REACTORS
330
A1A4
102
}
330
A1A4
100
AcDbDictionary
281
     1
  3
Standard
350
A747
  0
DICTIONARY
  5
A1AE
102
{ACAD_REACTORS
330
A1A4
102
}
330
A1A4
100
AcDbDictionary
281
     1
  3
STANDARD
350
A1AF
  0
DICTIONARY
  5
A1B0
102
{ACAD_REACTORS
330
A1A4
102
}
330
A1A4
100
AcDbDictionary
281
     1
  0
ACDBDICTIONARYWDFLT
  5
A6FD
102
{ACAD_REACTORS
330
A1A4
102
}
330
A1A4
100
AcDbDictionary
281
     1
  3
Normal
350
A6FE
100
AcDbDictionaryWithDefault
340
A6FE
  0
DICTIONARY
  5
A734
102
{ACAD_REACTORS
330
A1A4
102
}
330
A1A4
100
AcDbDictionary
281
     1
  3
A0
350
A735
  3
A1
350
A736
  3
A2
350
A737
  3
A3
350
A738
  3
A4
350
A739
  3
A5
350
A73A
  3
A6
350
A73B
  3
A7
350
A73C
  3
A8
350
A73D
  3
A9
350
A73E
  3
B0
350
A73F
  3
B1
350
A740
  3
B2
350
A741
  3
B3
350
A742
  3
B4
350
A743
  3
B5
350
A744
  3
B6
350
A745
  0
DICTIONARY
  5
A748
102
{ACAD_REACTORS
330
A1A4
102
}
330
A1A4
100
AcDbDictionary
281
     1
  3
Imperial24
350
A749
  0
DICTIONARY
  5
A732
102
{ACAD_REACTORS
330
A1A4
102
}
330
A1A4
100
AcDbDictionary
281
     1
  3
Standard
350
A733
  0
DICTIONARY
  5
A718
102
{ACAD_REACTORS
330
A1A4
102
}
330
A1A4
100
AcDbDictionary
281
     1
  3
2dWireframe
350
A71E
  3
Basic
350
A71D
  3
Brighten
350
A724
  3
ColorChange
350
A728
  3
Conceptual
350
A721
  3
Dim
350
A723
  3
EdgeColorOff
350
A730
  3
Facepattern
350
A727
  3
Flat
350
A719
  3
FlatWithEdges
350
A71A
  3
Gouraud
350
A71B
  3
GouraudWithEdges
350
A71C
  3
Hidden
350
A720
  3
JitterOff
350
A72E
  3
Linepattern
350
A726
  3
OverhangOff
350
A72F
  3
Realistic
350
A722
  3
Shaded
350
A72D
  3
Shaded with edges
350
A72C
  3
Shades of Gray
350
A729
  3
Sketchy
350
A72A
  3
Thicken
350
A725
  3
Wireframe
350
A71F
  3
X-Ray
350
A72B
  0
XRECORD
  5
A76D
102
{ACAD_REACTORS
330
A1A4
102
}
330
A1A4
100
AcDbXrecord
280
     1
 90
        1
330
A733
  0
DICTIONARY
  5
A760
102
{ACAD_REACTORS
330
A1A4
102
}
330
A1A4
100
AcDbDictionary
281
     1
  3
CANNOSCALE
350
A765
  3
CMLEADERSTYLE
350
A762
  3
CTABLESTYLE
350
A761
  3
CVIEWDETAILSTYLE
350
A763
  3
CVIEWSECTIONSTYLE
350
A764
  3
DIMASSOC
350
A768
  3
INDEXCTL
350
A767
  3
SORTENTS
350
A766
  3
XCLIPFRAME
350
A769
  0
XRECORD
  5
A76E
102
{ACAD_REACTORS
330
A1A4
102
}
330
A1A4
100
AcDbXrecord
280
     1
  1
DWGPROPS COOKIE
  2

  3

  4

  6

  7

  8
Yoshitsune
  9

300
=
301
=
302
=
303
=
304
=
305
=
306
=
307
=
308
=
309
=
 40
0.0514048148148148
 41
2451065.507098264
 42
2457192.622741898
  1

 90
        0
  0
XRECORD
  5
A751
102
{ACAD_REACTORS
330
A750
102
}
330
A750
100
AcDbXrecord
280
     1
290
     1
  0
XRECORD
  5
A753
102
{ACAD_REACTORS
330
A752
102
}
330
A752
100
AcDbXrecord
280
     1
290
     1
  0
XRECORD
  5
A755
102
{ACAD_REACTORS
330
A754
102
}
330
A754
100
AcDbXrecord
280
     1
290
     1
  0
XRECORD
  5
A757
102
{ACAD_REACTORS
330
A756
102
}
330
A756
100
AcDbXrecord
280
     1
290
     1
  0
XRECORD
  5
A759
102
{ACAD_REACTORS
330
A758
102
}
330
A758
100
AcDbXrecord
280
     1
290
     1
  0
XRECORD
  5
A75B
102
{ACAD_REACTORS
330
A75A
102
}
330
A75A
100
AcDbXrecord
280
     1
290
     1
  0
XRECORD
  5
A75D
102
{ACAD_REACTORS
330
A75C
102
}
330
A75C
100
AcDbXrecord
280
     1
290
     1
  0
XRECORD
  5
A75F
102
{ACAD_REACTORS
330
A75E
102
}
330
A75E
100
AcDbXrecord
280
     1
290
     1
  0
XRECORD
  5
A6F9
102
{ACAD_REACTORS
330
A45E
102
}
330
A45E
100
AcDbXrecord
280
     1
340
A1B6
  0
XRECORD
  5
A6F8
102
{ACAD_REACTORS
330
A45C
102
}
330
A45C
100
AcDbXrecord
280
     1
340
A1B2
  0
ACDBDETAILVIEWSTYLE
  5
A74B
102
{ACAD_XDICTIONARY
360
A7A6
102
}
102
{ACAD_REACTORS
330
A74A
102
}
330
A74A
100
AcDbModelDocViewStyle
 70
     0
  3
Imperial24
290
     0
100
AcDbDetailViewStyle
 70
     0
 71
     0
 90
        3
 71
     1
340
A1A9
 40
0.24
340
0
 40
0.24
300

 40
0.36
280
     3
 71
     2
340
A1AD
 90
       25
 71
     3
340
A1A9
 40
0.24
 90
        1
 40
0.75
 90
        1
300
%<\AcVar ViewType \f "%tc1">% %<\AcVar ViewDetailId>%\PSCALE %<\AcVar ViewScale \f "%sn">%
 71
     4
340
A1AD
 90
       25
340
A1AD
 90
       25
280
     0
  0
LAYOUT
  5
A74C
102
{ACAD_XDICTIONARY
360
A7A8
102
}
102
{ACAD_REACTORS
330
A1B1
102
}
330
A1B1
100
AcDbPlotSettings
  1

  2
Canon LBP9100C
  4

  6

 40
0.0
 41
0.0
 42
0.0
 43
0.0
 44
0.0
 45
0.0
 46
0.0
 47
0.0
 48
0.0
 49
0.0
140
0.0
141
0.0
142
1.0
143
1.0
 70
  1712
 72
     0
 73
     0
 74
     0
  7

 75
     0
147
1.0
148
0.0
149
0.0
100
AcDbLayout
  1
Model
 70
     1
 71
     0
 10
0.0
 20
0.0
 11
12.0
 21
9.0
 12
0.0
 22
0.0
 32
0.0
 14
0.0
 24
0.0
 34
0.0
 15
0.0
 25
0.0
 35
0.0
146
0.0
 13
0.0
 23
0.0
 33
0.0
 16
1.0
 26
0.0
 36
0.0
 17
0.0
 27
1.0
 37
0.0
 76
     0
330
A1B6
331
A6F7
  0
LAYOUT
  5
A74D
102
{ACAD_XDICTIONARY
360
A7AA
102
}
102
{ACAD_REACTORS
330
A1B1
102
}
330
A1B1
100
AcDbPlotSettings
  1

  2
Canon LBP9100C
  4

  6

 40
0.0
 41
0.0
 42
0.0
 43
0.0
 44
0.0
 45
0.0
 46
0.0
 47
0.0
 48
0.0
 49
0.0
140
0.0
141
0.0
142
1.0
143
1.0
 70
   688
 72
     0
 73
     0
 74
     5
  7

 75
    16
147
1.0
148
0.0
149
0.0
100
AcDbLayout
  1
レイアウト1
 70
     0
 71
     1
 10
0.0
 20
0.0
 11
420.0
 21
297.0
 12
0.0
 22
0.0
 32
0.0
 14
1.000000000000000E+20
 24
1.000000000000000E+20
 34
1.000000000000000E+20
 15
-1.000000000000000E+20
 25
-1.000000000000000E+20
 35
-1.000000000000000E+20
146
0.0
 13
0.0
 23
0.0
 33
0.0
 16
1.0
 26
0.0
 36
0.0
 17
0.0
 27
1.0
 37
0.0
 76
     0
330
A1B2
  0
MATERIAL
  5
A708
102
{ACAD_XDICTIONARY
360
A709
102
}
102
{ACAD_REACTORS
330
A6FF
102
}
330
A6FF
100
AcDbMaterial
  1
ByBlock
 72
     0
 43
0.0208333333333333
 43
0.0
 43
0.0
 43
0.0
 43
0.0
 43
0.0208333333333333
 43
0.0
 43
0.0
 43
0.0
 43
0.0
 43
1.0
 43
0.0
 43
0.0
 43
0.0
 43
0.0
 43
1.0
 77
     0
 47
0.0208333333333333
 47
0.0
 47
0.0
 47
0.0
 47
0.0
 47
0.0208333333333333
 47
0.0
 47
0.0
 47
0.0
 47
0.0
 47
1.0
 47
0.0
 47
0.0
 47
0.0
 47
0.0
 47
1.0
171
     0
 49
0.0208333333333333
 49
0.0
 49
0.0
 49
0.0
 49
0.0
 49
0.0208333333333333
 49
0.0
 49
0.0
 49
0.0
 49
0.0
 49
1.0
 49
0.0
 49
0.0
 49
0.0
 49
0.0
 49
1.0
175
     0
142
0.0208333333333333
142
0.0
142
0.0
142
0.0
142
0.0
142
0.0208333333333333
142
0.0
142
0.0
142
0.0
142
0.0
142
1.0
142
0.0
142
0.0
142
0.0
142
0.0
142
1.0
179
     0
144
0.0208333333333333
144
0.0
144
0.0
144
0.0
144
0.0
144
0.0208333333333333
144
0.0
144
0.0
144
0.0
144
0.0
144
1.0
144
0.0
144
0.0
144
0.0
144
0.0
144
1.0
147
0.0208333333333333
147
0.0
147
0.0
147
0.0
147
0.0
147
0.0208333333333333
147
0.0
147
0.0
147
0.0
147
0.0
147
1.0
147
0.0
147
0.0
147
0.0
147
0.0
147
1.0
  0
MATERIAL
  5
A700
102
{ACAD_XDICTIONARY
360
A701
102
}
102
{ACAD_REACTORS
330
A6FF
102
}
330
A6FF
100
AcDbMaterial
  1
ByLayer
 72
     0
 43
0.0208333333333333
 43
0.0
 43
0.0
 43
0.0
 43
0.0
 43
0.0208333333333333
 43
0.0
 43
0.0
 43
0.0
 43
0.0
 43
1.0
 43
0.0
 43
0.0
 43
0.0
 43
0.0
 43
1.0
 77
     0
 47
0.0208333333333333
 47
0.0
 47
0.0
 47
0.0
 47
0.0
 47
0.0208333333333333
 47
0.0
 47
0.0
 47
0.0
 47
0.0
 47
1.0
 47
0.0
 47
0.0
 47
0.0
 47
0.0
 47
1.0
171
     0
 49
0.0208333333333333
 49
0.0
 49
0.0
 49
0.0
 49
0.0
 49
0.0208333333333333
 49
0.0
 49
0.0
 49
0.0
 49
0.0
 49
1.0
 49
0.0
 49
0.0
 49
0.0
 49
0.0
 49
1.0
175
     0
142
0.0208333333333333
142
0.0
142
0.0
142
0.0
142
0.0
142
0.0208333333333333
142
0.0
142
0.0
142
0.0
142
0.0
142
1.0
142
0.0
142
0.0
142
0.0
142
0.0
142
1.0
179
     0
144
0.0208333333333333
144
0.0
144
0.0
144
0.0
144
0.0
144
0.0208333333333333
144
0.0
144
0.0
144
0.0
144
0.0
144
1.0
144
0.0
144
0.0
144
0.0
144
0.0
144
1.0
147
0.0208333333333333
147
0.0
147
0.0
147
0.0
147
0.0
147
0.0208333333333333
147
0.0
147
0.0
147
0.0
147
0.0
147
1.0
147
0.0
147
0.0
147
0.0
147
0.0
147
1.0
  0
MATERIAL
  5
A710
102
{ACAD_XDICTIONARY
360
A711
102
}
102
{ACAD_REACTORS
330
A6FF
102
}
330
A6FF
100
AcDbMaterial
  1
Global
 72
     0
 43
0.0208333333333333
 43
0.0
 43
0.0
 43
0.0
 43
0.0
 43
0.0208333333333333
 43
0.0
 43
0.0
 43
0.0
 43
0.0
 43
1.0
 43
0.0
 43
0.0
 43
0.0
 43
0.0
 43
1.0
 77
     0
 47
0.0208333333333333
 47
0.0
 47
0.0
 47
0.0
 47
0.0
 47
0.0208333333333333
 47
0.0
 47
0.0
 47
0.0
 47
0.0
 47
1.0
 47
0.0
 47
0.0
 47
0.0
 47
0.0
 47
1.0
171
     0
 49
0.0208333333333333
 49
0.0
 49
0.0
 49
0.0
 49
0.0
 49
0.0208333333333333
 49
0.0
 49
0.0
 49
0.0
 49
0.0
 49
1.0
 49
0.0
 49
0.0
 49
0.0
 49
0.0
 49
1.0
175
     0
142
0.0208333333333333
142
0.0
142
0.0
142
0.0
142
0.0
142
0.0208333333333333
142
0.0
142
0.0
142
0.0
142
0.0
142
1.0
142
0.0
142
0.0
142
0.0
142
0.0
142
1.0
179
     0
144
0.0208333333333333
144
0.0
144
0.0
144
0.0
144
0.0
144
0.0208333333333333
144
0.0
144
0.0
144
0.0
144
0.0
144
1.0
144
0.0
144
0.0
144
0.0
144
0.0
144
1.0
147
0.0208333333333333
147
0.0
147
0.0
147
0.0
147
0.0
147
0.0208333333333333
147
0.0
147
0.0
147
0.0
147
0.0
147
1.0
147
0.0
147
0.0
147
0.0
147
0.0
147
1.0
  0
MLEADERSTYLE
  5
A747
102
{ACAD_REACTORS
330
A746
102
}
330
A746
100
AcDbMLeaderStyle
170
     2
171
     1
172
     0
 90
        2
 40
0.0
 41
0.0
173
     1
 91
-1056964608
340
A1AB
 92
       -2
290
     1
 42
0.09
291
     1
 43
0.36
  3
Standard
 44
0.18
300

342
A1A9
174
     1
178
     6
175
     1
176
     0
 93
-1056964608
 45
0.18
292
     0
297
     0
 46
0.18
 94
-1056964608
 47
1.0
 49
1.0
140
1.0
293
     1
141
0.0
294
     1
177
     0
142
1.0
295
     0
296
     0
143
0.125
1001
ACAD_MLEADERVER
1070
     2
  0
MLINESTYLE
  5
A1AF
102
{ACAD_REACTORS
330
A1AE
102
}
330
A1AE
100
AcDbMlineStyle
  2
STANDARD
 70
     0
  3

 62
   256
 51
90.0
 52
90.0
 71
     2
 49
0.5
 62
   256
  6
BYLAYER
 49
-0.5
 62
   256
  6
BYLAYER
  0
ACDBPLACEHOLDER
  5
A6FE
102
{ACAD_REACTORS
330
A6FD
102
}
330
A6FD
  0
SCALE
  5
A735
102
{ACAD_REACTORS
330
A734
102
}
330
A734
100
AcDbScale
 70
     0
300
1:1
140
1.0
141
1.0
290
     1
  0
SCALE
  5
A736
102
{ACAD_REACTORS
330
A734
102
}
330
A734
100
AcDbScale
 70
     0
300
1/128" = 1'-0"
140
0.0078125
141
12.0
290
     0
  0
SCALE
  5
A737
102
{ACAD_REACTORS
330
A734
102
}
330
A734
100
AcDbScale
 70
     0
300
1/64" = 1'-0"
140
0.015625
141
12.0
290
     0
  0
SCALE
  5
A738
102
{ACAD_REACTORS
330
A734
102
}
330
A734
100
AcDbScale
 70
     0
300
1/32" = 1'-0"
140
0.03125
141
12.0
290
     0
  0
SCALE
  5
A739
102
{ACAD_REACTORS
330
A734
102
}
330
A734
100
AcDbScale
 70
     0
300
1/16" = 1'-0"
140
0.0625
141
12.0
290
     0
  0
SCALE
  5
A73A
102
{ACAD_REACTORS
330
A734
102
}
330
A734
100
AcDbScale
 70
     0
300
3/32" = 1'-0"
140
0.09375
141
12.0
290
     0
  0
SCALE
  5
A73B
102
{ACAD_REACTORS
330
A734
102
}
330
A734
100
AcDbScale
 70
     0
300
1/8" = 1'-0"
140
0.125
141
12.0
290
     0
  0
SCALE
  5
A73C
102
{ACAD_REACTORS
330
A734
102
}
330
A734
100
AcDbScale
 70
     0
300
3/16" = 1'-0"
140
0.1875
141
12.0
290
     0
  0
SCALE
  5
A73D
102
{ACAD_REACTORS
330
A734
102
}
330
A734
100
AcDbScale
 70
     0
300
1/4" = 1'-0"
140
0.25
141
12.0
290
     0
  0
SCALE
  5
A73E
102
{ACAD_REACTORS
330
A734
102
}
330
A734
100
AcDbScale
 70
     0
300
3/8" = 1'-0"
140
0.375
141
12.0
290
     0
  0
SCALE
  5
A73F
102
{ACAD_REACTORS
330
A734
102
}
330
A734
100
AcDbScale
 70
     0
300
1/2" = 1'-0"
140
0.5
141
12.0
290
     0
  0
SCALE
  5
A740
102
{ACAD_REACTORS
330
A734
102
}
330
A734
100
AcDbScale
 70
     0
300
3/4" = 1'-0"
140
0.75
141
12.0
290
     0
  0
SCALE
  5
A741
102
{ACAD_REACTORS
330
A734
102
}
330
A734
100
AcDbScale
 70
     0
300
1" = 1'-0"
140
1.0
141
12.0
290
     0
  0
SCALE
  5
A742
102
{ACAD_REACTORS
330
A734
102
}
330
A734
100
AcDbScale
 70
     0
300
1-1/2" = 1'-0"
140
1.5
141
12.0
290
     0
  0
SCALE
  5
A743
102
{ACAD_REACTORS
330
A734
102
}
330
A734
100
AcDbScale
 70
     0
300
3" = 1'-0"
140
3.0
141
12.0
290
     0
  0
SCALE
  5
A744
102
{ACAD_REACTORS
330
A734
102
}
330
A734
100
AcDbScale
 70
     0
300
6" = 1'-0"
140
6.0
141
12.0
290
     0
  0
SCALE
  5
A745
102
{ACAD_REACTORS
330
A734
102
}
330
A734
100
AcDbScale
 70
     0
300
1'-0" = 1'-0"
140
12.0
141
12.0
290
     0
  0
ACDBSECTIONVIEWSTYLE
  5
A749
102
{ACAD_XDICTIONARY
360
A7A4
102
}
102
{ACAD_REACTORS
330
A748
102
}
330
A748
100
AcDbModelDocViewStyle
 70
     0
  3
Imperial24
290
     0
100
AcDbSectionViewStyle
 70
     0
 71
     0
 90
       78
 71
     1
340
A1A9
 40
0.24
340
0
340
0
 40
0.24
300
I, O, Q, S, X, Z
 40
0.48
 90
        3
 40
0.18
 90
        1
 71
     2
340
A1AD
 90
       25
340
A1AD
 90
       50
 40
0.24
 40
0.0
 40
0.24
 71
     3
340
A1A9
 40
0.24
 90
        1
 40
0.75
 90
        1
300
%<\AcVar ViewType \f "%tc1">% %<\AcVar ViewSectionStartId>%-%<\AcVar ViewSectionEndId>%\PSCALE %<\AcVar ViewScale \f "%sn">%
 71
     4
300
ANSI31
 40
1.0
 90
        0
290
     0
290
     0
 90
        6
 40
0.0
 40
1.570796326794896
 40
0.2617993877991494
 40
1.308996938995747
 40
-0.2617993877991494
 40
1.832595714594046
  0
TABLESTYLE
  5
A733
102
{ACAD_XDICTIONARY
360
A76B
102
}
102
{ACAD_REACTORS
330
A732
102
}
330
A732
100
AcDbTableStyle
  3
Standard
 70
     0
 71
     0
 40
0.06
 41
0.06
280
     0
281
     0
  7
STANDARD
140
0.18
170
     2
 62
     0
 63
     7
283
     0
274
    -2
284
     1
 64
     0
275
    -2
285
     1
 65
     0
276
    -2
286
     1
 66
     0
277
    -2
287
     1
 67
     0
278
    -2
288
     1
 68
     0
279
    -2
289
     1
 69
     0
  7
STANDARD
140
0.25
170
     5
 62
     0
 63
     7
283
     0
274
    -2
284
     1
 64
     0
275
    -2
285
     1
 65
     0
276
    -2
286
     1
 66
     0
277
    -2
287
     1
 67
     0
278
    -2
288
     1
 68
     0
279
    -2
289
     1
 69
     0
  7
STANDARD
140
0.18
170
     5
 62
     0
 63
     7
283
     0
274
    -2
284
     1
 64
     0
275
    -2
285
     1
 65
     0
276
    -2
286
     1
 66
     0
277
    -2
287
     1
 67
     0
278
    -2
288
     1
 68
     0
279
    -2
289
     1
 69
     0
  0
VISUALSTYLE
  5
A71E
102
{ACAD_XDICTIONARY
360
A77C
102
}
102
{ACAD_REACTORS
330
A718
102
}
330
A718
100
AcDbVisualStyle
  2
2dWireframe
 70
     4
 71
     0
 72
     2
 73
     0
 90
        0
 40
-0.6
 41
-30.0
 62
     5
 63
     7
 74
     1
 91
        4
 64
     7
 65
   257
 75
     1
175
     1
 42
1.0
 92
        0
 66
   257
 43
1.0
 76
     1
 77
     6
 78
     2
 67
     7
 79
     5
170
     0
171
     0
290
     0
174
     0
 93
        1
 44
0.0
173
     0
291
     0
 45
0.0
1001
ACAD
1000
AcDbSavedByObjectVersion
1070
     0
  0
VISUALSTYLE
  5
A71D
102
{ACAD_XDICTIONARY
360
A77A
102
}
102
{ACAD_REACTORS
330
A718
102
}
330
A718
100
AcDbVisualStyle
  2
Basic
 70
     7
 71
     1
 72
     0
 73
     1
 90
        0
 40
-0.6
 41
-30.0
 62
     5
 63
     7
 74
     0
 91
        4
 64
     7
 65
   257
 75
     1
175
     1
 42
1.0
 92
        8
 66
     7
 43
1.0
 76
     1
 77
     6
 78
     2
 67
     7
 79
     5
170
     0
171
     0
290
     0
174
     0
 93
        1
 44
0.0
173
     0
291
     1
 45
0.0
1001
ACAD
1000
AcDbSavedByObjectVersion
1070
     0
  0
VISUALSTYLE
  5
A724
102
{ACAD_XDICTIONARY
360
A788
102
}
102
{ACAD_REACTORS
330
A718
102
}
330
A718
100
AcDbVisualStyle
  2
Brighten
 70
    12
 71
     2
 72
     2
 73
     0
 90
        0
 40
-0.6
 41
-30.0
 62
     5
 63
     7
 74
     1
 91
        4
 64
     7
 65
   257
 75
     1
175
     1
 42
1.0
 92
        8
 66
     7
 43
1.0
 76
     1
 77
     6
 78
     2
 67
     7
 79
     5
170
     0
171
     0
290
     0
174
     0
 93
        1
 44
50.0
173
     0
291
     1
 45
0.0
1001
ACAD
1000
AcDbSavedByObjectVersion
1070
     0
  0
VISUALSTYLE
  5
A728
102
{ACAD_XDICTIONARY
360
A790
102
}
102
{ACAD_REACTORS
330
A718
102
}
330
A718
100
AcDbVisualStyle
  2
ColorChange
 70
    16
 71
     2
 72
     2
 73
     3
 90
        0
 40
-0.6
 41
-30.0
 62
     5
 63
     8
 74
     1
 91
        4
 64
     7
 65
   257
 75
     1
175
     1
 42
1.0
 92
        8
 66
     8
 43
1.0
 76
     1
 77
     6
 78
     2
 67
     7
 79
     5
170
     0
171
     0
290
     0
174
     0
 93
        1
 44
0.0
173
     0
291
     1
 45
0.0
1001
ACAD
1000
AcDbSavedByObjectVersion
1070
     0
  0
VISUALSTYLE
  5
A721
102
{ACAD_XDICTIONARY
360
A782
102
}
102
{ACAD_REACTORS
330
A718
102
}
330
A718
100
AcDbVisualStyle
  2
Conceptual
 70
     9
 71
     3
 72
     2
 73
     0
 90
        0
 40
-0.6
 41
-30.0
 62
     5
 63
     7
 74
     2
 91
        2
 64
     7
 65
   257
 75
     1
175
     1
 42
179.0
 92
        8
 66
     7
 43
1.0
 76
     1
 77
     6
 78
     2
 67
     7
 79
     3
170
     0
171
     0
290
     0
174
     0
 93
        1
 44
0.0
173
     0
291
     0
 45
0.0
1001
ACAD
1000
AcDbSavedByObjectVersion
1070
     0
  0
VISUALSTYLE
  5
A723
102
{ACAD_XDICTIONARY
360
A786
102
}
102
{ACAD_REACTORS
330
A718
102
}
330
A718
100
AcDbVisualStyle
  2
Dim
 70
    11
 71
     2
 72
     2
 73
     0
 90
        0
 40
-0.6
 41
-30.0
 62
     5
 63
     7
 74
     1
 91
        4
 64
     7
 65
   257
 75
     1
175
     1
 42
1.0
 92
        8
 66
     7
 43
1.0
 76
     1
 77
     6
 78
     2
 67
     7
 79
     5
170
     0
171
     0
290
     0
174
     0
 93
        1
 44
-50.0
173
     0
291
     1
 45
0.0
1001
ACAD
1000
AcDbSavedByObjectVersion
1070
     0
  0
VISUALSTYLE
  5
A730
102
{ACAD_XDICTIONARY
360
A7A0
102
}
102
{ACAD_REACTORS
330
A718
102
}
330
A718
100
AcDbVisualStyle
  2
EdgeColorOff
 70
    22
 71
     2
 72
     2
 73
     0
 90
        0
 40
-0.6
 41
-30.0
 62
     5
 63
     7
 74
     1
 91
        4
 64
     7
 65
   257
 75
     1
175
     1
 42
1.0
 92
        8
 66
     7
 43
1.0
 76
     1
 77
     6
 78
     2
 67
     7
 79
     5
170
     0
171
     0
290
     0
174
     0
 93
        1
 44
0.0
173
     0
291
     1
 45
0.0
1001
ACAD
1000
AcDbSavedByObjectVersion
1070
     0
  0
VISUALSTYLE
  5
A727
102
{ACAD_XDICTIONARY
360
A78E
102
}
102
{ACAD_REACTORS
330
A718
102
}
330
A718
100
AcDbVisualStyle
  2
Facepattern
 70
    15
 71
     2
 72
     2
 73
     0
 90
        0
 40
-0.6
 41
-30.0
 62
     5
 63
     7
 74
     1
 91
        4
 64
     7
 65
   257
 75
     1
175
     1
 42
1.0
 92
        8
 66
     7
 43
1.0
 76
     1
 77
     6
 78
     2
 67
     7
 79
     5
170
     0
171
     0
290
     0
174
     0
 93
        1
 44
0.0
173
     0
291
     1
 45
0.0
1001
ACAD
1000
AcDbSavedByObjectVersion
1070
     0
  0
VISUALSTYLE
  5
A719
102
{ACAD_XDICTIONARY
360
A772
102
}
102
{ACAD_REACTORS
330
A718
102
}
330
A718
100
AcDbVisualStyle
  2
Flat
 70
     0
 71
     2
 72
     1
 73
     1
 90
        2
 40
-0.6
 41
30.0
 62
     5
 63
     7
 74
     0
 91
        0
 64
     7
 65
   257
 75
     1
175
     1
 42
1.0
 92
        8
 66
     7
 43
1.0
 76
     1
 77
     6
 78
     2
 67
     7
 79
     5
170
     0
171
     0
290
     0
174
     0
 93
       13
 44
0.0
173
     0
291
     1
 45
0.0
1001
ACAD
1000
AcDbSavedByObjectVersion
1070
     0
  0
VISUALSTYLE
  5
A71A
102
{ACAD_XDICTIONARY
360
A774
102
}
102
{ACAD_REACTORS
330
A718
102
}
330
A718
100
AcDbVisualStyle
  2
FlatWithEdges
 70
     1
 71
     2
 72
     1
 73
     1
 90
        2
 40
-0.6
 41
30.0
 62
     5
 63
     7
 74
     1
 91
        0
 64
     7
 65
   257
 75
     1
175
     1
 42
1.0
 92
        0
 66
   257
 43
1.0
 76
     1
 77
     6
 78
     2
 67
     7
 79
     5
170
     0
171
     0
290
     0
174
     0
 93
       13
 44
0.0
173
     0
291
     1
 45
0.0
1001
ACAD
1000
AcDbSavedByObjectVersion
1070
     0
  0
VISUALSTYLE
  5
A71B
102
{ACAD_XDICTIONARY
360
A776
102
}
102
{ACAD_REACTORS
330
A718
102
}
330
A718
100
AcDbVisualStyle
  2
Gouraud
 70
     2
 71
     2
 72
     2
 73
     1
 90
        2
 40
-0.6
 41
30.0
 62
     5
 63
     7
 74
     0
 91
        0
 64
     7
 65
   257
 75
     1
175
     1
 42
1.0
 92
        0
 66
     7
 43
1.0
 76
     1
 77
     6
 78
     2
 67
     7
 79
     5
170
     0
171
     0
290
     0
174
     0
 93
       13
 44
0.0
173
     0
291
     1
 45
0.0
1001
ACAD
1000
AcDbSavedByObjectVersion
1070
     0
  0
VISUALSTYLE
  5
A71C
102
{ACAD_XDICTIONARY
360
A778
102
}
102
{ACAD_REACTORS
330
A718
102
}
330
A718
100
AcDbVisualStyle
  2
GouraudWithEdges
 70
     3
 71
     2
 72
     2
 73
     1
 90
        2
 40
-0.6
 41
30.0
 62
     5
 63
     7
 74
     1
 91
        0
 64
     7
 65
   257
 75
     1
175
     1
 42
1.0
 92
        0
 66
   257
 43
1.0
 76
     1
 77
     6
 78
     2
 67
     7
 79
     5
170
     0
171
     0
290
     0
174
     0
 93
       13
 44
0.0
173
     0
291
     1
 45
0.0
1001
ACAD
1000
AcDbSavedByObjectVersion
1070
     0
  0
VISUALSTYLE
  5
A720
102
{ACAD_XDICTIONARY
360
A780
102
}
102
{ACAD_REACTORS
330
A718
102
}
330
A718
100
AcDbVisualStyle
  2
Hidden
 70
     6
 71
     1
 72
     2
 73
     2
 90
        0
 40
-0.6
 41
-30.0
 62
     5
 63
     7
 74
     2
 91
        2
 64
     7
 65
   257
 75
     2
175
     1
 42
40.0
 92
        0
 66
   257
 43
1.0
 76
     1
 77
     6
 78
     2
 67
     7
 79
     3
170
     0
171
     0
290
     0
174
     0
 93
        1
 44
0.0
173
     0
291
     0
 45
0.0
1001
ACAD
1000
AcDbSavedByObjectVersion
1070
     0
  0
VISUALSTYLE
  5
A72E
102
{ACAD_XDICTIONARY
360
A79C
102
}
102
{ACAD_REACTORS
330
A718
102
}
330
A718
100
AcDbVisualStyle
  2
JitterOff
 70
    20
 71
     2
 72
     2
 73
     0
 90
        0
 40
-0.6
 41
-30.0
 62
     5
 63
     7
 74
     1
 91
        4
 64
     7
 65
   257
 75
     1
175
     1
 42
1.0
 92
       10
 66
     7
 43
1.0
 76
     1
 77
     6
 78
     2
 67
     7
 79
     5
170
     0
171
     0
290
     0
174
     0
 93
        1
 44
0.0
173
     0
291
     1
 45
0.0
1001
ACAD
1000
AcDbSavedByObjectVersion
1070
     0
  0
VISUALSTYLE
  5
A726
102
{ACAD_XDICTIONARY
360
A78C
102
}
102
{ACAD_REACTORS
330
A718
102
}
330
A718
100
AcDbVisualStyle
  2
Linepattern
 70
    14
 71
     2
 72
     2
 73
     0
 90
        0
 40
-0.6
 41
-30.0
 62
     5
 63
     7
 74
     1
 91
        4
 64
     7
 65
   257
 75
     7
175
     7
 42
1.0
 92
        8
 66
     7
 43
1.0
 76
     1
 77
     6
 78
     2
 67
     7
 79
     5
170
     0
171
     0
290
     0
174
     0
 93
        1
 44
0.0
173
     0
291
     1
 45
0.0
1001
ACAD
1000
AcDbSavedByObjectVersion
1070
     0
  0
VISUALSTYLE
  5
A72F
102
{ACAD_XDICTIONARY
360
A79E
102
}
102
{ACAD_REACTORS
330
A718
102
}
330
A718
100
AcDbVisualStyle
  2
OverhangOff
 70
    21
 71
     2
 72
     2
 73
     0
 90
        0
 40
-0.6
 41
-30.0
 62
     5
 63
     7
 74
     1
 91
        4
 64
     7
 65
   257
 75
     1
175
     1
 42
1.0
 92
        9
 66
     7
 43
1.0
 76
     1
 77
     6
 78
     2
 67
     7
 79
     5
170
     0
171
     0
290
     0
174
     0
 93
        1
 44
0.0
173
     0
291
     1
 45
0.0
1001
ACAD
1000
AcDbSavedByObjectVersion
1070
     0
  0
VISUALSTYLE
  5
A722
102
{ACAD_XDICTIONARY
360
A784
102
}
102
{ACAD_REACTORS
330
A718
102
}
330
A718
100
AcDbVisualStyle
  2
Realistic
 70
     8
 71
     2
 72
     3
 73
     0
 90
        2
 40
-0.6
 41
30.0
 62
     5
 63
     7
 74
     0
 91
        0
 64
     7
 65
   257
 75
     1
175
     1
 42
1.0
 92
        8
 66
   257
 43
1.0
 76
     1
 77
     6
 78
     2
 67
     7
 79
     3
170
     0
171
     0
290
     0
174
     0
 93
       13
 44
0.0
173
     0
291
     0
 45
0.0
1001
ACAD
1000
AcDbSavedByObjectVersion
1070
     0
  0
VISUALSTYLE
  5
A72D
102
{ACAD_XDICTIONARY
360
A79A
102
}
102
{ACAD_REACTORS
330
A718
102
}
330
A718
100
AcDbVisualStyle
  2
Shaded
 70
    27
 71
     2
 72
     2
 73
     1
 90
        2
 40
-0.6
 41
30.0
 62
     5
 63
     7
 74
     0
 91
        4
 64
     7
 65
   257
 75
     1
175
     1
 42
1.0
 92
        8
 66
   257
 43
1.0
 76
     1
 77
     6
 78
     2
 67
     8
 79
     3
170
     0
171
     0
290
     0
174
     0
 93
        5
 44
0.0
173
     0
291
     0
 45
0.0
1001
ACAD
1000
AcDbSavedByObjectVersion
1070
     0
  0
VISUALSTYLE
  5
A72C
102
{ACAD_XDICTIONARY
360
A798
102
}
102
{ACAD_REACTORS
330
A718
102
}
330
A718
100
AcDbVisualStyle
  2
Shaded with edges
 70
    26
 71
     2
 72
     2
 73
     1
 90
        2
 40
-0.6
 41
30.0
 62
     5
 63
     7
 74
     1
 91
       10
 64
     7
 65
   257
 75
     2
175
     1
 42
1.0
 92
        8
 66
   257
 43
1.0
 76
     1
 77
     6
 78
     2
 67
     7
 79
     3
170
     0
171
     0
290
     0
174
     0
 93
        5
 44
0.0
173
     0
291
     0
 45
0.0
1001
ACAD
1000
AcDbSavedByObjectVersion
1070
     0
  0
VISUALSTYLE
  5
A729
102
{ACAD_XDICTIONARY
360
A792
102
}
102
{ACAD_REACTORS
330
A718
102
}
330
A718
100
AcDbVisualStyle
  2
Shades of Gray
 70
    23
 71
     2
 72
     2
 73
     3
 90
        0
 40
-0.6
 41
-30.0
 62
     5
 63
     7
 74
     2
 91
        2
 64
     7
 65
     7
 75
     1
175
     1
 42
40.0
 92
        8
 66
     7
 43
1.0
 76
     1
 77
     6
 78
     2
 67
     7
 79
     3
170
     0
171
     0
290
     0
174
     0
 93
        1
 44
0.0
173
     0
291
     0
 45
0.0
1001
ACAD
1000
AcDbSavedByObjectVersion
1070
     0
  0
VISUALSTYLE
  5
A72A
102
{ACAD_XDICTIONARY
360
A794
102
}
102
{ACAD_REACTORS
330
A718
102
}
330
A718
100
AcDbVisualStyle
  2
Sketchy
 70
    24
 71
     1
 72
     2
 73
     2
 90
        0
 40
-0.6
 41
-30.0
 62
     5
 63
     7
 74
     2
 91
        2
 64
     7
 65
     7
 75
     1
175
     1
 42
40.0
 92
       11
 66
     7
 43
1.0
 76
     1
 77
     6
 78
     2
 67
     7
 79
     6
170
     0
171
     0
290
     0
174
     0
 93
        1
 44
0.0
173
     0
291
     0
 45
0.0
1001
ACAD
1000
AcDbSavedByObjectVersion
1070
     0
  0
VISUALSTYLE
  5
A725
102
{ACAD_XDICTIONARY
360
A78A
102
}
102
{ACAD_REACTORS
330
A718
102
}
330
A718
100
AcDbVisualStyle
  2
Thicken
 70
    13
 71
     2
 72
     2
 73
     0
 90
        0
 40
-0.6
 41
-30.0
 62
     5
 63
     7
 74
     1
 91
        4
 64
     7
 65
   257
 75
     1
175
     1
 42
1.0
 92
       12
 66
     7
 43
1.0
 76
     1
 77
     6
 78
     2
 67
     7
 79
     5
170
     0
171
     0
290
     0
174
     0
 93
        1
 44
0.0
173
     0
291
     1
 45
0.0
1001
ACAD
1000
AcDbSavedByObjectVersion
1070
     0
  0
VISUALSTYLE
  5
A71F
102
{ACAD_XDICTIONARY
360
A77E
102
}
102
{ACAD_REACTORS
330
A718
102
}
330
A718
100
AcDbVisualStyle
  2
Wireframe
 70
     5
 71
     0
 72
     2
 73
     0
 90
        0
 40
-0.6
 41
-30.0
 62
     5
 63
     7
 74
     1
 91
        4
 64
     7
 65
   257
 75
     1
175
     1
 42
1.0
 92
        0
 66
   257
 43
1.0
 76
     1
 77
     6
 78
     2
 67
     7
 79
     3
170
     0
171
     0
290
     0
174
     0
 93
        1
 44
0.0
173
     0
291
     0
 45
0.0
1001
ACAD
1000
AcDbSavedByObjectVersion
1070
     0
  0
VISUALSTYLE
  5
A72B
102
{ACAD_XDICTIONARY
360
A796
102
}
102
{ACAD_REACTORS
330
A718
102
}
330
A718
100
AcDbVisualStyle
  2
X-Ray
 70
    25
 71
     2
 72
     2
 73
     1
 90
        1
 40
0.5
 41
-30.0
 62
     5
 63
     7
 74
     1
 91
        0
 64
     7
 65
   257
 75
     1
175
     1
 42
1.0
 92
        8
 66
     7
 43
1.0
 76
     1
 77
     6
 78
     2
 67
     7
 79
     3
170
     0
171
     0
290
     0
174
     0
 93
       13
 44
0.0
173
     0
291
     0
 45
0.0
1001
ACAD
1000
AcDbSavedByObjectVersion
1070
     0
  0
DICTIONARYVAR
  5
A765
102
{ACAD_REACTORS
330
A760
102
}
330
A760
100
DictionaryVariables
280
     0
  1
1:1
  0
DICTIONARYVAR
  5
A762
102
{ACAD_REACTORS
330
A760
102
}
330
A760
100
DictionaryVariables
280
     0
  1
STANDARD
  0
DICTIONARYVAR
  5
A761
102
{ACAD_REACTORS
330
A760
102
}
330
A760
100
DictionaryVariables
280
     0
  1
STANDARD
  0
DICTIONARYVAR
  5
A763
102
{ACAD_REACTORS
330
A760
102
}
330
A760
100
DictionaryVariables
280
     0
  1
Imperial24
  0
DICTIONARYVAR
  5
A764
102
{ACAD_REACTORS
330
A760
102
}
330
A760
100
DictionaryVariables
280
     0
  1
Imperial24
  0
DICTIONARYVAR
  5
A768
102
{ACAD_REACTORS
330
A760
102
}
330
A760
100
DictionaryVariables
280
     0
  1
1
  0
DICTIONARYVAR
  5
A767
102
{ACAD_REACTORS
330
A760
102
}
330
A760
100
DictionaryVariables
280
     0
  1
0
  0
DICTIONARYVAR
  5
A766
102
{ACAD_REACTORS
330
A760
102
}
330
A760
100
DictionaryVariables
280
     0
  1
127
  0
DICTIONARYVAR
  5
A769
102
{ACAD_REACTORS
330
A760
102
}
330
A760
100
DictionaryVariables
280
     0
  1
2
  0
DICTIONARY
  5
A7A6
330
A74B
100
AcDbDictionary
280
     1
281
     1
  3
ACAD_XREC_ROUNDTRIP
360
A7A7
  0
DICTIONARY
  5
A7A8
330
A74C
100
AcDbDictionary
280
     1
281
     1
  3
ACAD_XREC_ROUNDTRIP
360
A7A9
  0
DICTIONARY
  5
A7AA
330
A74D
100
AcDbDictionary
280
     1
281
     1
  3
ACAD_XREC_ROUNDTRIP
360
A7AB
  0
DICTIONARY
  5
A709
330
A708
100
AcDbDictionary
280
     1
281
     1
  3
ACAD_XREC_ROUNDTRIP
360
A770
  3
BUMPTILE
360
A70B
  3
DIFFUSETILE
360
A70A
  3
OPACITYTILE
360
A70E
  3
REFLECTIONTILE
360
A70D
  3
REFRACTIONTILE
360
A70F
  3
SPECULARTILE
360
A70C
  0
DICTIONARY
  5
A701
330
A700
100
AcDbDictionary
280
     1
281
     1
  3
ACAD_XREC_ROUNDTRIP
360
A76F
  3
BUMPTILE
360
A703
  3
DIFFUSETILE
360
A702
  3
OPACITYTILE
360
A706
  3
REFLECTIONTILE
360
A705
  3
REFRACTIONTILE
360
A707
  3
SPECULARTILE
360
A704
  0
DICTIONARY
  5
A711
330
A710
100
AcDbDictionary
280
     1
281
     1
  3
ACAD_XREC_ROUNDTRIP
360
A771
  3
BUMPTILE
360
A713
  3
DIFFUSETILE
360
A712
  3
OPACITYTILE
360
A716
  3
REFLECTIONTILE
360
A715
  3
REFRACTIONTILE
360
A717
  3
SPECULARTILE
360
A714
  0
DICTIONARY
  5
A7A4
330
A749
100
AcDbDictionary
280
     1
281
     1
  3
ACAD_XREC_ROUNDTRIP
360
A7A5
  0
DICTIONARY
  5
A76B
330
A733
100
AcDbDictionary
280
     1
281
     1
  3
ACAD_ROUNDTRIP_2008_TABLESTYLE_CELLSTYLEMAP
360
A76C
  3
ACAD_XREC_ROUNDTRIP
360
A7A2
  0
DICTIONARY
  5
A77C
330
A71E
100
AcDbDictionary
280
     1
281
     1
  3
ACAD_XREC_ROUNDTRIP
360
A77D
  0
DICTIONARY
  5
A77A
330
A71D
100
AcDbDictionary
280
     1
281
     1
  3
ACAD_XREC_ROUNDTRIP
360
A77B
  0
DICTIONARY
  5
A788
330
A724
100
AcDbDictionary
280
     1
281
     1
  3
ACAD_XREC_ROUNDTRIP
360
A789
  0
DICTIONARY
  5
A790
330
A728
100
AcDbDictionary
280
     1
281
     1
  3
ACAD_XREC_ROUNDTRIP
360
A791
  0
DICTIONARY
  5
A782
330
A721
100
AcDbDictionary
280
     1
281
     1
  3
ACAD_XREC_ROUNDTRIP
360
A783
  0
DICTIONARY
  5
A786
330
A723
100
AcDbDictionary
280
     1
281
     1
  3
ACAD_XREC_ROUNDTRIP
360
A787
  0
DICTIONARY
  5
A7A0
330
A730
100
AcDbDictionary
280
     1
281
     1
  3
ACAD_XREC_ROUNDTRIP
360
A7A1
  0
DICTIONARY
  5
A78E
330
A727
100
AcDbDictionary
280
     1
281
     1
  3
ACAD_XREC_ROUNDTRIP
360
A78F
  0
DICTIONARY
  5
A772
330
A719
100
AcDbDictionary
280
     1
281
     1
  3
ACAD_XREC_ROUNDTRIP
360
A773
  0
DICTIONARY
  5
A774
330
A71A
100
AcDbDictionary
280
     1
281
     1
  3
ACAD_XREC_ROUNDTRIP
360
A775
  0
DICTIONARY
  5
A776
330
A71B
100
AcDbDictionary
280
     1
281
     1
  3
ACAD_XREC_ROUNDTRIP
360
A777
  0
DICTIONARY
  5
A778
330
A71C
100
AcDbDictionary
280
     1
281
     1
  3
ACAD_XREC_ROUNDTRIP
360
A779
  0
DICTIONARY
  5
A780
330
A720
100
AcDbDictionary
280
     1
281
     1
  3
ACAD_XREC_ROUNDTRIP
360
A781
  0
DICTIONARY
  5
A79C
330
A72E
100
AcDbDictionary
280
     1
281
     1
  3
ACAD_XREC_ROUNDTRIP
360
A79D
  0
DICTIONARY
  5
A78C
330
A726
100
AcDbDictionary
280
     1
281
     1
  3
ACAD_XREC_ROUNDTRIP
360
A78D
  0
DICTIONARY
  5
A79E
330
A72F
100
AcDbDictionary
280
     1
281
     1
  3
ACAD_XREC_ROUNDTRIP
360
A79F
  0
DICTIONARY
  5
A784
330
A722
100
AcDbDictionary
280
     1
281
     1
  3
ACAD_XREC_ROUNDTRIP
360
A785
  0
DICTIONARY
  5
A79A
330
A72D
100
AcDbDictionary
280
     1
281
     1
  3
ACAD_XREC_ROUNDTRIP
360
A79B
  0
DICTIONARY
  5
A798
330
A72C
100
AcDbDictionary
280
     1
281
     1
  3
ACAD_XREC_ROUNDTRIP
360
A799
  0
DICTIONARY
  5
A792
330
A729
100
AcDbDictionary
280
     1
281
     1
  3
ACAD_XREC_ROUNDTRIP
360
A793
  0
DICTIONARY
  5
A794
330
A72A
100
AcDbDictionary
280
     1
281
     1
  3
ACAD_XREC_ROUNDTRIP
360
A795
  0
DICTIONARY
  5
A78A
330
A725
100
AcDbDictionary
280
     1
281
     1
  3
ACAD_XREC_ROUNDTRIP
360
A78B
  0
DICTIONARY
  5
A77E
330
A71F
100
AcDbDictionary
280
     1
281
     1
  3
ACAD_XREC_ROUNDTRIP
360
A77F
  0
DICTIONARY
  5
A796
330
A72B
100
AcDbDictionary
280
     1
281
     1
  3
ACAD_XREC_ROUNDTRIP
360
A797
  0
XRECORD
  5
A7A7
102
{ACAD_REACTORS
330
A7A6
102
}
330
A7A6
100
AcDbXrecord
280
     1
102
DISPLAYNAME
  1
Imperial24
102
FLAGS
 90
        0
  0
XRECORD
  5
A7A9
102
{ACAD_REACTORS
330
A7A8
102
}
330
A7A8
100
AcDbXrecord
280
     1
102
SHADEPLOT
 70
     0
102
SHADEPLOTRESLEVEL
 70
     2
102
SHADEPLOTCUSTOMDPI
 70
   300
  0
XRECORD
  5
A7AB
102
{ACAD_REACTORS
330
A7AA
102
}
330
A7AA
100
AcDbXrecord
280
     1
102
SHADEPLOT
 70
     0
102
SHADEPLOTRESLEVEL
 70
     2
102
SHADEPLOTCUSTOMDPI
 70
   300
  0
XRECORD
  5
A770
102
{ACAD_REACTORS
330
A709
102
}
330
A709
100
AcDbXrecord
280
     1
102
MATERIAL
148
0.0
149
0.0
149
0.0
 93
        0
 94
      127
282
     0
 72
     0
 77
     0
171
     0
175
     0
179
     0
273
     0
  0
XRECORD
  5
A70B
102
{ACAD_REACTORS
330
A709
102
}
330
A709
100
AcDbXrecord
280
     1
270
     1
271
     1
  0
XRECORD
  5
A70A
102
{ACAD_REACTORS
330
A709
102
}
330
A709
100
AcDbXrecord
280
     1
270
     1
271
     1
  0
XRECORD
  5
A70E
102
{ACAD_REACTORS
330
A709
102
}
330
A709
100
AcDbXrecord
280
     1
270
     1
271
     1
  0
XRECORD
  5
A70D
102
{ACAD_REACTORS
330
A709
102
}
330
A709
100
AcDbXrecord
280
     1
270
     1
271
     1
  0
XRECORD
  5
A70F
102
{ACAD_REACTORS
330
A709
102
}
330
A709
100
AcDbXrecord
280
     1
270
     1
271
     1
  0
XRECORD
  5
A70C
102
{ACAD_REACTORS
330
A709
102
}
330
A709
100
AcDbXrecord
280
     1
270
     1
271
     1
  0
XRECORD
  5
A76F
102
{ACAD_REACTORS
330
A701
102
}
330
A701
100
AcDbXrecord
280
     1
102
MATERIAL
148
0.0
149
0.0
149
0.0
 93
        0
 94
      127
282
     0
 72
     0
 77
     0
171
     0
175
     0
179
     0
273
     0
  0
XRECORD
  5
A703
102
{ACAD_REACTORS
330
A701
102
}
330
A701
100
AcDbXrecord
280
     1
270
     1
271
     1
  0
XRECORD
  5
A702
102
{ACAD_REACTORS
330
A701
102
}
330
A701
100
AcDbXrecord
280
     1
270
     1
271
     1
  0
XRECORD
  5
A706
102
{ACAD_REACTORS
330
A701
102
}
330
A701
100
AcDbXrecord
280
     1
270
     1
271
     1
  0
XRECORD
  5
A705
102
{ACAD_REACTORS
330
A701
102
}
330
A701
100
AcDbXrecord
280
     1
270
     1
271
     1
  0
XRECORD
  5
A707
102
{ACAD_REACTORS
330
A701
102
}
330
A701
100
AcDbXrecord
280
     1
270
     1
271
     1
  0
XRECORD
  5
A704
102
{ACAD_REACTORS
330
A701
102
}
330
A701
100
AcDbXrecord
280
     1
270
     1
271
     1
  0
XRECORD
  5
A771
102
{ACAD_REACTORS
330
A711
102
}
330
A711
100
AcDbXrecord
280
     1
102
MATERIAL
148
0.0
149
0.0
149
0.0
 93
        0
 94
      127
282
     0
 72
     0
 77
     0
171
     0
175
     0
179
     0
273
     0
  0
XRECORD
  5
A713
102
{ACAD_REACTORS
330
A711
102
}
330
A711
100
AcDbXrecord
280
     1
270
     1
271
     1
  0
XRECORD
  5
A712
102
{ACAD_REACTORS
330
A711
102
}
330
A711
100
AcDbXrecord
280
     1
270
     1
271
     1
  0
XRECORD
  5
A716
102
{ACAD_REACTORS
330
A711
102
}
330
A711
100
AcDbXrecord
280
     1
270
     1
271
     1
  0
XRECORD
  5
A715
102
{ACAD_REACTORS
330
A711
102
}
330
A711
100
AcDbXrecord
280
     1
270
     1
271
     1
  0
XRECORD
  5
A717
102
{ACAD_REACTORS
330
A711
102
}
330
A711
100
AcDbXrecord
280
     1
270
     1
271
     1
  0
XRECORD
  5
A714
102
{ACAD_REACTORS
330
A711
102
}
330
A711
100
AcDbXrecord
280
     1
270
     1
271
     1
  0
XRECORD
  5
A7A5
102
{ACAD_REACTORS
330
A7A4
102
}
330
A7A4
100
AcDbXrecord
280
     1
102
DISPLAYNAME
  1
Imperial24
102
FLAGS
 90
        0
  0
CELLSTYLEMAP
  5
A76C
102
{ACAD_REACTORS
330
A76B
102
}
330
A76B
100
AcDbCellStyleMap
 90
        3
300
CELLSTYLE
  1
TABLEFORMAT_BEGIN
 90
        5
170
     1
 91
        0
 92
    32768
 62
   257
 93
        1
300
CONTENTFORMAT
  1
CONTENTFORMAT_BEGIN
 90
        0
 91
        0
 92
      512
 93
        0
300

 40
0.0
140
1.0
 94
        5
 62
     0
340
A1A9
144
0.25
309
CONTENTFORMAT_END
171
     0
 94
        0
309
TABLEFORMAT_END
  1
CELLSTYLE_BEGIN
 90
        1
 91
        1
300
_TITLE
309
CELLSTYLE_END
300
CELLSTYLE
  1
TABLEFORMAT_BEGIN
 90
        5
170
     1
 91
        0
 92
        0
 62
   257
 93
        1
300
CONTENTFORMAT
  1
CONTENTFORMAT_BEGIN
 90
        0
 91
        0
 92
      512
 93
        0
300

 40
0.0
140
1.0
 94
        5
 62
     0
340
A1A9
144
0.18
309
CONTENTFORMAT_END
171
     0
 94
        0
309
TABLEFORMAT_END
  1
CELLSTYLE_BEGIN
 90
        2
 91
        1
300
_HEADER
309
CELLSTYLE_END
300
CELLSTYLE
  1
TABLEFORMAT_BEGIN
 90
        5
170
     1
 91
        0
 92
        0
 62
   257
 93
        1
300
CONTENTFORMAT
  1
CONTENTFORMAT_BEGIN
 90
        0
 91
        0
 92
      512
 93
        0
300

 40
0.0
140
1.0
 94
        2
 62
     0
340
A1A9
144
0.18
309
CONTENTFORMAT_END
171
     0
 94
        0
309
TABLEFORMAT_END
  1
CELLSTYLE_BEGIN
 90
        3
 91
        2
300
_DATA
309
CELLSTYLE_END
  0
XRECORD
  5
A7A2
102
{ACAD_REACTORS
330
A76B
102
}
330
A76B
100
AcDbXrecord
280
     1
102
ACAD_ROUNDTRIP_PRE2007_TABLESTYLE
 90
      512
 91
        0
  1

 92
      512
 93
        0
  2

 94
      512
 95
        0
  3

  0
XRECORD
  5
A77D
102
{ACAD_REACTORS
330
A77C
102
}
330
A77C
100
AcDbXrecord
280
     1
102
RTVSPost2010Prop28
280
     1
102
RTVSPost2010PropOp28
 70
     1
102
RTVSPost2010Prop29
280
     1
102
RTVSPost2010PropOp29
 70
     1
102
RTVSPost2010Prop30
280
     0
102
RTVSPost2010PropOp30
 70
     1
102
RTVSPost2010Prop31
280
     0
102
RTVSPost2010PropOp31
 70
     1
102
RTVSPost2010Prop32
280
     0
102
RTVSPost2010PropOp32
 70
     1
102
RTVSPost2010Prop33
280
     0
102
RTVSPost2010PropOp33
 70
     1
102
RTVSPost2010Prop34
280
     0
102
RTVSPost2010PropOp34
 70
     1
102
RTVSPost2010Prop35
280
     0
102
RTVSPost2010PropOp35
 70
     1
102
RTVSPost2010Prop36
280
     0
102
RTVSPost2010PropOp36
 70
     1
102
RTVSPost2010Prop37
 90
       50
102
RTVSPost2010PropOp37
 70
     1
102
RTVSPost2010Prop38
140
0.0
102
RTVSPost2010PropOp38
 70
     1
102
RTVSPost2010Prop39
140
1.0
102
RTVSPost2010PropOp39
 70
     1
102
RTVSPost2010Prop40
 90
        0
102
RTVSPost2010PropOp40
 70
     1
102
RTVSPost2010Prop41ColorIndex
 90
       18
102
RTVSPost2010Prop41ColorRGB
 90
        0
102
RTVSPost2010PropOp41
 70
     1
102
RTVSPost2010Prop42
 90
       50
102
RTVSPost2010PropOp42
 70
     1
102
RTVSPost2010Prop43
 90
        3
102
RTVSPost2010PropOp43
 70
     1
102
RTVSPost2010Prop44ColorIndex
 90
        5
102
RTVSPost2010Prop44ColorRGB
 90
      255
102
RTVSPost2010PropOp44
 70
     1
102
RTVSPost2010Prop45
280
     0
102
RTVSPost2010PropOp45
 70
     1
102
RTVSPost2010Prop46
 90
       50
102
RTVSPost2010PropOp46
 70
     1
102
RTVSPost2010Prop47
 90
       50
102
RTVSPost2010PropOp47
 70
     1
102
RTVSPost2010Prop48
 90
       50
102
RTVSPost2010PropOp48
 70
     1
102
RTVSPost2010Prop49
280
     0
102
RTVSPost2010PropOp49
 70
     1
102
RTVSPost2010Prop50
 90
       50
102
RTVSPost2010PropOp50
 70
     1
102
RTVSPost2010Prop51ColorIndex
 90
      256
102
RTVSPost2010Prop51ColorRGB
 90
-16777216
102
RTVSPost2010PropOp51
 70
     0
102
RTVSPost2010Prop52
140
1.0
102
RTVSPost2010PropOp52
 70
     0
102
RTVSPost2010Prop53
 90
        2
102
RTVSPost2010PropOp53
 70
     1
102
RTVSPost2010Prop54
  1
strokes_ogs.tif
102
RTVSPost2010PropOp54
 70
     1
102
RTVSPost2010Prop55
280
     0
102
RTVSPost2010PropOp55
 70
     1
102
RTVSPost2010Prop56
140
1.0
102
RTVSPost2010PropOp56
 70
     1
102
RTVSPost2010Prop57
140
1.0
102
RTVSPost2010PropOp57
 70
     1
102
RTVSPropertyOp0
 70
     1
102
RTVSPropertyOp1
 70
     1
102
RTVSPropertyOp2
 70
     1
102
RTVSPropertyOp3
 70
     1
102
RTVSPropertyOp4
 70
     1
102
RTVSPropertyOp5
 70
     1
102
RTVSPropertyOp6
 70
     1
102
RTVSPropertyOp7
 70
     1
102
RTVSPropertyOp8
 70
     1
102
RTVSPropertyOp9
 70
     1
102
RTVSPropertyOp10
 70
     1
102
RTVSPropertyOp11
 70
     1
102
RTVSPropertyOp12
 70
     1
102
RTVSPropertyOp13
 70
     1
102
RTVSPropertyOp14
 70
     1
102
RTVSPropertyOp15
 70
     1
102
RTVSPropertyOp16
 70
     1
102
RTVSPropertyOp17
 70
     1
102
RTVSPropertyOp18
 70
     1
102
RTVSPropertyOp19
 70
     1
102
RTVSPropertyOp20
 70
     1
102
RTVSPropertyOp21
 70
     1
102
RTVSPropertyOp22
 70
     1
102
RTVSPropertyOp23
 70
     1
102
RTVSPropertyOp24
 70
     1
102
RTVSPropertyOp25
 70
     1
102
RTVSPropertyOp26
 70
     1
102
RTVSPropertyOp27
 70
     1
102
RTVSPropertyOp28
 70
     1
102
RTVSPropertyOp29
 70
     1
102
RTVSPropertyOp30
 70
     1
102
RTVSPropertyOp31
 70
     1
102
RTVSPropertyOp32
 70
     1
102
RTVSPropertyOp33
 70
     1
102
RTVSPropertyOp34
 70
     1
102
RTVSPropertyOp35
 70
     1
102
RTVSPropertyOp36
 70
     1
102
RTVSPropertyOp37
 70
     1
102
RTVSPropertyOp38
 70
     1
102
RTVSPropertyOp39
 70
     1
102
RTVSPropertyOp40
 70
     1
102
RTVSPropertyOp41
 70
     1
102
RTVSPropertyOp42
 70
     1
102
RTVSPropertyOp43
 70
     1
102
RTVSPropertyOp44
 70
     1
102
RTVSPropertyOp45
 70
     1
102
RTVSPropertyOp46
 70
     1
102
RTVSPropertyOp47
 70
     1
102
RTVSPropertyOp48
 70
     1
102
RTVSPropertyOp49
 70
     1
102
RTVSPropertyOp50
 70
     1
102
RTVSPropertyOp51
 70
     0
102
RTVSPropertyOp52
 70
     0
102
RTVSPropertyOp53
 70
     1
102
RTVSPropertyOp54
 70
     1
102
RTVSPropertyOp55
 70
     1
102
RTVSPropertyOp56
 70
     1
102
RTVSPropertyOp57
 70
     1
102
RTVSPropertyOp58
 70
     1
102
RTVSPropertyOp59
 70
     1
102
RTVSPropertyOp60
 70
     1
102
RTVSPropertyOp61
 70
     1
102
RTVSPropertyOp62
 70
     1
  0
XRECORD
  5
A77B
102
{ACAD_REACTORS
330
A77A
102
}
330
A77A
100
AcDbXrecord
280
     1
102
RTVSPost2010Prop28
280
     0
102
RTVSPost2010PropOp28
 70
     1
102
RTVSPost2010Prop29
280
     1
102
RTVSPost2010PropOp29
 70
     1
102
RTVSPost2010Prop30
280
     1
102
RTVSPost2010PropOp30
 70
     1
102
RTVSPost2010Prop31
280
     0
102
RTVSPost2010PropOp31
 70
     1
102
RTVSPost2010Prop32
280
     0
102
RTVSPost2010PropOp32
 70
     1
102
RTVSPost2010Prop33
280
     0
102
RTVSPost2010PropOp33
 70
     1
102
RTVSPost2010Prop34
280
     0
102
RTVSPost2010PropOp34
 70
     1
102
RTVSPost2010Prop35
280
     0
102
RTVSPost2010PropOp35
 70
     1
102
RTVSPost2010Prop36
280
     0
102
RTVSPost2010PropOp36
 70
     1
102
RTVSPost2010Prop37
 90
       50
102
RTVSPost2010PropOp37
 70
     1
102
RTVSPost2010Prop38
140
0.0
102
RTVSPost2010PropOp38
 70
     1
102
RTVSPost2010Prop39
140
1.0
102
RTVSPost2010PropOp39
 70
     1
102
RTVSPost2010Prop40
 90
        0
102
RTVSPost2010PropOp40
 70
     1
102
RTVSPost2010Prop41ColorIndex
 90
       18
102
RTVSPost2010Prop41ColorRGB
 90
        0
102
RTVSPost2010PropOp41
 70
     1
102
RTVSPost2010Prop42
 90
       50
102
RTVSPost2010PropOp42
 70
     1
102
RTVSPost2010Prop43
 90
        3
102
RTVSPost2010PropOp43
 70
     1
102
RTVSPost2010Prop44ColorIndex
 90
        5
102
RTVSPost2010Prop44ColorRGB
 90
      255
102
RTVSPost2010PropOp44
 70
     1
102
RTVSPost2010Prop45
280
     0
102
RTVSPost2010PropOp45
 70
     1
102
RTVSPost2010Prop46
 90
       50
102
RTVSPost2010PropOp46
 70
     1
102
RTVSPost2010Prop47
 90
       50
102
RTVSPost2010PropOp47
 70
     1
102
RTVSPost2010Prop48
 90
       50
102
RTVSPost2010PropOp48
 70
     1
102
RTVSPost2010Prop49
280
     0
102
RTVSPost2010PropOp49
 70
     1
102
RTVSPost2010Prop50
 90
       50
102
RTVSPost2010PropOp50
 70
     1
102
RTVSPost2010Prop51ColorIndex
 90
      256
102
RTVSPost2010Prop51ColorRGB
 90
-16777216
102
RTVSPost2010PropOp51
 70
     0
102
RTVSPost2010Prop52
140
1.0
102
RTVSPost2010PropOp52
 70
     0
102
RTVSPost2010Prop53
 90
        2
102
RTVSPost2010PropOp53
 70
     1
102
RTVSPost2010Prop54
  1
strokes_ogs.tif
102
RTVSPost2010PropOp54
 70
     1
102
RTVSPost2010Prop55
280
     0
102
RTVSPost2010PropOp55
 70
     1
102
RTVSPost2010Prop56
140
1.0
102
RTVSPost2010PropOp56
 70
     1
102
RTVSPost2010Prop57
140
1.0
102
RTVSPost2010PropOp57
 70
     1
102
RTVSPropertyOp0
 70
     1
102
RTVSPropertyOp1
 70
     1
102
RTVSPropertyOp2
 70
     1
102
RTVSPropertyOp3
 70
     1
102
RTVSPropertyOp4
 70
     1
102
RTVSPropertyOp5
 70
     1
102
RTVSPropertyOp6
 70
     1
102
RTVSPropertyOp7
 70
     1
102
RTVSPropertyOp8
 70
     1
102
RTVSPropertyOp9
 70
     1
102
RTVSPropertyOp10
 70
     1
102
RTVSPropertyOp11
 70
     1
102
RTVSPropertyOp12
 70
     1
102
RTVSPropertyOp13
 70
     1
102
RTVSPropertyOp14
 70
     1
102
RTVSPropertyOp15
 70
     1
102
RTVSPropertyOp16
 70
     1
102
RTVSPropertyOp17
 70
     1
102
RTVSPropertyOp18
 70
     1
102
RTVSPropertyOp19
 70
     1
102
RTVSPropertyOp20
 70
     1
102
RTVSPropertyOp21
 70
     1
102
RTVSPropertyOp22
 70
     1
102
RTVSPropertyOp23
 70
     1
102
RTVSPropertyOp24
 70
     1
102
RTVSPropertyOp25
 70
     1
102
RTVSPropertyOp26
 70
     1
102
RTVSPropertyOp27
 70
     1
102
RTVSPropertyOp28
 70
     1
102
RTVSPropertyOp29
 70
     1
102
RTVSPropertyOp30
 70
     1
102
RTVSPropertyOp31
 70
     1
102
RTVSPropertyOp32
 70
     1
102
RTVSPropertyOp33
 70
     1
102
RTVSPropertyOp34
 70
     1
102
RTVSPropertyOp35
 70
     1
102
RTVSPropertyOp36
 70
     1
102
RTVSPropertyOp37
 70
     1
102
RTVSPropertyOp38
 70
     1
102
RTVSPropertyOp39
 70
     1
102
RTVSPropertyOp40
 70
     1
102
RTVSPropertyOp41
 70
     1
102
RTVSPropertyOp42
 70
     1
102
RTVSPropertyOp43
 70
     1
102
RTVSPropertyOp44
 70
     1
102
RTVSPropertyOp45
 70
     1
102
RTVSPropertyOp46
 70
     1
102
RTVSPropertyOp47
 70
     1
102
RTVSPropertyOp48
 70
     1
102
RTVSPropertyOp49
 70
     1
102
RTVSPropertyOp50
 70
     1
102
RTVSPropertyOp51
 70
     0
102
RTVSPropertyOp52
 70
     0
102
RTVSPropertyOp53
 70
     1
102
RTVSPropertyOp54
 70
     1
102
RTVSPropertyOp55
 70
     1
102
RTVSPropertyOp56
 70
     1
102
RTVSPropertyOp57
 70
     1
102
RTVSPropertyOp58
 70
     1
102
RTVSPropertyOp59
 70
     1
102
RTVSPropertyOp60
 70
     1
102
RTVSPropertyOp61
 70
     1
102
RTVSPropertyOp62
 70
     1
  0
XRECORD
  5
A789
102
{ACAD_REACTORS
330
A788
102
}
330
A788
100
AcDbXrecord
280
     1
102
RTVSPost2010Prop28
280
     0
102
RTVSPost2010PropOp28
 70
     1
102
RTVSPost2010Prop29
280
     1
102
RTVSPost2010PropOp29
 70
     1
102
RTVSPost2010Prop30
280
     1
102
RTVSPost2010PropOp30
 70
     1
102
RTVSPost2010Prop31
280
     0
102
RTVSPost2010PropOp31
 70
     1
102
RTVSPost2010Prop32
280
     0
102
RTVSPost2010PropOp32
 70
     1
102
RTVSPost2010Prop33
280
     0
102
RTVSPost2010PropOp33
 70
     1
102
RTVSPost2010Prop34
280
     0
102
RTVSPost2010PropOp34
 70
     1
102
RTVSPost2010Prop35
280
     0
102
RTVSPost2010PropOp35
 70
     1
102
RTVSPost2010Prop36
280
     0
102
RTVSPost2010PropOp36
 70
     1
102
RTVSPost2010Prop37
 90
       50
102
RTVSPost2010PropOp37
 70
     1
102
RTVSPost2010Prop38
140
0.0
102
RTVSPost2010PropOp38
 70
     1
102
RTVSPost2010Prop39
140
1.0
102
RTVSPost2010PropOp39
 70
     1
102
RTVSPost2010Prop40
 90
        0
102
RTVSPost2010PropOp40
 70
     1
102
RTVSPost2010Prop41ColorIndex
 90
       18
102
RTVSPost2010Prop41ColorRGB
 90
        0
102
RTVSPost2010PropOp41
 70
     1
102
RTVSPost2010Prop42
 90
       50
102
RTVSPost2010PropOp42
 70
     1
102
RTVSPost2010Prop43
 90
        3
102
RTVSPost2010PropOp43
 70
     1
102
RTVSPost2010Prop44ColorIndex
 90
        5
102
RTVSPost2010Prop44ColorRGB
 90
      255
102
RTVSPost2010PropOp44
 70
     1
102
RTVSPost2010Prop45
280
     0
102
RTVSPost2010PropOp45
 70
     1
102
RTVSPost2010Prop46
 90
       50
102
RTVSPost2010PropOp46
 70
     1
102
RTVSPost2010Prop47
 90
       50
102
RTVSPost2010PropOp47
 70
     1
102
RTVSPost2010Prop48
 90
       50
102
RTVSPost2010PropOp48
 70
     1
102
RTVSPost2010Prop49
280
     0
102
RTVSPost2010PropOp49
 70
     1
102
RTVSPost2010Prop50
 90
       50
102
RTVSPost2010PropOp50
 70
     1
102
RTVSPost2010Prop51ColorIndex
 90
      256
102
RTVSPost2010Prop51ColorRGB
 90
-16777216
102
RTVSPost2010PropOp51
 70
     0
102
RTVSPost2010Prop52
140
1.0
102
RTVSPost2010PropOp52
 70
     0
102
RTVSPost2010Prop53
 90
        2
102
RTVSPost2010PropOp53
 70
     1
102
RTVSPost2010Prop54
  1
strokes_ogs.tif
102
RTVSPost2010PropOp54
 70
     1
102
RTVSPost2010Prop55
280
     0
102
RTVSPost2010PropOp55
 70
     1
102
RTVSPost2010Prop56
140
1.0
102
RTVSPost2010PropOp56
 70
     1
102
RTVSPost2010Prop57
140
1.0
102
RTVSPost2010PropOp57
 70
     1
102
RTVSPropertyOp0
 70
     1
102
RTVSPropertyOp1
 70
     1
102
RTVSPropertyOp2
 70
     1
102
RTVSPropertyOp3
 70
     1
102
RTVSPropertyOp4
 70
     1
102
RTVSPropertyOp5
 70
     1
102
RTVSPropertyOp6
 70
     1
102
RTVSPropertyOp7
 70
     1
102
RTVSPropertyOp8
 70
     1
102
RTVSPropertyOp9
 70
     1
102
RTVSPropertyOp10
 70
     1
102
RTVSPropertyOp11
 70
     1
102
RTVSPropertyOp12
 70
     1
102
RTVSPropertyOp13
 70
     1
102
RTVSPropertyOp14
 70
     1
102
RTVSPropertyOp15
 70
     1
102
RTVSPropertyOp16
 70
     1
102
RTVSPropertyOp17
 70
     1
102
RTVSPropertyOp18
 70
     1
102
RTVSPropertyOp19
 70
     1
102
RTVSPropertyOp20
 70
     1
102
RTVSPropertyOp21
 70
     1
102
RTVSPropertyOp22
 70
     1
102
RTVSPropertyOp23
 70
     1
102
RTVSPropertyOp24
 70
     1
102
RTVSPropertyOp25
 70
     1
102
RTVSPropertyOp26
 70
     1
102
RTVSPropertyOp27
 70
     1
102
RTVSPropertyOp28
 70
     1
102
RTVSPropertyOp29
 70
     1
102
RTVSPropertyOp30
 70
     1
102
RTVSPropertyOp31
 70
     1
102
RTVSPropertyOp32
 70
     1
102
RTVSPropertyOp33
 70
     1
102
RTVSPropertyOp34
 70
     1
102
RTVSPropertyOp35
 70
     1
102
RTVSPropertyOp36
 70
     1
102
RTVSPropertyOp37
 70
     1
102
RTVSPropertyOp38
 70
     1
102
RTVSPropertyOp39
 70
     1
102
RTVSPropertyOp40
 70
     1
102
RTVSPropertyOp41
 70
     1
102
RTVSPropertyOp42
 70
     1
102
RTVSPropertyOp43
 70
     1
102
RTVSPropertyOp44
 70
     1
102
RTVSPropertyOp45
 70
     1
102
RTVSPropertyOp46
 70
     1
102
RTVSPropertyOp47
 70
     1
102
RTVSPropertyOp48
 70
     1
102
RTVSPropertyOp49
 70
     1
102
RTVSPropertyOp50
 70
     1
102
RTVSPropertyOp51
 70
     0
102
RTVSPropertyOp52
 70
     0
102
RTVSPropertyOp53
 70
     1
102
RTVSPropertyOp54
 70
     1
102
RTVSPropertyOp55
 70
     1
102
RTVSPropertyOp56
 70
     1
102
RTVSPropertyOp57
 70
     1
102
RTVSPropertyOp58
 70
     1
102
RTVSPropertyOp59
 70
     1
102
RTVSPropertyOp60
 70
     1
102
RTVSPropertyOp61
 70
     1
102
RTVSPropertyOp62
 70
     1
  0
XRECORD
  5
A791
102
{ACAD_REACTORS
330
A790
102
}
330
A790
100
AcDbXrecord
280
     1
102
RTVSPost2010Prop28
280
     0
102
RTVSPost2010PropOp28
 70
     1
102
RTVSPost2010Prop29
280
     1
102
RTVSPost2010PropOp29
 70
     1
102
RTVSPost2010Prop30
280
     1
102
RTVSPost2010PropOp30
 70
     1
102
RTVSPost2010Prop31
280
     0
102
RTVSPost2010PropOp31
 70
     1
102
RTVSPost2010Prop32
280
     0
102
RTVSPost2010PropOp32
 70
     1
102
RTVSPost2010Prop33
280
     0
102
RTVSPost2010PropOp33
 70
     1
102
RTVSPost2010Prop34
280
     0
102
RTVSPost2010PropOp34
 70
     1
102
RTVSPost2010Prop35
280
     0
102
RTVSPost2010PropOp35
 70
     1
102
RTVSPost2010Prop36
280
     0
102
RTVSPost2010PropOp36
 70
     1
102
RTVSPost2010Prop37
 90
       50
102
RTVSPost2010PropOp37
 70
     1
102
RTVSPost2010Prop38
140
0.0
102
RTVSPost2010PropOp38
 70
     1
102
RTVSPost2010Prop39
140
1.0
102
RTVSPost2010PropOp39
 70
     1
102
RTVSPost2010Prop40
 90
        0
102
RTVSPost2010PropOp40
 70
     1
102
RTVSPost2010Prop41ColorIndex
 90
       18
102
RTVSPost2010Prop41ColorRGB
 90
        0
102
RTVSPost2010PropOp41
 70
     1
102
RTVSPost2010Prop42
 90
       50
102
RTVSPost2010PropOp42
 70
     1
102
RTVSPost2010Prop43
 90
        3
102
RTVSPost2010PropOp43
 70
     1
102
RTVSPost2010Prop44ColorIndex
 90
        5
102
RTVSPost2010Prop44ColorRGB
 90
      255
102
RTVSPost2010PropOp44
 70
     1
102
RTVSPost2010Prop45
280
     0
102
RTVSPost2010PropOp45
 70
     1
102
RTVSPost2010Prop46
 90
       50
102
RTVSPost2010PropOp46
 70
     1
102
RTVSPost2010Prop47
 90
       50
102
RTVSPost2010PropOp47
 70
     1
102
RTVSPost2010Prop48
 90
       50
102
RTVSPost2010PropOp48
 70
     1
102
RTVSPost2010Prop49
280
     0
102
RTVSPost2010PropOp49
 70
     1
102
RTVSPost2010Prop50
 90
       50
102
RTVSPost2010PropOp50
 70
     1
102
RTVSPost2010Prop51ColorIndex
 90
      256
102
RTVSPost2010Prop51ColorRGB
 90
-16777216
102
RTVSPost2010PropOp51
 70
     0
102
RTVSPost2010Prop52
140
1.0
102
RTVSPost2010PropOp52
 70
     0
102
RTVSPost2010Prop53
 90
        2
102
RTVSPost2010PropOp53
 70
     1
102
RTVSPost2010Prop54
  1
strokes_ogs.tif
102
RTVSPost2010PropOp54
 70
     1
102
RTVSPost2010Prop55
280
     0
102
RTVSPost2010PropOp55
 70
     1
102
RTVSPost2010Prop56
140
1.0
102
RTVSPost2010PropOp56
 70
     1
102
RTVSPost2010Prop57
140
1.0
102
RTVSPost2010PropOp57
 70
     1
102
RTVSPropertyOp0
 70
     1
102
RTVSPropertyOp1
 70
     1
102
RTVSPropertyOp2
 70
     1
102
RTVSPropertyOp3
 70
     1
102
RTVSPropertyOp4
 70
     1
102
RTVSPropertyOp5
 70
     1
102
RTVSPropertyOp6
 70
     1
102
RTVSPropertyOp7
 70
     1
102
RTVSPropertyOp8
 70
     1
102
RTVSPropertyOp9
 70
     1
102
RTVSPropertyOp10
 70
     1
102
RTVSPropertyOp11
 70
     1
102
RTVSPropertyOp12
 70
     1
102
RTVSPropertyOp13
 70
     1
102
RTVSPropertyOp14
 70
     1
102
RTVSPropertyOp15
 70
     1
102
RTVSPropertyOp16
 70
     1
102
RTVSPropertyOp17
 70
     1
102
RTVSPropertyOp18
 70
     1
102
RTVSPropertyOp19
 70
     1
102
RTVSPropertyOp20
 70
     1
102
RTVSPropertyOp21
 70
     1
102
RTVSPropertyOp22
 70
     1
102
RTVSPropertyOp23
 70
     1
102
RTVSPropertyOp24
 70
     1
102
RTVSPropertyOp25
 70
     1
102
RTVSPropertyOp26
 70
     1
102
RTVSPropertyOp27
 70
     1
102
RTVSPropertyOp28
 70
     1
102
RTVSPropertyOp29
 70
     1
102
RTVSPropertyOp30
 70
     1
102
RTVSPropertyOp31
 70
     1
102
RTVSPropertyOp32
 70
     1
102
RTVSPropertyOp33
 70
     1
102
RTVSPropertyOp34
 70
     1
102
RTVSPropertyOp35
 70
     1
102
RTVSPropertyOp36
 70
     1
102
RTVSPropertyOp37
 70
     1
102
RTVSPropertyOp38
 70
     1
102
RTVSPropertyOp39
 70
     1
102
RTVSPropertyOp40
 70
     1
102
RTVSPropertyOp41
 70
     1
102
RTVSPropertyOp42
 70
     1
102
RTVSPropertyOp43
 70
     1
102
RTVSPropertyOp44
 70
     1
102
RTVSPropertyOp45
 70
     1
102
RTVSPropertyOp46
 70
     1
102
RTVSPropertyOp47
 70
     1
102
RTVSPropertyOp48
 70
     1
102
RTVSPropertyOp49
 70
     1
102
RTVSPropertyOp50
 70
     1
102
RTVSPropertyOp51
 70
     0
102
RTVSPropertyOp52
 70
     0
102
RTVSPropertyOp53
 70
     1
102
RTVSPropertyOp54
 70
     1
102
RTVSPropertyOp55
 70
     1
102
RTVSPropertyOp56
 70
     1
102
RTVSPropertyOp57
 70
     1
102
RTVSPropertyOp58
 70
     1
102
RTVSPropertyOp59
 70
     1
102
RTVSPropertyOp60
 70
     1
102
RTVSPropertyOp61
 70
     1
102
RTVSPropertyOp62
 70
     1
  0
XRECORD
  5
A783
102
{ACAD_REACTORS
330
A782
102
}
330
A782
100
AcDbXrecord
280
     1
102
RTVSPost2010Prop28
280
     0
102
RTVSPost2010PropOp28
 70
     1
102
RTVSPost2010Prop29
280
     1
102
RTVSPost2010PropOp29
 70
     1
102
RTVSPost2010Prop30
280
     1
102
RTVSPost2010PropOp30
 70
     1
102
RTVSPost2010Prop31
280
     0
102
RTVSPost2010PropOp31
 70
     1
102
RTVSPost2010Prop32
280
     0
102
RTVSPost2010PropOp32
 70
     1
102
RTVSPost2010Prop33
280
     0
102
RTVSPost2010PropOp33
 70
     1
102
RTVSPost2010Prop34
280
     0
102
RTVSPost2010PropOp34
 70
     1
102
RTVSPost2010Prop35
280
     0
102
RTVSPost2010PropOp35
 70
     1
102
RTVSPost2010Prop36
280
     0
102
RTVSPost2010PropOp36
 70
     1
102
RTVSPost2010Prop37
 90
       50
102
RTVSPost2010PropOp37
 70
     1
102
RTVSPost2010Prop38
140
0.0
102
RTVSPost2010PropOp38
 70
     1
102
RTVSPost2010Prop39
140
1.0
102
RTVSPost2010PropOp39
 70
     1
102
RTVSPost2010Prop40
 90
        0
102
RTVSPost2010PropOp40
 70
     1
102
RTVSPost2010Prop41ColorIndex
 90
       18
102
RTVSPost2010Prop41ColorRGB
 90
        0
102
RTVSPost2010PropOp41
 70
     1
102
RTVSPost2010Prop42
 90
       50
102
RTVSPost2010PropOp42
 70
     1
102
RTVSPost2010Prop43
 90
        3
102
RTVSPost2010PropOp43
 70
     1
102
RTVSPost2010Prop44ColorIndex
 90
        5
102
RTVSPost2010Prop44ColorRGB
 90
      255
102
RTVSPost2010PropOp44
 70
     1
102
RTVSPost2010Prop45
280
     0
102
RTVSPost2010PropOp45
 70
     1
102
RTVSPost2010Prop46
 90
       50
102
RTVSPost2010PropOp46
 70
     1
102
RTVSPost2010Prop47
 90
       50
102
RTVSPost2010PropOp47
 70
     1
102
RTVSPost2010Prop48
 90
       50
102
RTVSPost2010PropOp48
 70
     1
102
RTVSPost2010Prop49
280
     0
102
RTVSPost2010PropOp49
 70
     1
102
RTVSPost2010Prop50
 90
       50
102
RTVSPost2010PropOp50
 70
     1
102
RTVSPost2010Prop51ColorIndex
 90
      256
102
RTVSPost2010Prop51ColorRGB
 90
-16777216
102
RTVSPost2010PropOp51
 70
     0
102
RTVSPost2010Prop52
140
1.0
102
RTVSPost2010PropOp52
 70
     0
102
RTVSPost2010Prop53
 90
        2
102
RTVSPost2010PropOp53
 70
     1
102
RTVSPost2010Prop54
  1
strokes_ogs.tif
102
RTVSPost2010PropOp54
 70
     1
102
RTVSPost2010Prop55
280
     0
102
RTVSPost2010PropOp55
 70
     1
102
RTVSPost2010Prop56
140
1.0
102
RTVSPost2010PropOp56
 70
     1
102
RTVSPost2010Prop57
140
1.0
102
RTVSPost2010PropOp57
 70
     1
102
RTVSPropertyOp0
 70
     1
102
RTVSPropertyOp1
 70
     1
102
RTVSPropertyOp2
 70
     1
102
RTVSPropertyOp3
 70
     1
102
RTVSPropertyOp4
 70
     1
102
RTVSPropertyOp5
 70
     1
102
RTVSPropertyOp6
 70
     1
102
RTVSPropertyOp7
 70
     1
102
RTVSPropertyOp8
 70
     1
102
RTVSPropertyOp9
 70
     1
102
RTVSPropertyOp10
 70
     1
102
RTVSPropertyOp11
 70
     1
102
RTVSPropertyOp12
 70
     1
102
RTVSPropertyOp13
 70
     1
102
RTVSPropertyOp14
 70
     1
102
RTVSPropertyOp15
 70
     1
102
RTVSPropertyOp16
 70
     1
102
RTVSPropertyOp17
 70
     1
102
RTVSPropertyOp18
 70
     1
102
RTVSPropertyOp19
 70
     1
102
RTVSPropertyOp20
 70
     1
102
RTVSPropertyOp21
 70
     1
102
RTVSPropertyOp22
 70
     1
102
RTVSPropertyOp23
 70
     1
102
RTVSPropertyOp24
 70
     1
102
RTVSPropertyOp25
 70
     1
102
RTVSPropertyOp26
 70
     1
102
RTVSPropertyOp27
 70
     1
102
RTVSPropertyOp28
 70
     1
102
RTVSPropertyOp29
 70
     1
102
RTVSPropertyOp30
 70
     1
102
RTVSPropertyOp31
 70
     1
102
RTVSPropertyOp32
 70
     1
102
RTVSPropertyOp33
 70
     1
102
RTVSPropertyOp34
 70
     1
102
RTVSPropertyOp35
 70
     1
102
RTVSPropertyOp36
 70
     1
102
RTVSPropertyOp37
 70
     1
102
RTVSPropertyOp38
 70
     1
102
RTVSPropertyOp39
 70
     1
102
RTVSPropertyOp40
 70
     1
102
RTVSPropertyOp41
 70
     1
102
RTVSPropertyOp42
 70
     1
102
RTVSPropertyOp43
 70
     1
102
RTVSPropertyOp44
 70
     1
102
RTVSPropertyOp45
 70
     1
102
RTVSPropertyOp46
 70
     1
102
RTVSPropertyOp47
 70
     1
102
RTVSPropertyOp48
 70
     1
102
RTVSPropertyOp49
 70
     1
102
RTVSPropertyOp50
 70
     1
102
RTVSPropertyOp51
 70
     0
102
RTVSPropertyOp52
 70
     0
102
RTVSPropertyOp53
 70
     1
102
RTVSPropertyOp54
 70
     1
102
RTVSPropertyOp55
 70
     1
102
RTVSPropertyOp56
 70
     1
102
RTVSPropertyOp57
 70
     1
102
RTVSPropertyOp58
 70
     1
102
RTVSPropertyOp59
 70
     1
102
RTVSPropertyOp60
 70
     1
102
RTVSPropertyOp61
 70
     1
102
RTVSPropertyOp62
 70
     1
  0
XRECORD
  5
A787
102
{ACAD_REACTORS
330
A786
102
}
330
A786
100
AcDbXrecord
280
     1
102
RTVSPost2010Prop28
280
     0
102
RTVSPost2010PropOp28
 70
     1
102
RTVSPost2010Prop29
280
     1
102
RTVSPost2010PropOp29
 70
     1
102
RTVSPost2010Prop30
280
     1
102
RTVSPost2010PropOp30
 70
     1
102
RTVSPost2010Prop31
280
     0
102
RTVSPost2010PropOp31
 70
     1
102
RTVSPost2010Prop32
280
     0
102
RTVSPost2010PropOp32
 70
     1
102
RTVSPost2010Prop33
280
     0
102
RTVSPost2010PropOp33
 70
     1
102
RTVSPost2010Prop34
280
     0
102
RTVSPost2010PropOp34
 70
     1
102
RTVSPost2010Prop35
280
     0
102
RTVSPost2010PropOp35
 70
     1
102
RTVSPost2010Prop36
280
     0
102
RTVSPost2010PropOp36
 70
     1
102
RTVSPost2010Prop37
 90
       50
102
RTVSPost2010PropOp37
 70
     1
102
RTVSPost2010Prop38
140
0.0
102
RTVSPost2010PropOp38
 70
     1
102
RTVSPost2010Prop39
140
1.0
102
RTVSPost2010PropOp39
 70
     1
102
RTVSPost2010Prop40
 90
        0
102
RTVSPost2010PropOp40
 70
     1
102
RTVSPost2010Prop41ColorIndex
 90
       18
102
RTVSPost2010Prop41ColorRGB
 90
        0
102
RTVSPost2010PropOp41
 70
     1
102
RTVSPost2010Prop42
 90
       50
102
RTVSPost2010PropOp42
 70
     1
102
RTVSPost2010Prop43
 90
        3
102
RTVSPost2010PropOp43
 70
     1
102
RTVSPost2010Prop44ColorIndex
 90
        5
102
RTVSPost2010Prop44ColorRGB
 90
      255
102
RTVSPost2010PropOp44
 70
     1
102
RTVSPost2010Prop45
280
     0
102
RTVSPost2010PropOp45
 70
     1
102
RTVSPost2010Prop46
 90
       50
102
RTVSPost2010PropOp46
 70
     1
102
RTVSPost2010Prop47
 90
       50
102
RTVSPost2010PropOp47
 70
     1
102
RTVSPost2010Prop48
 90
       50
102
RTVSPost2010PropOp48
 70
     1
102
RTVSPost2010Prop49
280
     0
102
RTVSPost2010PropOp49
 70
     1
102
RTVSPost2010Prop50
 90
       50
102
RTVSPost2010PropOp50
 70
     1
102
RTVSPost2010Prop51ColorIndex
 90
      256
102
RTVSPost2010Prop51ColorRGB
 90
-16777216
102
RTVSPost2010PropOp51
 70
     0
102
RTVSPost2010Prop52
140
1.0
102
RTVSPost2010PropOp52
 70
     0
102
RTVSPost2010Prop53
 90
        2
102
RTVSPost2010PropOp53
 70
     1
102
RTVSPost2010Prop54
  1
strokes_ogs.tif
102
RTVSPost2010PropOp54
 70
     1
102
RTVSPost2010Prop55
280
     0
102
RTVSPost2010PropOp55
 70
     1
102
RTVSPost2010Prop56
140
1.0
102
RTVSPost2010PropOp56
 70
     1
102
RTVSPost2010Prop57
140
1.0
102
RTVSPost2010PropOp57
 70
     1
102
RTVSPropertyOp0
 70
     1
102
RTVSPropertyOp1
 70
     1
102
RTVSPropertyOp2
 70
     1
102
RTVSPropertyOp3
 70
     1
102
RTVSPropertyOp4
 70
     1
102
RTVSPropertyOp5
 70
     1
102
RTVSPropertyOp6
 70
     1
102
RTVSPropertyOp7
 70
     1
102
RTVSPropertyOp8
 70
     1
102
RTVSPropertyOp9
 70
     1
102
RTVSPropertyOp10
 70
     1
102
RTVSPropertyOp11
 70
     1
102
RTVSPropertyOp12
 70
     1
102
RTVSPropertyOp13
 70
     1
102
RTVSPropertyOp14
 70
     1
102
RTVSPropertyOp15
 70
     1
102
RTVSPropertyOp16
 70
     1
102
RTVSPropertyOp17
 70
     1
102
RTVSPropertyOp18
 70
     1
102
RTVSPropertyOp19
 70
     1
102
RTVSPropertyOp20
 70
     1
102
RTVSPropertyOp21
 70
     1
102
RTVSPropertyOp22
 70
     1
102
RTVSPropertyOp23
 70
     1
102
RTVSPropertyOp24
 70
     1
102
RTVSPropertyOp25
 70
     1
102
RTVSPropertyOp26
 70
     1
102
RTVSPropertyOp27
 70
     1
102
RTVSPropertyOp28
 70
     1
102
RTVSPropertyOp29
 70
     1
102
RTVSPropertyOp30
 70
     1
102
RTVSPropertyOp31
 70
     1
102
RTVSPropertyOp32
 70
     1
102
RTVSPropertyOp33
 70
     1
102
RTVSPropertyOp34
 70
     1
102
RTVSPropertyOp35
 70
     1
102
RTVSPropertyOp36
 70
     1
102
RTVSPropertyOp37
 70
     1
102
RTVSPropertyOp38
 70
     1
102
RTVSPropertyOp39
 70
     1
102
RTVSPropertyOp40
 70
     1
102
RTVSPropertyOp41
 70
     1
102
RTVSPropertyOp42
 70
     1
102
RTVSPropertyOp43
 70
     1
102
RTVSPropertyOp44
 70
     1
102
RTVSPropertyOp45
 70
     1
102
RTVSPropertyOp46
 70
     1
102
RTVSPropertyOp47
 70
     1
102
RTVSPropertyOp48
 70
     1
102
RTVSPropertyOp49
 70
     1
102
RTVSPropertyOp50
 70
     1
102
RTVSPropertyOp51
 70
     0
102
RTVSPropertyOp52
 70
     0
102
RTVSPropertyOp53
 70
     1
102
RTVSPropertyOp54
 70
     1
102
RTVSPropertyOp55
 70
     1
102
RTVSPropertyOp56
 70
     1
102
RTVSPropertyOp57
 70
     1
102
RTVSPropertyOp58
 70
     1
102
RTVSPropertyOp59
 70
     1
102
RTVSPropertyOp60
 70
     1
102
RTVSPropertyOp61
 70
     1
102
RTVSPropertyOp62
 70
     1
  0
XRECORD
  5
A7A1
102
{ACAD_REACTORS
330
A7A0
102
}
330
A7A0
100
AcDbXrecord
280
     1
102
RTVSPost2010Prop28
280
     0
102
RTVSPost2010PropOp28
 70
     1
102
RTVSPost2010Prop29
280
     1
102
RTVSPost2010PropOp29
 70
     1
102
RTVSPost2010Prop30
280
     1
102
RTVSPost2010PropOp30
 70
     1
102
RTVSPost2010Prop31
280
     0
102
RTVSPost2010PropOp31
 70
     1
102
RTVSPost2010Prop32
280
     0
102
RTVSPost2010PropOp32
 70
     1
102
RTVSPost2010Prop33
280
     0
102
RTVSPost2010PropOp33
 70
     1
102
RTVSPost2010Prop34
280
     0
102
RTVSPost2010PropOp34
 70
     1
102
RTVSPost2010Prop35
280
     0
102
RTVSPost2010PropOp35
 70
     1
102
RTVSPost2010Prop36
280
     0
102
RTVSPost2010PropOp36
 70
     1
102
RTVSPost2010Prop37
 90
       50
102
RTVSPost2010PropOp37
 70
     0
102
RTVSPost2010Prop38
140
0.0
102
RTVSPost2010PropOp38
 70
     0
102
RTVSPost2010Prop39
140
1.0
102
RTVSPost2010PropOp39
 70
     0
102
RTVSPost2010Prop40
 90
        0
102
RTVSPost2010PropOp40
 70
     0
102
RTVSPost2010Prop41ColorIndex
 90
       18
102
RTVSPost2010Prop41ColorRGB
 90
        0
102
RTVSPost2010PropOp41
 70
     0
102
RTVSPost2010Prop42
 90
       50
102
RTVSPost2010PropOp42
 70
     0
102
RTVSPost2010Prop43
 90
        3
102
RTVSPost2010PropOp43
 70
     0
102
RTVSPost2010Prop44ColorIndex
 90
        5
102
RTVSPost2010Prop44ColorRGB
 90
      255
102
RTVSPost2010PropOp44
 70
     0
102
RTVSPost2010Prop45
280
     0
102
RTVSPost2010PropOp45
 70
     1
102
RTVSPost2010Prop46
 90
       50
102
RTVSPost2010PropOp46
 70
     0
102
RTVSPost2010Prop47
 90
       50
102
RTVSPost2010PropOp47
 70
     0
102
RTVSPost2010Prop48
 90
       50
102
RTVSPost2010PropOp48
 70
     0
102
RTVSPost2010Prop49
280
     0
102
RTVSPost2010PropOp49
 70
     1
102
RTVSPost2010Prop50
 90
       50
102
RTVSPost2010PropOp50
 70
     0
102
RTVSPost2010Prop51ColorIndex
 90
      256
102
RTVSPost2010Prop51ColorRGB
 90
-16777216
102
RTVSPost2010PropOp51
 70
     0
102
RTVSPost2010Prop52
140
1.0
102
RTVSPost2010PropOp52
 70
     0
102
RTVSPost2010Prop53
 90
        2
102
RTVSPost2010PropOp53
 70
     0
102
RTVSPost2010Prop54
  1
strokes_ogs.tif
102
RTVSPost2010PropOp54
 70
     0
102
RTVSPost2010Prop55
280
     0
102
RTVSPost2010PropOp55
 70
     1
102
RTVSPost2010Prop56
140
1.0
102
RTVSPost2010PropOp56
 70
     0
102
RTVSPost2010Prop57
140
1.0
102
RTVSPost2010PropOp57
 70
     0
102
RTVSPropertyOp0
 70
     0
102
RTVSPropertyOp1
 70
     0
102
RTVSPropertyOp2
 70
     0
102
RTVSPropertyOp3
 70
     0
102
RTVSPropertyOp4
 70
     0
102
RTVSPropertyOp5
 70
     0
102
RTVSPropertyOp6
 70
     0
102
RTVSPropertyOp7
 70
     0
102
RTVSPropertyOp8
 70
     0
102
RTVSPropertyOp9
 70
     0
102
RTVSPropertyOp10
 70
     0
102
RTVSPropertyOp11
 70
     0
102
RTVSPropertyOp12
 70
     0
102
RTVSPropertyOp13
 70
     0
102
RTVSPropertyOp14
 70
     2
102
RTVSPropertyOp15
 70
     0
102
RTVSPropertyOp16
 70
     0
102
RTVSPropertyOp17
 70
     0
102
RTVSPropertyOp18
 70
     0
102
RTVSPropertyOp19
 70
     0
102
RTVSPropertyOp20
 70
     0
102
RTVSPropertyOp21
 70
     0
102
RTVSPropertyOp22
 70
     0
102
RTVSPropertyOp23
 70
     0
102
RTVSPropertyOp24
 70
     0
102
RTVSPropertyOp25
 70
     0
102
RTVSPropertyOp26
 70
     0
102
RTVSPropertyOp27
 70
     0
102
RTVSPropertyOp28
 70
     1
102
RTVSPropertyOp29
 70
     1
102
RTVSPropertyOp30
 70
     1
102
RTVSPropertyOp31
 70
     1
102
RTVSPropertyOp32
 70
     1
102
RTVSPropertyOp33
 70
     1
102
RTVSPropertyOp34
 70
     1
102
RTVSPropertyOp35
 70
     1
102
RTVSPropertyOp36
 70
     1
102
RTVSPropertyOp37
 70
     0
102
RTVSPropertyOp38
 70
     0
102
RTVSPropertyOp39
 70
     0
102
RTVSPropertyOp40
 70
     0
102
RTVSPropertyOp41
 70
     0
102
RTVSPropertyOp42
 70
     0
102
RTVSPropertyOp43
 70
     0
102
RTVSPropertyOp44
 70
     0
102
RTVSPropertyOp45
 70
     1
102
RTVSPropertyOp46
 70
     0
102
RTVSPropertyOp47
 70
     0
102
RTVSPropertyOp48
 70
     0
102
RTVSPropertyOp49
 70
     1
102
RTVSPropertyOp50
 70
     0
102
RTVSPropertyOp51
 70
     0
102
RTVSPropertyOp52
 70
     0
102
RTVSPropertyOp53
 70
     0
102
RTVSPropertyOp54
 70
     0
102
RTVSPropertyOp55
 70
     1
102
RTVSPropertyOp56
 70
     0
102
RTVSPropertyOp57
 70
     0
102
RTVSPropertyOp58
 70
     0
102
RTVSPropertyOp59
 70
     0
102
RTVSPropertyOp60
 70
     0
102
RTVSPropertyOp61
 70
     0
102
RTVSPropertyOp62
 70
     0
  0
XRECORD
  5
A78F
102
{ACAD_REACTORS
330
A78E
102
}
330
A78E
100
AcDbXrecord
280
     1
102
RTVSPost2010Prop28
280
     0
102
RTVSPost2010PropOp28
 70
     1
102
RTVSPost2010Prop29
280
     1
102
RTVSPost2010PropOp29
 70
     1
102
RTVSPost2010Prop30
280
     1
102
RTVSPost2010PropOp30
 70
     1
102
RTVSPost2010Prop31
280
     0
102
RTVSPost2010PropOp31
 70
     1
102
RTVSPost2010Prop32
280
     0
102
RTVSPost2010PropOp32
 70
     1
102
RTVSPost2010Prop33
280
     0
102
RTVSPost2010PropOp33
 70
     1
102
RTVSPost2010Prop34
280
     0
102
RTVSPost2010PropOp34
 70
     1
102
RTVSPost2010Prop35
280
     0
102
RTVSPost2010PropOp35
 70
     1
102
RTVSPost2010Prop36
280
     0
102
RTVSPost2010PropOp36
 70
     1
102
RTVSPost2010Prop37
 90
       50
102
RTVSPost2010PropOp37
 70
     1
102
RTVSPost2010Prop38
140
0.0
102
RTVSPost2010PropOp38
 70
     1
102
RTVSPost2010Prop39
140
1.0
102
RTVSPost2010PropOp39
 70
     1
102
RTVSPost2010Prop40
 90
        0
102
RTVSPost2010PropOp40
 70
     1
102
RTVSPost2010Prop41ColorIndex
 90
       18
102
RTVSPost2010Prop41ColorRGB
 90
        0
102
RTVSPost2010PropOp41
 70
     1
102
RTVSPost2010Prop42
 90
       50
102
RTVSPost2010PropOp42
 70
     1
102
RTVSPost2010Prop43
 90
        3
102
RTVSPost2010PropOp43
 70
     1
102
RTVSPost2010Prop44ColorIndex
 90
        5
102
RTVSPost2010Prop44ColorRGB
 90
      255
102
RTVSPost2010PropOp44
 70
     1
102
RTVSPost2010Prop45
280
     0
102
RTVSPost2010PropOp45
 70
     1
102
RTVSPost2010Prop46
 90
       50
102
RTVSPost2010PropOp46
 70
     1
102
RTVSPost2010Prop47
 90
       50
102
RTVSPost2010PropOp47
 70
     1
102
RTVSPost2010Prop48
 90
       50
102
RTVSPost2010PropOp48
 70
     1
102
RTVSPost2010Prop49
280
     0
102
RTVSPost2010PropOp49
 70
     1
102
RTVSPost2010Prop50
 90
       50
102
RTVSPost2010PropOp50
 70
     1
102
RTVSPost2010Prop51ColorIndex
 90
      256
102
RTVSPost2010Prop51ColorRGB
 90
-16777216
102
RTVSPost2010PropOp51
 70
     0
102
RTVSPost2010Prop52
140
1.0
102
RTVSPost2010PropOp52
 70
     0
102
RTVSPost2010Prop53
 90
        2
102
RTVSPost2010PropOp53
 70
     1
102
RTVSPost2010Prop54
  1
strokes_ogs.tif
102
RTVSPost2010PropOp54
 70
     1
102
RTVSPost2010Prop55
280
     0
102
RTVSPost2010PropOp55
 70
     1
102
RTVSPost2010Prop56
140
1.0
102
RTVSPost2010PropOp56
 70
     1
102
RTVSPost2010Prop57
140
1.0
102
RTVSPost2010PropOp57
 70
     1
102
RTVSPropertyOp0
 70
     1
102
RTVSPropertyOp1
 70
     1
102
RTVSPropertyOp2
 70
     1
102
RTVSPropertyOp3
 70
     1
102
RTVSPropertyOp4
 70
     1
102
RTVSPropertyOp5
 70
     1
102
RTVSPropertyOp6
 70
     1
102
RTVSPropertyOp7
 70
     1
102
RTVSPropertyOp8
 70
     1
102
RTVSPropertyOp9
 70
     1
102
RTVSPropertyOp10
 70
     1
102
RTVSPropertyOp11
 70
     1
102
RTVSPropertyOp12
 70
     1
102
RTVSPropertyOp13
 70
     1
102
RTVSPropertyOp14
 70
     1
102
RTVSPropertyOp15
 70
     1
102
RTVSPropertyOp16
 70
     1
102
RTVSPropertyOp17
 70
     1
102
RTVSPropertyOp18
 70
     1
102
RTVSPropertyOp19
 70
     1
102
RTVSPropertyOp20
 70
     1
102
RTVSPropertyOp21
 70
     1
102
RTVSPropertyOp22
 70
     1
102
RTVSPropertyOp23
 70
     1
102
RTVSPropertyOp24
 70
     1
102
RTVSPropertyOp25
 70
     1
102
RTVSPropertyOp26
 70
     1
102
RTVSPropertyOp27
 70
     1
102
RTVSPropertyOp28
 70
     1
102
RTVSPropertyOp29
 70
     1
102
RTVSPropertyOp30
 70
     1
102
RTVSPropertyOp31
 70
     1
102
RTVSPropertyOp32
 70
     1
102
RTVSPropertyOp33
 70
     1
102
RTVSPropertyOp34
 70
     1
102
RTVSPropertyOp35
 70
     1
102
RTVSPropertyOp36
 70
     1
102
RTVSPropertyOp37
 70
     1
102
RTVSPropertyOp38
 70
     1
102
RTVSPropertyOp39
 70
     1
102
RTVSPropertyOp40
 70
     1
102
RTVSPropertyOp41
 70
     1
102
RTVSPropertyOp42
 70
     1
102
RTVSPropertyOp43
 70
     1
102
RTVSPropertyOp44
 70
     1
102
RTVSPropertyOp45
 70
     1
102
RTVSPropertyOp46
 70
     1
102
RTVSPropertyOp47
 70
     1
102
RTVSPropertyOp48
 70
     1
102
RTVSPropertyOp49
 70
     1
102
RTVSPropertyOp50
 70
     1
102
RTVSPropertyOp51
 70
     0
102
RTVSPropertyOp52
 70
     0
102
RTVSPropertyOp53
 70
     1
102
RTVSPropertyOp54
 70
     1
102
RTVSPropertyOp55
 70
     1
102
RTVSPropertyOp56
 70
     1
102
RTVSPropertyOp57
 70
     1
102
RTVSPropertyOp58
 70
     1
102
RTVSPropertyOp59
 70
     1
102
RTVSPropertyOp60
 70
     1
102
RTVSPropertyOp61
 70
     1
102
RTVSPropertyOp62
 70
     1
  0
XRECORD
  5
A773
102
{ACAD_REACTORS
330
A772
102
}
330
A772
100
AcDbXrecord
280
     1
102
RTVSPost2010Prop28
280
     0
102
RTVSPost2010PropOp28
 70
     1
102
RTVSPost2010Prop29
280
     1
102
RTVSPost2010PropOp29
 70
     1
102
RTVSPost2010Prop30
280
     1
102
RTVSPost2010PropOp30
 70
     1
102
RTVSPost2010Prop31
280
     0
102
RTVSPost2010PropOp31
 70
     1
102
RTVSPost2010Prop32
280
     0
102
RTVSPost2010PropOp32
 70
     1
102
RTVSPost2010Prop33
280
     0
102
RTVSPost2010PropOp33
 70
     1
102
RTVSPost2010Prop34
280
     0
102
RTVSPost2010PropOp34
 70
     1
102
RTVSPost2010Prop35
280
     0
102
RTVSPost2010PropOp35
 70
     1
102
RTVSPost2010Prop36
280
     0
102
RTVSPost2010PropOp36
 70
     1
102
RTVSPost2010Prop37
 90
       50
102
RTVSPost2010PropOp37
 70
     1
102
RTVSPost2010Prop38
140
0.0
102
RTVSPost2010PropOp38
 70
     1
102
RTVSPost2010Prop39
140
1.0
102
RTVSPost2010PropOp39
 70
     1
102
RTVSPost2010Prop40
 90
        0
102
RTVSPost2010PropOp40
 70
     1
102
RTVSPost2010Prop41ColorIndex
 90
       18
102
RTVSPost2010Prop41ColorRGB
 90
        0
102
RTVSPost2010PropOp41
 70
     1
102
RTVSPost2010Prop42
 90
       50
102
RTVSPost2010PropOp42
 70
     1
102
RTVSPost2010Prop43
 90
        3
102
RTVSPost2010PropOp43
 70
     1
102
RTVSPost2010Prop44ColorIndex
 90
        5
102
RTVSPost2010Prop44ColorRGB
 90
      255
102
RTVSPost2010PropOp44
 70
     1
102
RTVSPost2010Prop45
280
     0
102
RTVSPost2010PropOp45
 70
     1
102
RTVSPost2010Prop46
 90
       50
102
RTVSPost2010PropOp46
 70
     1
102
RTVSPost2010Prop47
 90
       50
102
RTVSPost2010PropOp47
 70
     1
102
RTVSPost2010Prop48
 90
       50
102
RTVSPost2010PropOp48
 70
     1
102
RTVSPost2010Prop49
280
     0
102
RTVSPost2010PropOp49
 70
     1
102
RTVSPost2010Prop50
 90
       50
102
RTVSPost2010PropOp50
 70
     1
102
RTVSPost2010Prop51ColorIndex
 90
      256
102
RTVSPost2010Prop51ColorRGB
 90
-16777216
102
RTVSPost2010PropOp51
 70
     0
102
RTVSPost2010Prop52
140
1.0
102
RTVSPost2010PropOp52
 70
     0
102
RTVSPost2010Prop53
 90
        2
102
RTVSPost2010PropOp53
 70
     1
102
RTVSPost2010Prop54
  1
strokes_ogs.tif
102
RTVSPost2010PropOp54
 70
     1
102
RTVSPost2010Prop55
280
     0
102
RTVSPost2010PropOp55
 70
     1
102
RTVSPost2010Prop56
140
1.0
102
RTVSPost2010PropOp56
 70
     1
102
RTVSPost2010Prop57
140
1.0
102
RTVSPost2010PropOp57
 70
     1
102
RTVSPropertyOp0
 70
     1
102
RTVSPropertyOp1
 70
     1
102
RTVSPropertyOp2
 70
     1
102
RTVSPropertyOp3
 70
     1
102
RTVSPropertyOp4
 70
     1
102
RTVSPropertyOp5
 70
     1
102
RTVSPropertyOp6
 70
     1
102
RTVSPropertyOp7
 70
     1
102
RTVSPropertyOp8
 70
     1
102
RTVSPropertyOp9
 70
     1
102
RTVSPropertyOp10
 70
     1
102
RTVSPropertyOp11
 70
     1
102
RTVSPropertyOp12
 70
     1
102
RTVSPropertyOp13
 70
     1
102
RTVSPropertyOp14
 70
     1
102
RTVSPropertyOp15
 70
     1
102
RTVSPropertyOp16
 70
     1
102
RTVSPropertyOp17
 70
     1
102
RTVSPropertyOp18
 70
     1
102
RTVSPropertyOp19
 70
     1
102
RTVSPropertyOp20
 70
     1
102
RTVSPropertyOp21
 70
     1
102
RTVSPropertyOp22
 70
     1
102
RTVSPropertyOp23
 70
     1
102
RTVSPropertyOp24
 70
     1
102
RTVSPropertyOp25
 70
     1
102
RTVSPropertyOp26
 70
     1
102
RTVSPropertyOp27
 70
     1
102
RTVSPropertyOp28
 70
     1
102
RTVSPropertyOp29
 70
     1
102
RTVSPropertyOp30
 70
     1
102
RTVSPropertyOp31
 70
     1
102
RTVSPropertyOp32
 70
     1
102
RTVSPropertyOp33
 70
     1
102
RTVSPropertyOp34
 70
     1
102
RTVSPropertyOp35
 70
     1
102
RTVSPropertyOp36
 70
     1
102
RTVSPropertyOp37
 70
     1
102
RTVSPropertyOp38
 70
     1
102
RTVSPropertyOp39
 70
     1
102
RTVSPropertyOp40
 70
     1
102
RTVSPropertyOp41
 70
     1
102
RTVSPropertyOp42
 70
     1
102
RTVSPropertyOp43
 70
     1
102
RTVSPropertyOp44
 70
     1
102
RTVSPropertyOp45
 70
     1
102
RTVSPropertyOp46
 70
     1
102
RTVSPropertyOp47
 70
     1
102
RTVSPropertyOp48
 70
     1
102
RTVSPropertyOp49
 70
     1
102
RTVSPropertyOp50
 70
     1
102
RTVSPropertyOp51
 70
     0
102
RTVSPropertyOp52
 70
     0
102
RTVSPropertyOp53
 70
     1
102
RTVSPropertyOp54
 70
     1
102
RTVSPropertyOp55
 70
     1
102
RTVSPropertyOp56
 70
     1
102
RTVSPropertyOp57
 70
     1
102
RTVSPropertyOp58
 70
     1
102
RTVSPropertyOp59
 70
     1
102
RTVSPropertyOp60
 70
     1
102
RTVSPropertyOp61
 70
     1
102
RTVSPropertyOp62
 70
     1
  0
XRECORD
  5
A775
102
{ACAD_REACTORS
330
A774
102
}
330
A774
100
AcDbXrecord
280
     1
102
RTVSPost2010Prop28
280
     0
102
RTVSPost2010PropOp28
 70
     1
102
RTVSPost2010Prop29
280
     1
102
RTVSPost2010PropOp29
 70
     1
102
RTVSPost2010Prop30
280
     1
102
RTVSPost2010PropOp30
 70
     1
102
RTVSPost2010Prop31
280
     0
102
RTVSPost2010PropOp31
 70
     1
102
RTVSPost2010Prop32
280
     0
102
RTVSPost2010PropOp32
 70
     1
102
RTVSPost2010Prop33
280
     0
102
RTVSPost2010PropOp33
 70
     1
102
RTVSPost2010Prop34
280
     0
102
RTVSPost2010PropOp34
 70
     1
102
RTVSPost2010Prop35
280
     0
102
RTVSPost2010PropOp35
 70
     1
102
RTVSPost2010Prop36
280
     0
102
RTVSPost2010PropOp36
 70
     1
102
RTVSPost2010Prop37
 90
       50
102
RTVSPost2010PropOp37
 70
     1
102
RTVSPost2010Prop38
140
0.0
102
RTVSPost2010PropOp38
 70
     1
102
RTVSPost2010Prop39
140
1.0
102
RTVSPost2010PropOp39
 70
     1
102
RTVSPost2010Prop40
 90
        0
102
RTVSPost2010PropOp40
 70
     1
102
RTVSPost2010Prop41ColorIndex
 90
       18
102
RTVSPost2010Prop41ColorRGB
 90
        0
102
RTVSPost2010PropOp41
 70
     1
102
RTVSPost2010Prop42
 90
       50
102
RTVSPost2010PropOp42
 70
     1
102
RTVSPost2010Prop43
 90
        3
102
RTVSPost2010PropOp43
 70
     1
102
RTVSPost2010Prop44ColorIndex
 90
        5
102
RTVSPost2010Prop44ColorRGB
 90
      255
102
RTVSPost2010PropOp44
 70
     1
102
RTVSPost2010Prop45
280
     0
102
RTVSPost2010PropOp45
 70
     1
102
RTVSPost2010Prop46
 90
       50
102
RTVSPost2010PropOp46
 70
     1
102
RTVSPost2010Prop47
 90
       50
102
RTVSPost2010PropOp47
 70
     1
102
RTVSPost2010Prop48
 90
       50
102
RTVSPost2010PropOp48
 70
     1
102
RTVSPost2010Prop49
280
     0
102
RTVSPost2010PropOp49
 70
     1
102
RTVSPost2010Prop50
 90
       50
102
RTVSPost2010PropOp50
 70
     1
102
RTVSPost2010Prop51ColorIndex
 90
      256
102
RTVSPost2010Prop51ColorRGB
 90
-16777216
102
RTVSPost2010PropOp51
 70
     0
102
RTVSPost2010Prop52
140
1.0
102
RTVSPost2010PropOp52
 70
     0
102
RTVSPost2010Prop53
 90
        2
102
RTVSPost2010PropOp53
 70
     1
102
RTVSPost2010Prop54
  1
strokes_ogs.tif
102
RTVSPost2010PropOp54
 70
     1
102
RTVSPost2010Prop55
280
     0
102
RTVSPost2010PropOp55
 70
     1
102
RTVSPost2010Prop56
140
1.0
102
RTVSPost2010PropOp56
 70
     1
102
RTVSPost2010Prop57
140
1.0
102
RTVSPost2010PropOp57
 70
     1
102
RTVSPropertyOp0
 70
     1
102
RTVSPropertyOp1
 70
     1
102
RTVSPropertyOp2
 70
     1
102
RTVSPropertyOp3
 70
     1
102
RTVSPropertyOp4
 70
     1
102
RTVSPropertyOp5
 70
     1
102
RTVSPropertyOp6
 70
     1
102
RTVSPropertyOp7
 70
     1
102
RTVSPropertyOp8
 70
     1
102
RTVSPropertyOp9
 70
     1
102
RTVSPropertyOp10
 70
     1
102
RTVSPropertyOp11
 70
     1
102
RTVSPropertyOp12
 70
     1
102
RTVSPropertyOp13
 70
     1
102
RTVSPropertyOp14
 70
     1
102
RTVSPropertyOp15
 70
     1
102
RTVSPropertyOp16
 70
     1
102
RTVSPropertyOp17
 70
     1
102
RTVSPropertyOp18
 70
     1
102
RTVSPropertyOp19
 70
     1
102
RTVSPropertyOp20
 70
     1
102
RTVSPropertyOp21
 70
     1
102
RTVSPropertyOp22
 70
     1
102
RTVSPropertyOp23
 70
     1
102
RTVSPropertyOp24
 70
     1
102
RTVSPropertyOp25
 70
     1
102
RTVSPropertyOp26
 70
     1
102
RTVSPropertyOp27
 70
     1
102
RTVSPropertyOp28
 70
     1
102
RTVSPropertyOp29
 70
     1
102
RTVSPropertyOp30
 70
     1
102
RTVSPropertyOp31
 70
     1
102
RTVSPropertyOp32
 70
     1
102
RTVSPropertyOp33
 70
     1
102
RTVSPropertyOp34
 70
     1
102
RTVSPropertyOp35
 70
     1
102
RTVSPropertyOp36
 70
     1
102
RTVSPropertyOp37
 70
     1
102
RTVSPropertyOp38
 70
     1
102
RTVSPropertyOp39
 70
     1
102
RTVSPropertyOp40
 70
     1
102
RTVSPropertyOp41
 70
     1
102
RTVSPropertyOp42
 70
     1
102
RTVSPropertyOp43
 70
     1
102
RTVSPropertyOp44
 70
     1
102
RTVSPropertyOp45
 70
     1
102
RTVSPropertyOp46
 70
     1
102
RTVSPropertyOp47
 70
     1
102
RTVSPropertyOp48
 70
     1
102
RTVSPropertyOp49
 70
     1
102
RTVSPropertyOp50
 70
     1
102
RTVSPropertyOp51
 70
     0
102
RTVSPropertyOp52
 70
     0
102
RTVSPropertyOp53
 70
     1
102
RTVSPropertyOp54
 70
     1
102
RTVSPropertyOp55
 70
     1
102
RTVSPropertyOp56
 70
     1
102
RTVSPropertyOp57
 70
     1
102
RTVSPropertyOp58
 70
     1
102
RTVSPropertyOp59
 70
     1
102
RTVSPropertyOp60
 70
     1
102
RTVSPropertyOp61
 70
     1
102
RTVSPropertyOp62
 70
     1
  0
XRECORD
  5
A777
102
{ACAD_REACTORS
330
A776
102
}
330
A776
100
AcDbXrecord
280
     1
102
RTVSPost2010Prop28
280
     0
102
RTVSPost2010PropOp28
 70
     1
102
RTVSPost2010Prop29
280
     1
102
RTVSPost2010PropOp29
 70
     1
102
RTVSPost2010Prop30
280
     1
102
RTVSPost2010PropOp30
 70
     1
102
RTVSPost2010Prop31
280
     0
102
RTVSPost2010PropOp31
 70
     1
102
RTVSPost2010Prop32
280
     0
102
RTVSPost2010PropOp32
 70
     1
102
RTVSPost2010Prop33
280
     0
102
RTVSPost2010PropOp33
 70
     1
102
RTVSPost2010Prop34
280
     0
102
RTVSPost2010PropOp34
 70
     1
102
RTVSPost2010Prop35
280
     0
102
RTVSPost2010PropOp35
 70
     1
102
RTVSPost2010Prop36
280
     0
102
RTVSPost2010PropOp36
 70
     1
102
RTVSPost2010Prop37
 90
       50
102
RTVSPost2010PropOp37
 70
     1
102
RTVSPost2010Prop38
140
0.0
102
RTVSPost2010PropOp38
 70
     1
102
RTVSPost2010Prop39
140
1.0
102
RTVSPost2010PropOp39
 70
     1
102
RTVSPost2010Prop40
 90
        0
102
RTVSPost2010PropOp40
 70
     1
102
RTVSPost2010Prop41ColorIndex
 90
       18
102
RTVSPost2010Prop41ColorRGB
 90
        0
102
RTVSPost2010PropOp41
 70
     1
102
RTVSPost2010Prop42
 90
       50
102
RTVSPost2010PropOp42
 70
     1
102
RTVSPost2010Prop43
 90
        3
102
RTVSPost2010PropOp43
 70
     1
102
RTVSPost2010Prop44ColorIndex
 90
        5
102
RTVSPost2010Prop44ColorRGB
 90
      255
102
RTVSPost2010PropOp44
 70
     1
102
RTVSPost2010Prop45
280
     0
102
RTVSPost2010PropOp45
 70
     1
102
RTVSPost2010Prop46
 90
       50
102
RTVSPost2010PropOp46
 70
     1
102
RTVSPost2010Prop47
 90
       50
102
RTVSPost2010PropOp47
 70
     1
102
RTVSPost2010Prop48
 90
       50
102
RTVSPost2010PropOp48
 70
     1
102
RTVSPost2010Prop49
280
     0
102
RTVSPost2010PropOp49
 70
     1
102
RTVSPost2010Prop50
 90
       50
102
RTVSPost2010PropOp50
 70
     1
102
RTVSPost2010Prop51ColorIndex
 90
      256
102
RTVSPost2010Prop51ColorRGB
 90
-16777216
102
RTVSPost2010PropOp51
 70
     0
102
RTVSPost2010Prop52
140
1.0
102
RTVSPost2010PropOp52
 70
     0
102
RTVSPost2010Prop53
 90
        2
102
RTVSPost2010PropOp53
 70
     1
102
RTVSPost2010Prop54
  1
strokes_ogs.tif
102
RTVSPost2010PropOp54
 70
     1
102
RTVSPost2010Prop55
280
     0
102
RTVSPost2010PropOp55
 70
     1
102
RTVSPost2010Prop56
140
1.0
102
RTVSPost2010PropOp56
 70
     1
102
RTVSPost2010Prop57
140
1.0
102
RTVSPost2010PropOp57
 70
     1
102
RTVSPropertyOp0
 70
     1
102
RTVSPropertyOp1
 70
     1
102
RTVSPropertyOp2
 70
     1
102
RTVSPropertyOp3
 70
     1
102
RTVSPropertyOp4
 70
     1
102
RTVSPropertyOp5
 70
     1
102
RTVSPropertyOp6
 70
     1
102
RTVSPropertyOp7
 70
     1
102
RTVSPropertyOp8
 70
     1
102
RTVSPropertyOp9
 70
     1
102
RTVSPropertyOp10
 70
     1
102
RTVSPropertyOp11
 70
     1
102
RTVSPropertyOp12
 70
     1
102
RTVSPropertyOp13
 70
     1
102
RTVSPropertyOp14
 70
     1
102
RTVSPropertyOp15
 70
     1
102
RTVSPropertyOp16
 70
     1
102
RTVSPropertyOp17
 70
     1
102
RTVSPropertyOp18
 70
     1
102
RTVSPropertyOp19
 70
     1
102
RTVSPropertyOp20
 70
     1
102
RTVSPropertyOp21
 70
     1
102
RTVSPropertyOp22
 70
     1
102
RTVSPropertyOp23
 70
     1
102
RTVSPropertyOp24
 70
     1
102
RTVSPropertyOp25
 70
     1
102
RTVSPropertyOp26
 70
     1
102
RTVSPropertyOp27
 70
     1
102
RTVSPropertyOp28
 70
     1
102
RTVSPropertyOp29
 70
     1
102
RTVSPropertyOp30
 70
     1
102
RTVSPropertyOp31
 70
     1
102
RTVSPropertyOp32
 70
     1
102
RTVSPropertyOp33
 70
     1
102
RTVSPropertyOp34
 70
     1
102
RTVSPropertyOp35
 70
     1
102
RTVSPropertyOp36
 70
     1
102
RTVSPropertyOp37
 70
     1
102
RTVSPropertyOp38
 70
     1
102
RTVSPropertyOp39
 70
     1
102
RTVSPropertyOp40
 70
     1
102
RTVSPropertyOp41
 70
     1
102
RTVSPropertyOp42
 70
     1
102
RTVSPropertyOp43
 70
     1
102
RTVSPropertyOp44
 70
     1
102
RTVSPropertyOp45
 70
     1
102
RTVSPropertyOp46
 70
     1
102
RTVSPropertyOp47
 70
     1
102
RTVSPropertyOp48
 70
     1
102
RTVSPropertyOp49
 70
     1
102
RTVSPropertyOp50
 70
     1
102
RTVSPropertyOp51
 70
     0
102
RTVSPropertyOp52
 70
     0
102
RTVSPropertyOp53
 70
     1
102
RTVSPropertyOp54
 70
     1
102
RTVSPropertyOp55
 70
     1
102
RTVSPropertyOp56
 70
     1
102
RTVSPropertyOp57
 70
     1
102
RTVSPropertyOp58
 70
     1
102
RTVSPropertyOp59
 70
     1
102
RTVSPropertyOp60
 70
     1
102
RTVSPropertyOp61
 70
     1
102
RTVSPropertyOp62
 70
     1
  0
XRECORD
  5
A779
102
{ACAD_REACTORS
330
A778
102
}
330
A778
100
AcDbXrecord
280
     1
102
RTVSPost2010Prop28
280
     0
102
RTVSPost2010PropOp28
 70
     1
102
RTVSPost2010Prop29
280
     1
102
RTVSPost2010PropOp29
 70
     1
102
RTVSPost2010Prop30
280
     1
102
RTVSPost2010PropOp30
 70
     1
102
RTVSPost2010Prop31
280
     0
102
RTVSPost2010PropOp31
 70
     1
102
RTVSPost2010Prop32
280
     0
102
RTVSPost2010PropOp32
 70
     1
102
RTVSPost2010Prop33
280
     0
102
RTVSPost2010PropOp33
 70
     1
102
RTVSPost2010Prop34
280
     0
102
RTVSPost2010PropOp34
 70
     1
102
RTVSPost2010Prop35
280
     0
102
RTVSPost2010PropOp35
 70
     1
102
RTVSPost2010Prop36
280
     0
102
RTVSPost2010PropOp36
 70
     1
102
RTVSPost2010Prop37
 90
       50
102
RTVSPost2010PropOp37
 70
     1
102
RTVSPost2010Prop38
140
0.0
102
RTVSPost2010PropOp38
 70
     1
102
RTVSPost2010Prop39
140
1.0
102
RTVSPost2010PropOp39
 70
     1
102
RTVSPost2010Prop40
 90
        0
102
RTVSPost2010PropOp40
 70
     1
102
RTVSPost2010Prop41ColorIndex
 90
       18
102
RTVSPost2010Prop41ColorRGB
 90
        0
102
RTVSPost2010PropOp41
 70
     1
102
RTVSPost2010Prop42
 90
       50
102
RTVSPost2010PropOp42
 70
     1
102
RTVSPost2010Prop43
 90
        3
102
RTVSPost2010PropOp43
 70
     1
102
RTVSPost2010Prop44ColorIndex
 90
        5
102
RTVSPost2010Prop44ColorRGB
 90
      255
102
RTVSPost2010PropOp44
 70
     1
102
RTVSPost2010Prop45
280
     0
102
RTVSPost2010PropOp45
 70
     1
102
RTVSPost2010Prop46
 90
       50
102
RTVSPost2010PropOp46
 70
     1
102
RTVSPost2010Prop47
 90
       50
102
RTVSPost2010PropOp47
 70
     1
102
RTVSPost2010Prop48
 90
       50
102
RTVSPost2010PropOp48
 70
     1
102
RTVSPost2010Prop49
280
     0
102
RTVSPost2010PropOp49
 70
     1
102
RTVSPost2010Prop50
 90
       50
102
RTVSPost2010PropOp50
 70
     1
102
RTVSPost2010Prop51ColorIndex
 90
      256
102
RTVSPost2010Prop51ColorRGB
 90
-16777216
102
RTVSPost2010PropOp51
 70
     0
102
RTVSPost2010Prop52
140
1.0
102
RTVSPost2010PropOp52
 70
     0
102
RTVSPost2010Prop53
 90
        2
102
RTVSPost2010PropOp53
 70
     1
102
RTVSPost2010Prop54
  1
strokes_ogs.tif
102
RTVSPost2010PropOp54
 70
     1
102
RTVSPost2010Prop55
280
     0
102
RTVSPost2010PropOp55
 70
     1
102
RTVSPost2010Prop56
140
1.0
102
RTVSPost2010PropOp56
 70
     1
102
RTVSPost2010Prop57
140
1.0
102
RTVSPost2010PropOp57
 70
     1
102
RTVSPropertyOp0
 70
     1
102
RTVSPropertyOp1
 70
     1
102
RTVSPropertyOp2
 70
     1
102
RTVSPropertyOp3
 70
     1
102
RTVSPropertyOp4
 70
     1
102
RTVSPropertyOp5
 70
     1
102
RTVSPropertyOp6
 70
     1
102
RTVSPropertyOp7
 70
     1
102
RTVSPropertyOp8
 70
     1
102
RTVSPropertyOp9
 70
     1
102
RTVSPropertyOp10
 70
     1
102
RTVSPropertyOp11
 70
     1
102
RTVSPropertyOp12
 70
     1
102
RTVSPropertyOp13
 70
     1
102
RTVSPropertyOp14
 70
     1
102
RTVSPropertyOp15
 70
     1
102
RTVSPropertyOp16
 70
     1
102
RTVSPropertyOp17
 70
     1
102
RTVSPropertyOp18
 70
     1
102
RTVSPropertyOp19
 70
     1
102
RTVSPropertyOp20
 70
     1
102
RTVSPropertyOp21
 70
     1
102
RTVSPropertyOp22
 70
     1
102
RTVSPropertyOp23
 70
     1
102
RTVSPropertyOp24
 70
     1
102
RTVSPropertyOp25
 70
     1
102
RTVSPropertyOp26
 70
     1
102
RTVSPropertyOp27
 70
     1
102
RTVSPropertyOp28
 70
     1
102
RTVSPropertyOp29
 70
     1
102
RTVSPropertyOp30
 70
     1
102
RTVSPropertyOp31
 70
     1
102
RTVSPropertyOp32
 70
     1
102
RTVSPropertyOp33
 70
     1
102
RTVSPropertyOp34
 70
     1
102
RTVSPropertyOp35
 70
     1
102
RTVSPropertyOp36
 70
     1
102
RTVSPropertyOp37
 70
     1
102
RTVSPropertyOp38
 70
     1
102
RTVSPropertyOp39
 70
     1
102
RTVSPropertyOp40
 70
     1
102
RTVSPropertyOp41
 70
     1
102
RTVSPropertyOp42
 70
     1
102
RTVSPropertyOp43
 70
     1
102
RTVSPropertyOp44
 70
     1
102
RTVSPropertyOp45
 70
     1
102
RTVSPropertyOp46
 70
     1
102
RTVSPropertyOp47
 70
     1
102
RTVSPropertyOp48
 70
     1
102
RTVSPropertyOp49
 70
     1
102
RTVSPropertyOp50
 70
     1
102
RTVSPropertyOp51
 70
     0
102
RTVSPropertyOp52
 70
     0
102
RTVSPropertyOp53
 70
     1
102
RTVSPropertyOp54
 70
     1
102
RTVSPropertyOp55
 70
     1
102
RTVSPropertyOp56
 70
     1
102
RTVSPropertyOp57
 70
     1
102
RTVSPropertyOp58
 70
     1
102
RTVSPropertyOp59
 70
     1
102
RTVSPropertyOp60
 70
     1
102
RTVSPropertyOp61
 70
     1
102
RTVSPropertyOp62
 70
     1
  0
XRECORD
  5
A781
102
{ACAD_REACTORS
330
A780
102
}
330
A780
100
AcDbXrecord
280
     1
102
RTVSPost2010Prop28
280
     0
102
RTVSPost2010PropOp28
 70
     1
102
RTVSPost2010Prop29
280
     1
102
RTVSPost2010PropOp29
 70
     1
102
RTVSPost2010Prop30
280
     1
102
RTVSPost2010PropOp30
 70
     1
102
RTVSPost2010Prop31
280
     0
102
RTVSPost2010PropOp31
 70
     1
102
RTVSPost2010Prop32
280
     0
102
RTVSPost2010PropOp32
 70
     1
102
RTVSPost2010Prop33
280
     0
102
RTVSPost2010PropOp33
 70
     1
102
RTVSPost2010Prop34
280
     0
102
RTVSPost2010PropOp34
 70
     1
102
RTVSPost2010Prop35
280
     0
102
RTVSPost2010PropOp35
 70
     1
102
RTVSPost2010Prop36
280
     0
102
RTVSPost2010PropOp36
 70
     1
102
RTVSPost2010Prop37
 90
       50
102
RTVSPost2010PropOp37
 70
     1
102
RTVSPost2010Prop38
140
0.0
102
RTVSPost2010PropOp38
 70
     1
102
RTVSPost2010Prop39
140
1.0
102
RTVSPost2010PropOp39
 70
     1
102
RTVSPost2010Prop40
 90
        0
102
RTVSPost2010PropOp40
 70
     1
102
RTVSPost2010Prop41ColorIndex
 90
       18
102
RTVSPost2010Prop41ColorRGB
 90
        0
102
RTVSPost2010PropOp41
 70
     1
102
RTVSPost2010Prop42
 90
       50
102
RTVSPost2010PropOp42
 70
     1
102
RTVSPost2010Prop43
 90
        3
102
RTVSPost2010PropOp43
 70
     1
102
RTVSPost2010Prop44ColorIndex
 90
        5
102
RTVSPost2010Prop44ColorRGB
 90
      255
102
RTVSPost2010PropOp44
 70
     1
102
RTVSPost2010Prop45
280
     0
102
RTVSPost2010PropOp45
 70
     1
102
RTVSPost2010Prop46
 90
       50
102
RTVSPost2010PropOp46
 70
     1
102
RTVSPost2010Prop47
 90
       50
102
RTVSPost2010PropOp47
 70
     1
102
RTVSPost2010Prop48
 90
       50
102
RTVSPost2010PropOp48
 70
     1
102
RTVSPost2010Prop49
280
     0
102
RTVSPost2010PropOp49
 70
     1
102
RTVSPost2010Prop50
 90
       50
102
RTVSPost2010PropOp50
 70
     1
102
RTVSPost2010Prop51ColorIndex
 90
      256
102
RTVSPost2010Prop51ColorRGB
 90
-16777216
102
RTVSPost2010PropOp51
 70
     0
102
RTVSPost2010Prop52
140
1.0
102
RTVSPost2010PropOp52
 70
     0
102
RTVSPost2010Prop53
 90
        2
102
RTVSPost2010PropOp53
 70
     1
102
RTVSPost2010Prop54
  1
strokes_ogs.tif
102
RTVSPost2010PropOp54
 70
     1
102
RTVSPost2010Prop55
280
     0
102
RTVSPost2010PropOp55
 70
     1
102
RTVSPost2010Prop56
140
1.0
102
RTVSPost2010PropOp56
 70
     1
102
RTVSPost2010Prop57
140
1.0
102
RTVSPost2010PropOp57
 70
     1
102
RTVSPropertyOp0
 70
     1
102
RTVSPropertyOp1
 70
     1
102
RTVSPropertyOp2
 70
     1
102
RTVSPropertyOp3
 70
     1
102
RTVSPropertyOp4
 70
     1
102
RTVSPropertyOp5
 70
     1
102
RTVSPropertyOp6
 70
     1
102
RTVSPropertyOp7
 70
     1
102
RTVSPropertyOp8
 70
     1
102
RTVSPropertyOp9
 70
     1
102
RTVSPropertyOp10
 70
     1
102
RTVSPropertyOp11
 70
     1
102
RTVSPropertyOp12
 70
     1
102
RTVSPropertyOp13
 70
     1
102
RTVSPropertyOp14
 70
     1
102
RTVSPropertyOp15
 70
     1
102
RTVSPropertyOp16
 70
     1
102
RTVSPropertyOp17
 70
     1
102
RTVSPropertyOp18
 70
     1
102
RTVSPropertyOp19
 70
     1
102
RTVSPropertyOp20
 70
     1
102
RTVSPropertyOp21
 70
     1
102
RTVSPropertyOp22
 70
     1
102
RTVSPropertyOp23
 70
     1
102
RTVSPropertyOp24
 70
     1
102
RTVSPropertyOp25
 70
     1
102
RTVSPropertyOp26
 70
     1
102
RTVSPropertyOp27
 70
     1
102
RTVSPropertyOp28
 70
     1
102
RTVSPropertyOp29
 70
     1
102
RTVSPropertyOp30
 70
     1
102
RTVSPropertyOp31
 70
     1
102
RTVSPropertyOp32
 70
     1
102
RTVSPropertyOp33
 70
     1
102
RTVSPropertyOp34
 70
     1
102
RTVSPropertyOp35
 70
     1
102
RTVSPropertyOp36
 70
     1
102
RTVSPropertyOp37
 70
     1
102
RTVSPropertyOp38
 70
     1
102
RTVSPropertyOp39
 70
     1
102
RTVSPropertyOp40
 70
     1
102
RTVSPropertyOp41
 70
     1
102
RTVSPropertyOp42
 70
     1
102
RTVSPropertyOp43
 70
     1
102
RTVSPropertyOp44
 70
     1
102
RTVSPropertyOp45
 70
     1
102
RTVSPropertyOp46
 70
     1
102
RTVSPropertyOp47
 70
     1
102
RTVSPropertyOp48
 70
     1
102
RTVSPropertyOp49
 70
     1
102
RTVSPropertyOp50
 70
     1
102
RTVSPropertyOp51
 70
     0
102
RTVSPropertyOp52
 70
     0
102
RTVSPropertyOp53
 70
     1
102
RTVSPropertyOp54
 70
     1
102
RTVSPropertyOp55
 70
     1
102
RTVSPropertyOp56
 70
     1
102
RTVSPropertyOp57
 70
     1
102
RTVSPropertyOp58
 70
     1
102
RTVSPropertyOp59
 70
     1
102
RTVSPropertyOp60
 70
     1
102
RTVSPropertyOp61
 70
     1
102
RTVSPropertyOp62
 70
     1
  0
XRECORD
  5
A79D
102
{ACAD_REACTORS
330
A79C
102
}
330
A79C
100
AcDbXrecord
280
     1
102
RTVSPost2010Prop28
280
     0
102
RTVSPost2010PropOp28
 70
     1
102
RTVSPost2010Prop29
280
     1
102
RTVSPost2010PropOp29
 70
     1
102
RTVSPost2010Prop30
280
     1
102
RTVSPost2010PropOp30
 70
     1
102
RTVSPost2010Prop31
280
     0
102
RTVSPost2010PropOp31
 70
     1
102
RTVSPost2010Prop32
280
     0
102
RTVSPost2010PropOp32
 70
     1
102
RTVSPost2010Prop33
280
     0
102
RTVSPost2010PropOp33
 70
     1
102
RTVSPost2010Prop34
280
     0
102
RTVSPost2010PropOp34
 70
     1
102
RTVSPost2010Prop35
280
     0
102
RTVSPost2010PropOp35
 70
     1
102
RTVSPost2010Prop36
280
     0
102
RTVSPost2010PropOp36
 70
     1
102
RTVSPost2010Prop37
 90
       50
102
RTVSPost2010PropOp37
 70
     0
102
RTVSPost2010Prop38
140
0.0
102
RTVSPost2010PropOp38
 70
     0
102
RTVSPost2010Prop39
140
1.0
102
RTVSPost2010PropOp39
 70
     0
102
RTVSPost2010Prop40
 90
        0
102
RTVSPost2010PropOp40
 70
     0
102
RTVSPost2010Prop41ColorIndex
 90
       18
102
RTVSPost2010Prop41ColorRGB
 90
        0
102
RTVSPost2010PropOp41
 70
     0
102
RTVSPost2010Prop42
 90
       50
102
RTVSPost2010PropOp42
 70
     0
102
RTVSPost2010Prop43
 90
        3
102
RTVSPost2010PropOp43
 70
     0
102
RTVSPost2010Prop44ColorIndex
 90
        5
102
RTVSPost2010Prop44ColorRGB
 90
      255
102
RTVSPost2010PropOp44
 70
     0
102
RTVSPost2010Prop45
280
     0
102
RTVSPost2010PropOp45
 70
     1
102
RTVSPost2010Prop46
 90
       50
102
RTVSPost2010PropOp46
 70
     0
102
RTVSPost2010Prop47
 90
       50
102
RTVSPost2010PropOp47
 70
     0
102
RTVSPost2010Prop48
 90
       50
102
RTVSPost2010PropOp48
 70
     0
102
RTVSPost2010Prop49
280
     0
102
RTVSPost2010PropOp49
 70
     1
102
RTVSPost2010Prop50
 90
       50
102
RTVSPost2010PropOp50
 70
     0
102
RTVSPost2010Prop51ColorIndex
 90
      256
102
RTVSPost2010Prop51ColorRGB
 90
-16777216
102
RTVSPost2010PropOp51
 70
     0
102
RTVSPost2010Prop52
140
1.0
102
RTVSPost2010PropOp52
 70
     0
102
RTVSPost2010Prop53
 90
        2
102
RTVSPost2010PropOp53
 70
     0
102
RTVSPost2010Prop54
  1
strokes_ogs.tif
102
RTVSPost2010PropOp54
 70
     0
102
RTVSPost2010Prop55
280
     0
102
RTVSPost2010PropOp55
 70
     1
102
RTVSPost2010Prop56
140
1.0
102
RTVSPost2010PropOp56
 70
     0
102
RTVSPost2010Prop57
140
1.0
102
RTVSPost2010PropOp57
 70
     0
102
RTVSPropertyOp0
 70
     0
102
RTVSPropertyOp1
 70
     0
102
RTVSPropertyOp2
 70
     0
102
RTVSPropertyOp3
 70
     0
102
RTVSPropertyOp4
 70
     0
102
RTVSPropertyOp5
 70
     0
102
RTVSPropertyOp6
 70
     0
102
RTVSPropertyOp7
 70
     0
102
RTVSPropertyOp8
 70
     0
102
RTVSPropertyOp9
 70
     0
102
RTVSPropertyOp10
 70
     0
102
RTVSPropertyOp11
 70
     0
102
RTVSPropertyOp12
 70
     0
102
RTVSPropertyOp13
 70
     0
102
RTVSPropertyOp14
 70
     2
102
RTVSPropertyOp15
 70
     0
102
RTVSPropertyOp16
 70
     0
102
RTVSPropertyOp17
 70
     0
102
RTVSPropertyOp18
 70
     0
102
RTVSPropertyOp19
 70
     0
102
RTVSPropertyOp20
 70
     0
102
RTVSPropertyOp21
 70
     0
102
RTVSPropertyOp22
 70
     0
102
RTVSPropertyOp23
 70
     0
102
RTVSPropertyOp24
 70
     0
102
RTVSPropertyOp25
 70
     0
102
RTVSPropertyOp26
 70
     0
102
RTVSPropertyOp27
 70
     0
102
RTVSPropertyOp28
 70
     1
102
RTVSPropertyOp29
 70
     1
102
RTVSPropertyOp30
 70
     1
102
RTVSPropertyOp31
 70
     1
102
RTVSPropertyOp32
 70
     1
102
RTVSPropertyOp33
 70
     1
102
RTVSPropertyOp34
 70
     1
102
RTVSPropertyOp35
 70
     1
102
RTVSPropertyOp36
 70
     1
102
RTVSPropertyOp37
 70
     0
102
RTVSPropertyOp38
 70
     0
102
RTVSPropertyOp39
 70
     0
102
RTVSPropertyOp40
 70
     0
102
RTVSPropertyOp41
 70
     0
102
RTVSPropertyOp42
 70
     0
102
RTVSPropertyOp43
 70
     0
102
RTVSPropertyOp44
 70
     0
102
RTVSPropertyOp45
 70
     1
102
RTVSPropertyOp46
 70
     0
102
RTVSPropertyOp47
 70
     0
102
RTVSPropertyOp48
 70
     0
102
RTVSPropertyOp49
 70
     1
102
RTVSPropertyOp50
 70
     0
102
RTVSPropertyOp51
 70
     0
102
RTVSPropertyOp52
 70
     0
102
RTVSPropertyOp53
 70
     0
102
RTVSPropertyOp54
 70
     0
102
RTVSPropertyOp55
 70
     1
102
RTVSPropertyOp56
 70
     0
102
RTVSPropertyOp57
 70
     0
102
RTVSPropertyOp58
 70
     0
102
RTVSPropertyOp59
 70
     0
102
RTVSPropertyOp60
 70
     0
102
RTVSPropertyOp61
 70
     0
102
RTVSPropertyOp62
 70
     0
  0
XRECORD
  5
A78D
102
{ACAD_REACTORS
330
A78C
102
}
330
A78C
100
AcDbXrecord
280
     1
102
RTVSPost2010Prop28
280
     0
102
RTVSPost2010PropOp28
 70
     1
102
RTVSPost2010Prop29
280
     1
102
RTVSPost2010PropOp29
 70
     1
102
RTVSPost2010Prop30
280
     1
102
RTVSPost2010PropOp30
 70
     1
102
RTVSPost2010Prop31
280
     0
102
RTVSPost2010PropOp31
 70
     1
102
RTVSPost2010Prop32
280
     0
102
RTVSPost2010PropOp32
 70
     1
102
RTVSPost2010Prop33
280
     0
102
RTVSPost2010PropOp33
 70
     1
102
RTVSPost2010Prop34
280
     0
102
RTVSPost2010PropOp34
 70
     1
102
RTVSPost2010Prop35
280
     0
102
RTVSPost2010PropOp35
 70
     1
102
RTVSPost2010Prop36
280
     0
102
RTVSPost2010PropOp36
 70
     1
102
RTVSPost2010Prop37
 90
       50
102
RTVSPost2010PropOp37
 70
     1
102
RTVSPost2010Prop38
140
0.0
102
RTVSPost2010PropOp38
 70
     1
102
RTVSPost2010Prop39
140
1.0
102
RTVSPost2010PropOp39
 70
     1
102
RTVSPost2010Prop40
 90
        0
102
RTVSPost2010PropOp40
 70
     1
102
RTVSPost2010Prop41ColorIndex
 90
       18
102
RTVSPost2010Prop41ColorRGB
 90
        0
102
RTVSPost2010PropOp41
 70
     1
102
RTVSPost2010Prop42
 90
       50
102
RTVSPost2010PropOp42
 70
     1
102
RTVSPost2010Prop43
 90
        3
102
RTVSPost2010PropOp43
 70
     1
102
RTVSPost2010Prop44ColorIndex
 90
        5
102
RTVSPost2010Prop44ColorRGB
 90
      255
102
RTVSPost2010PropOp44
 70
     1
102
RTVSPost2010Prop45
280
     0
102
RTVSPost2010PropOp45
 70
     1
102
RTVSPost2010Prop46
 90
       50
102
RTVSPost2010PropOp46
 70
     1
102
RTVSPost2010Prop47
 90
       50
102
RTVSPost2010PropOp47
 70
     1
102
RTVSPost2010Prop48
 90
       50
102
RTVSPost2010PropOp48
 70
     1
102
RTVSPost2010Prop49
280
     0
102
RTVSPost2010PropOp49
 70
     1
102
RTVSPost2010Prop50
 90
       50
102
RTVSPost2010PropOp50
 70
     1
102
RTVSPost2010Prop51ColorIndex
 90
      256
102
RTVSPost2010Prop51ColorRGB
 90
-16777216
102
RTVSPost2010PropOp51
 70
     0
102
RTVSPost2010Prop52
140
1.0
102
RTVSPost2010PropOp52
 70
     0
102
RTVSPost2010Prop53
 90
        2
102
RTVSPost2010PropOp53
 70
     1
102
RTVSPost2010Prop54
  1
strokes_ogs.tif
102
RTVSPost2010PropOp54
 70
     1
102
RTVSPost2010Prop55
280
     0
102
RTVSPost2010PropOp55
 70
     1
102
RTVSPost2010Prop56
140
1.0
102
RTVSPost2010PropOp56
 70
     1
102
RTVSPost2010Prop57
140
1.0
102
RTVSPost2010PropOp57
 70
     1
102
RTVSPropertyOp0
 70
     1
102
RTVSPropertyOp1
 70
     1
102
RTVSPropertyOp2
 70
     1
102
RTVSPropertyOp3
 70
     1
102
RTVSPropertyOp4
 70
     1
102
RTVSPropertyOp5
 70
     1
102
RTVSPropertyOp6
 70
     1
102
RTVSPropertyOp7
 70
     1
102
RTVSPropertyOp8
 70
     1
102
RTVSPropertyOp9
 70
     1
102
RTVSPropertyOp10
 70
     1
102
RTVSPropertyOp11
 70
     1
102
RTVSPropertyOp12
 70
     1
102
RTVSPropertyOp13
 70
     1
102
RTVSPropertyOp14
 70
     1
102
RTVSPropertyOp15
 70
     1
102
RTVSPropertyOp16
 70
     1
102
RTVSPropertyOp17
 70
     1
102
RTVSPropertyOp18
 70
     1
102
RTVSPropertyOp19
 70
     1
102
RTVSPropertyOp20
 70
     1
102
RTVSPropertyOp21
 70
     1
102
RTVSPropertyOp22
 70
     1
102
RTVSPropertyOp23
 70
     1
102
RTVSPropertyOp24
 70
     1
102
RTVSPropertyOp25
 70
     1
102
RTVSPropertyOp26
 70
     1
102
RTVSPropertyOp27
 70
     1
102
RTVSPropertyOp28
 70
     1
102
RTVSPropertyOp29
 70
     1
102
RTVSPropertyOp30
 70
     1
102
RTVSPropertyOp31
 70
     1
102
RTVSPropertyOp32
 70
     1
102
RTVSPropertyOp33
 70
     1
102
RTVSPropertyOp34
 70
     1
102
RTVSPropertyOp35
 70
     1
102
RTVSPropertyOp36
 70
     1
102
RTVSPropertyOp37
 70
     1
102
RTVSPropertyOp38
 70
     1
102
RTVSPropertyOp39
 70
     1
102
RTVSPropertyOp40
 70
     1
102
RTVSPropertyOp41
 70
     1
102
RTVSPropertyOp42
 70
     1
102
RTVSPropertyOp43
 70
     1
102
RTVSPropertyOp44
 70
     1
102
RTVSPropertyOp45
 70
     1
102
RTVSPropertyOp46
 70
     1
102
RTVSPropertyOp47
 70
     1
102
RTVSPropertyOp48
 70
     1
102
RTVSPropertyOp49
 70
     1
102
RTVSPropertyOp50
 70
     1
102
RTVSPropertyOp51
 70
     0
102
RTVSPropertyOp52
 70
     0
102
RTVSPropertyOp53
 70
     1
102
RTVSPropertyOp54
 70
     1
102
RTVSPropertyOp55
 70
     1
102
RTVSPropertyOp56
 70
     1
102
RTVSPropertyOp57
 70
     1
102
RTVSPropertyOp58
 70
     1
102
RTVSPropertyOp59
 70
     1
102
RTVSPropertyOp60
 70
     1
102
RTVSPropertyOp61
 70
     1
102
RTVSPropertyOp62
 70
     1
  0
XRECORD
  5
A79F
102
{ACAD_REACTORS
330
A79E
102
}
330
A79E
100
AcDbXrecord
280
     1
102
RTVSPost2010Prop28
280
     0
102
RTVSPost2010PropOp28
 70
     1
102
RTVSPost2010Prop29
280
     1
102
RTVSPost2010PropOp29
 70
     1
102
RTVSPost2010Prop30
280
     1
102
RTVSPost2010PropOp30
 70
     1
102
RTVSPost2010Prop31
280
     0
102
RTVSPost2010PropOp31
 70
     1
102
RTVSPost2010Prop32
280
     0
102
RTVSPost2010PropOp32
 70
     1
102
RTVSPost2010Prop33
280
     0
102
RTVSPost2010PropOp33
 70
     1
102
RTVSPost2010Prop34
280
     0
102
RTVSPost2010PropOp34
 70
     1
102
RTVSPost2010Prop35
280
     0
102
RTVSPost2010PropOp35
 70
     1
102
RTVSPost2010Prop36
280
     0
102
RTVSPost2010PropOp36
 70
     1
102
RTVSPost2010Prop37
 90
       50
102
RTVSPost2010PropOp37
 70
     0
102
RTVSPost2010Prop38
140
0.0
102
RTVSPost2010PropOp38
 70
     0
102
RTVSPost2010Prop39
140
1.0
102
RTVSPost2010PropOp39
 70
     0
102
RTVSPost2010Prop40
 90
        0
102
RTVSPost2010PropOp40
 70
     0
102
RTVSPost2010Prop41ColorIndex
 90
       18
102
RTVSPost2010Prop41ColorRGB
 90
        0
102
RTVSPost2010PropOp41
 70
     0
102
RTVSPost2010Prop42
 90
       50
102
RTVSPost2010PropOp42
 70
     0
102
RTVSPost2010Prop43
 90
        3
102
RTVSPost2010PropOp43
 70
     0
102
RTVSPost2010Prop44ColorIndex
 90
        5
102
RTVSPost2010Prop44ColorRGB
 90
      255
102
RTVSPost2010PropOp44
 70
     0
102
RTVSPost2010Prop45
280
     0
102
RTVSPost2010PropOp45
 70
     1
102
RTVSPost2010Prop46
 90
       50
102
RTVSPost2010PropOp46
 70
     0
102
RTVSPost2010Prop47
 90
       50
102
RTVSPost2010PropOp47
 70
     0
102
RTVSPost2010Prop48
 90
       50
102
RTVSPost2010PropOp48
 70
     0
102
RTVSPost2010Prop49
280
     0
102
RTVSPost2010PropOp49
 70
     1
102
RTVSPost2010Prop50
 90
       50
102
RTVSPost2010PropOp50
 70
     0
102
RTVSPost2010Prop51ColorIndex
 90
      256
102
RTVSPost2010Prop51ColorRGB
 90
-16777216
102
RTVSPost2010PropOp51
 70
     0
102
RTVSPost2010Prop52
140
1.0
102
RTVSPost2010PropOp52
 70
     0
102
RTVSPost2010Prop53
 90
        2
102
RTVSPost2010PropOp53
 70
     0
102
RTVSPost2010Prop54
  1
strokes_ogs.tif
102
RTVSPost2010PropOp54
 70
     0
102
RTVSPost2010Prop55
280
     0
102
RTVSPost2010PropOp55
 70
     1
102
RTVSPost2010Prop56
140
1.0
102
RTVSPost2010PropOp56
 70
     0
102
RTVSPost2010Prop57
140
1.0
102
RTVSPost2010PropOp57
 70
     0
102
RTVSPropertyOp0
 70
     0
102
RTVSPropertyOp1
 70
     0
102
RTVSPropertyOp2
 70
     0
102
RTVSPropertyOp3
 70
     0
102
RTVSPropertyOp4
 70
     0
102
RTVSPropertyOp5
 70
     0
102
RTVSPropertyOp6
 70
     0
102
RTVSPropertyOp7
 70
     0
102
RTVSPropertyOp8
 70
     0
102
RTVSPropertyOp9
 70
     0
102
RTVSPropertyOp10
 70
     0
102
RTVSPropertyOp11
 70
     0
102
RTVSPropertyOp12
 70
     0
102
RTVSPropertyOp13
 70
     0
102
RTVSPropertyOp14
 70
     2
102
RTVSPropertyOp15
 70
     0
102
RTVSPropertyOp16
 70
     0
102
RTVSPropertyOp17
 70
     0
102
RTVSPropertyOp18
 70
     0
102
RTVSPropertyOp19
 70
     0
102
RTVSPropertyOp20
 70
     0
102
RTVSPropertyOp21
 70
     0
102
RTVSPropertyOp22
 70
     0
102
RTVSPropertyOp23
 70
     0
102
RTVSPropertyOp24
 70
     0
102
RTVSPropertyOp25
 70
     0
102
RTVSPropertyOp26
 70
     0
102
RTVSPropertyOp27
 70
     0
102
RTVSPropertyOp28
 70
     1
102
RTVSPropertyOp29
 70
     1
102
RTVSPropertyOp30
 70
     1
102
RTVSPropertyOp31
 70
     1
102
RTVSPropertyOp32
 70
     1
102
RTVSPropertyOp33
 70
     1
102
RTVSPropertyOp34
 70
     1
102
RTVSPropertyOp35
 70
     1
102
RTVSPropertyOp36
 70
     1
102
RTVSPropertyOp37
 70
     0
102
RTVSPropertyOp38
 70
     0
102
RTVSPropertyOp39
 70
     0
102
RTVSPropertyOp40
 70
     0
102
RTVSPropertyOp41
 70
     0
102
RTVSPropertyOp42
 70
     0
102
RTVSPropertyOp43
 70
     0
102
RTVSPropertyOp44
 70
     0
102
RTVSPropertyOp45
 70
     1
102
RTVSPropertyOp46
 70
     0
102
RTVSPropertyOp47
 70
     0
102
RTVSPropertyOp48
 70
     0
102
RTVSPropertyOp49
 70
     1
102
RTVSPropertyOp50
 70
     0
102
RTVSPropertyOp51
 70
     0
102
RTVSPropertyOp52
 70
     0
102
RTVSPropertyOp53
 70
     0
102
RTVSPropertyOp54
 70
     0
102
RTVSPropertyOp55
 70
     1
102
RTVSPropertyOp56
 70
     0
102
RTVSPropertyOp57
 70
     0
102
RTVSPropertyOp58
 70
     0
102
RTVSPropertyOp59
 70
     0
102
RTVSPropertyOp60
 70
     0
102
RTVSPropertyOp61
 70
     0
102
RTVSPropertyOp62
 70
     0
  0
XRECORD
  5
A785
102
{ACAD_REACTORS
330
A784
102
}
330
A784
100
AcDbXrecord
280
     1
102
RTVSPost2010Prop28
280
     0
102
RTVSPost2010PropOp28
 70
     1
102
RTVSPost2010Prop29
280
     1
102
RTVSPost2010PropOp29
 70
     1
102
RTVSPost2010Prop30
280
     1
102
RTVSPost2010PropOp30
 70
     1
102
RTVSPost2010Prop31
280
     0
102
RTVSPost2010PropOp31
 70
     1
102
RTVSPost2010Prop32
280
     0
102
RTVSPost2010PropOp32
 70
     1
102
RTVSPost2010Prop33
280
     0
102
RTVSPost2010PropOp33
 70
     1
102
RTVSPost2010Prop34
280
     0
102
RTVSPost2010PropOp34
 70
     1
102
RTVSPost2010Prop35
280
     0
102
RTVSPost2010PropOp35
 70
     1
102
RTVSPost2010Prop36
280
     0
102
RTVSPost2010PropOp36
 70
     1
102
RTVSPost2010Prop37
 90
       50
102
RTVSPost2010PropOp37
 70
     1
102
RTVSPost2010Prop38
140
0.0
102
RTVSPost2010PropOp38
 70
     1
102
RTVSPost2010Prop39
140
1.0
102
RTVSPost2010PropOp39
 70
     1
102
RTVSPost2010Prop40
 90
        0
102
RTVSPost2010PropOp40
 70
     1
102
RTVSPost2010Prop41ColorIndex
 90
       18
102
RTVSPost2010Prop41ColorRGB
 90
        0
102
RTVSPost2010PropOp41
 70
     1
102
RTVSPost2010Prop42
 90
       50
102
RTVSPost2010PropOp42
 70
     1
102
RTVSPost2010Prop43
 90
        3
102
RTVSPost2010PropOp43
 70
     1
102
RTVSPost2010Prop44ColorIndex
 90
        5
102
RTVSPost2010Prop44ColorRGB
 90
      255
102
RTVSPost2010PropOp44
 70
     1
102
RTVSPost2010Prop45
280
     0
102
RTVSPost2010PropOp45
 70
     1
102
RTVSPost2010Prop46
 90
       50
102
RTVSPost2010PropOp46
 70
     1
102
RTVSPost2010Prop47
 90
       50
102
RTVSPost2010PropOp47
 70
     1
102
RTVSPost2010Prop48
 90
       50
102
RTVSPost2010PropOp48
 70
     1
102
RTVSPost2010Prop49
280
     0
102
RTVSPost2010PropOp49
 70
     1
102
RTVSPost2010Prop50
 90
       50
102
RTVSPost2010PropOp50
 70
     1
102
RTVSPost2010Prop51ColorIndex
 90
      256
102
RTVSPost2010Prop51ColorRGB
 90
-16777216
102
RTVSPost2010PropOp51
 70
     0
102
RTVSPost2010Prop52
140
1.0
102
RTVSPost2010PropOp52
 70
     0
102
RTVSPost2010Prop53
 90
        2
102
RTVSPost2010PropOp53
 70
     1
102
RTVSPost2010Prop54
  1
strokes_ogs.tif
102
RTVSPost2010PropOp54
 70
     1
102
RTVSPost2010Prop55
280
     0
102
RTVSPost2010PropOp55
 70
     1
102
RTVSPost2010Prop56
140
1.0
102
RTVSPost2010PropOp56
 70
     1
102
RTVSPost2010Prop57
140
1.0
102
RTVSPost2010PropOp57
 70
     1
102
RTVSPropertyOp0
 70
     1
102
RTVSPropertyOp1
 70
     1
102
RTVSPropertyOp2
 70
     1
102
RTVSPropertyOp3
 70
     1
102
RTVSPropertyOp4
 70
     1
102
RTVSPropertyOp5
 70
     1
102
RTVSPropertyOp6
 70
     1
102
RTVSPropertyOp7
 70
     1
102
RTVSPropertyOp8
 70
     1
102
RTVSPropertyOp9
 70
     1
102
RTVSPropertyOp10
 70
     1
102
RTVSPropertyOp11
 70
     1
102
RTVSPropertyOp12
 70
     1
102
RTVSPropertyOp13
 70
     1
102
RTVSPropertyOp14
 70
     1
102
RTVSPropertyOp15
 70
     1
102
RTVSPropertyOp16
 70
     1
102
RTVSPropertyOp17
 70
     1
102
RTVSPropertyOp18
 70
     1
102
RTVSPropertyOp19
 70
     1
102
RTVSPropertyOp20
 70
     1
102
RTVSPropertyOp21
 70
     1
102
RTVSPropertyOp22
 70
     1
102
RTVSPropertyOp23
 70
     1
102
RTVSPropertyOp24
 70
     1
102
RTVSPropertyOp25
 70
     1
102
RTVSPropertyOp26
 70
     1
102
RTVSPropertyOp27
 70
     1
102
RTVSPropertyOp28
 70
     1
102
RTVSPropertyOp29
 70
     1
102
RTVSPropertyOp30
 70
     1
102
RTVSPropertyOp31
 70
     1
102
RTVSPropertyOp32
 70
     1
102
RTVSPropertyOp33
 70
     1
102
RTVSPropertyOp34
 70
     1
102
RTVSPropertyOp35
 70
     1
102
RTVSPropertyOp36
 70
     1
102
RTVSPropertyOp37
 70
     1
102
RTVSPropertyOp38
 70
     1
102
RTVSPropertyOp39
 70
     1
102
RTVSPropertyOp40
 70
     1
102
RTVSPropertyOp41
 70
     1
102
RTVSPropertyOp42
 70
     1
102
RTVSPropertyOp43
 70
     1
102
RTVSPropertyOp44
 70
     1
102
RTVSPropertyOp45
 70
     1
102
RTVSPropertyOp46
 70
     1
102
RTVSPropertyOp47
 70
     1
102
RTVSPropertyOp48
 70
     1
102
RTVSPropertyOp49
 70
     1
102
RTVSPropertyOp50
 70
     1
102
RTVSPropertyOp51
 70
     0
102
RTVSPropertyOp52
 70
     0
102
RTVSPropertyOp53
 70
     1
102
RTVSPropertyOp54
 70
     1
102
RTVSPropertyOp55
 70
     1
102
RTVSPropertyOp56
 70
     1
102
RTVSPropertyOp57
 70
     1
102
RTVSPropertyOp58
 70
     1
102
RTVSPropertyOp59
 70
     1
102
RTVSPropertyOp60
 70
     1
102
RTVSPropertyOp61
 70
     1
102
RTVSPropertyOp62
 70
     1
  0
XRECORD
  5
A79B
102
{ACAD_REACTORS
330
A79A
102
}
330
A79A
100
AcDbXrecord
280
     1
102
RTVSPost2010Prop28
280
     0
102
RTVSPost2010PropOp28
 70
     1
102
RTVSPost2010Prop29
280
     1
102
RTVSPost2010PropOp29
 70
     1
102
RTVSPost2010Prop30
280
     1
102
RTVSPost2010PropOp30
 70
     1
102
RTVSPost2010Prop31
280
     0
102
RTVSPost2010PropOp31
 70
     1
102
RTVSPost2010Prop32
280
     0
102
RTVSPost2010PropOp32
 70
     1
102
RTVSPost2010Prop33
280
     0
102
RTVSPost2010PropOp33
 70
     1
102
RTVSPost2010Prop34
280
     0
102
RTVSPost2010PropOp34
 70
     1
102
RTVSPost2010Prop35
280
     0
102
RTVSPost2010PropOp35
 70
     1
102
RTVSPost2010Prop36
280
     0
102
RTVSPost2010PropOp36
 70
     1
102
RTVSPost2010Prop37
 90
       50
102
RTVSPost2010PropOp37
 70
     1
102
RTVSPost2010Prop38
140
0.0
102
RTVSPost2010PropOp38
 70
     1
102
RTVSPost2010Prop39
140
1.0
102
RTVSPost2010PropOp39
 70
     1
102
RTVSPost2010Prop40
 90
        0
102
RTVSPost2010PropOp40
 70
     1
102
RTVSPost2010Prop41ColorIndex
 90
       18
102
RTVSPost2010Prop41ColorRGB
 90
        0
102
RTVSPost2010PropOp41
 70
     1
102
RTVSPost2010Prop42
 90
       50
102
RTVSPost2010PropOp42
 70
     1
102
RTVSPost2010Prop43
 90
        3
102
RTVSPost2010PropOp43
 70
     1
102
RTVSPost2010Prop44ColorIndex
 90
        5
102
RTVSPost2010Prop44ColorRGB
 90
      255
102
RTVSPost2010PropOp44
 70
     1
102
RTVSPost2010Prop45
280
     0
102
RTVSPost2010PropOp45
 70
     1
102
RTVSPost2010Prop46
 90
       50
102
RTVSPost2010PropOp46
 70
     1
102
RTVSPost2010Prop47
 90
       50
102
RTVSPost2010PropOp47
 70
     1
102
RTVSPost2010Prop48
 90
       50
102
RTVSPost2010PropOp48
 70
     1
102
RTVSPost2010Prop49
280
     0
102
RTVSPost2010PropOp49
 70
     1
102
RTVSPost2010Prop50
 90
       50
102
RTVSPost2010PropOp50
 70
     1
102
RTVSPost2010Prop51ColorIndex
 90
      256
102
RTVSPost2010Prop51ColorRGB
 90
-16777216
102
RTVSPost2010PropOp51
 70
     0
102
RTVSPost2010Prop52
140
1.0
102
RTVSPost2010PropOp52
 70
     0
102
RTVSPost2010Prop53
 90
        2
102
RTVSPost2010PropOp53
 70
     1
102
RTVSPost2010Prop54
  1
strokes_ogs.tif
102
RTVSPost2010PropOp54
 70
     1
102
RTVSPost2010Prop55
280
     0
102
RTVSPost2010PropOp55
 70
     1
102
RTVSPost2010Prop56
140
1.0
102
RTVSPost2010PropOp56
 70
     1
102
RTVSPost2010Prop57
140
1.0
102
RTVSPost2010PropOp57
 70
     1
102
RTVSPropertyOp0
 70
     1
102
RTVSPropertyOp1
 70
     1
102
RTVSPropertyOp2
 70
     1
102
RTVSPropertyOp3
 70
     1
102
RTVSPropertyOp4
 70
     1
102
RTVSPropertyOp5
 70
     1
102
RTVSPropertyOp6
 70
     1
102
RTVSPropertyOp7
 70
     1
102
RTVSPropertyOp8
 70
     1
102
RTVSPropertyOp9
 70
     1
102
RTVSPropertyOp10
 70
     1
102
RTVSPropertyOp11
 70
     1
102
RTVSPropertyOp12
 70
     1
102
RTVSPropertyOp13
 70
     1
102
RTVSPropertyOp14
 70
     1
102
RTVSPropertyOp15
 70
     1
102
RTVSPropertyOp16
 70
     1
102
RTVSPropertyOp17
 70
     1
102
RTVSPropertyOp18
 70
     1
102
RTVSPropertyOp19
 70
     1
102
RTVSPropertyOp20
 70
     1
102
RTVSPropertyOp21
 70
     1
102
RTVSPropertyOp22
 70
     1
102
RTVSPropertyOp23
 70
     1
102
RTVSPropertyOp24
 70
     1
102
RTVSPropertyOp25
 70
     1
102
RTVSPropertyOp26
 70
     1
102
RTVSPropertyOp27
 70
     1
102
RTVSPropertyOp28
 70
     1
102
RTVSPropertyOp29
 70
     1
102
RTVSPropertyOp30
 70
     1
102
RTVSPropertyOp31
 70
     1
102
RTVSPropertyOp32
 70
     1
102
RTVSPropertyOp33
 70
     1
102
RTVSPropertyOp34
 70
     1
102
RTVSPropertyOp35
 70
     1
102
RTVSPropertyOp36
 70
     1
102
RTVSPropertyOp37
 70
     1
102
RTVSPropertyOp38
 70
     1
102
RTVSPropertyOp39
 70
     1
102
RTVSPropertyOp40
 70
     1
102
RTVSPropertyOp41
 70
     1
102
RTVSPropertyOp42
 70
     1
102
RTVSPropertyOp43
 70
     1
102
RTVSPropertyOp44
 70
     1
102
RTVSPropertyOp45
 70
     1
102
RTVSPropertyOp46
 70
     1
102
RTVSPropertyOp47
 70
     1
102
RTVSPropertyOp48
 70
     1
102
RTVSPropertyOp49
 70
     1
102
RTVSPropertyOp50
 70
     1
102
RTVSPropertyOp51
 70
     0
102
RTVSPropertyOp52
 70
     0
102
RTVSPropertyOp53
 70
     1
102
RTVSPropertyOp54
 70
     1
102
RTVSPropertyOp55
 70
     1
102
RTVSPropertyOp56
 70
     1
102
RTVSPropertyOp57
 70
     1
102
RTVSPropertyOp58
 70
     1
102
RTVSPropertyOp59
 70
     1
102
RTVSPropertyOp60
 70
     1
102
RTVSPropertyOp61
 70
     1
102
RTVSPropertyOp62
 70
     1
  0
XRECORD
  5
A799
102
{ACAD_REACTORS
330
A798
102
}
330
A798
100
AcDbXrecord
280
     1
102
RTVSPost2010Prop28
280
     0
102
RTVSPost2010PropOp28
 70
     1
102
RTVSPost2010Prop29
280
     1
102
RTVSPost2010PropOp29
 70
     1
102
RTVSPost2010Prop30
280
     1
102
RTVSPost2010PropOp30
 70
     1
102
RTVSPost2010Prop31
280
     0
102
RTVSPost2010PropOp31
 70
     1
102
RTVSPost2010Prop32
280
     0
102
RTVSPost2010PropOp32
 70
     1
102
RTVSPost2010Prop33
280
     0
102
RTVSPost2010PropOp33
 70
     1
102
RTVSPost2010Prop34
280
     0
102
RTVSPost2010PropOp34
 70
     1
102
RTVSPost2010Prop35
280
     0
102
RTVSPost2010PropOp35
 70
     1
102
RTVSPost2010Prop36
280
     0
102
RTVSPost2010PropOp36
 70
     1
102
RTVSPost2010Prop37
 90
       50
102
RTVSPost2010PropOp37
 70
     1
102
RTVSPost2010Prop38
140
0.0
102
RTVSPost2010PropOp38
 70
     1
102
RTVSPost2010Prop39
140
1.0
102
RTVSPost2010PropOp39
 70
     1
102
RTVSPost2010Prop40
 90
        0
102
RTVSPost2010PropOp40
 70
     1
102
RTVSPost2010Prop41ColorIndex
 90
       18
102
RTVSPost2010Prop41ColorRGB
 90
        0
102
RTVSPost2010PropOp41
 70
     1
102
RTVSPost2010Prop42
 90
       50
102
RTVSPost2010PropOp42
 70
     1
102
RTVSPost2010Prop43
 90
        3
102
RTVSPost2010PropOp43
 70
     1
102
RTVSPost2010Prop44ColorIndex
 90
        5
102
RTVSPost2010Prop44ColorRGB
 90
      255
102
RTVSPost2010PropOp44
 70
     1
102
RTVSPost2010Prop45
280
     0
102
RTVSPost2010PropOp45
 70
     1
102
RTVSPost2010Prop46
 90
       50
102
RTVSPost2010PropOp46
 70
     1
102
RTVSPost2010Prop47
 90
       50
102
RTVSPost2010PropOp47
 70
     1
102
RTVSPost2010Prop48
 90
       50
102
RTVSPost2010PropOp48
 70
     1
102
RTVSPost2010Prop49
280
     0
102
RTVSPost2010PropOp49
 70
     1
102
RTVSPost2010Prop50
 90
       50
102
RTVSPost2010PropOp50
 70
     1
102
RTVSPost2010Prop51ColorIndex
 90
      256
102
RTVSPost2010Prop51ColorRGB
 90
-16777216
102
RTVSPost2010PropOp51
 70
     0
102
RTVSPost2010Prop52
140
1.0
102
RTVSPost2010PropOp52
 70
     0
102
RTVSPost2010Prop53
 90
        2
102
RTVSPost2010PropOp53
 70
     1
102
RTVSPost2010Prop54
  1
strokes_ogs.tif
102
RTVSPost2010PropOp54
 70
     1
102
RTVSPost2010Prop55
280
     0
102
RTVSPost2010PropOp55
 70
     1
102
RTVSPost2010Prop56
140
1.0
102
RTVSPost2010PropOp56
 70
     1
102
RTVSPost2010Prop57
140
1.0
102
RTVSPost2010PropOp57
 70
     1
102
RTVSPropertyOp0
 70
     1
102
RTVSPropertyOp1
 70
     1
102
RTVSPropertyOp2
 70
     1
102
RTVSPropertyOp3
 70
     1
102
RTVSPropertyOp4
 70
     1
102
RTVSPropertyOp5
 70
     1
102
RTVSPropertyOp6
 70
     1
102
RTVSPropertyOp7
 70
     1
102
RTVSPropertyOp8
 70
     1
102
RTVSPropertyOp9
 70
     1
102
RTVSPropertyOp10
 70
     1
102
RTVSPropertyOp11
 70
     1
102
RTVSPropertyOp12
 70
     1
102
RTVSPropertyOp13
 70
     1
102
RTVSPropertyOp14
 70
     1
102
RTVSPropertyOp15
 70
     1
102
RTVSPropertyOp16
 70
     1
102
RTVSPropertyOp17
 70
     1
102
RTVSPropertyOp18
 70
     1
102
RTVSPropertyOp19
 70
     1
102
RTVSPropertyOp20
 70
     1
102
RTVSPropertyOp21
 70
     1
102
RTVSPropertyOp22
 70
     1
102
RTVSPropertyOp23
 70
     1
102
RTVSPropertyOp24
 70
     1
102
RTVSPropertyOp25
 70
     1
102
RTVSPropertyOp26
 70
     1
102
RTVSPropertyOp27
 70
     1
102
RTVSPropertyOp28
 70
     1
102
RTVSPropertyOp29
 70
     1
102
RTVSPropertyOp30
 70
     1
102
RTVSPropertyOp31
 70
     1
102
RTVSPropertyOp32
 70
     1
102
RTVSPropertyOp33
 70
     1
102
RTVSPropertyOp34
 70
     1
102
RTVSPropertyOp35
 70
     1
102
RTVSPropertyOp36
 70
     1
102
RTVSPropertyOp37
 70
     1
102
RTVSPropertyOp38
 70
     1
102
RTVSPropertyOp39
 70
     1
102
RTVSPropertyOp40
 70
     1
102
RTVSPropertyOp41
 70
     1
102
RTVSPropertyOp42
 70
     1
102
RTVSPropertyOp43
 70
     1
102
RTVSPropertyOp44
 70
     1
102
RTVSPropertyOp45
 70
     1
102
RTVSPropertyOp46
 70
     1
102
RTVSPropertyOp47
 70
     1
102
RTVSPropertyOp48
 70
     1
102
RTVSPropertyOp49
 70
     1
102
RTVSPropertyOp50
 70
     1
102
RTVSPropertyOp51
 70
     0
102
RTVSPropertyOp52
 70
     0
102
RTVSPropertyOp53
 70
     1
102
RTVSPropertyOp54
 70
     1
102
RTVSPropertyOp55
 70
     1
102
RTVSPropertyOp56
 70
     1
102
RTVSPropertyOp57
 70
     1
102
RTVSPropertyOp58
 70
     1
102
RTVSPropertyOp59
 70
     1
102
RTVSPropertyOp60
 70
     1
102
RTVSPropertyOp61
 70
     1
102
RTVSPropertyOp62
 70
     1
  0
XRECORD
  5
A793
102
{ACAD_REACTORS
330
A792
102
}
330
A792
100
AcDbXrecord
280
     1
102
RTVSPost2010Prop28
280
     0
102
RTVSPost2010PropOp28
 70
     1
102
RTVSPost2010Prop29
280
     1
102
RTVSPost2010PropOp29
 70
     1
102
RTVSPost2010Prop30
280
     1
102
RTVSPost2010PropOp30
 70
     1
102
RTVSPost2010Prop31
280
     0
102
RTVSPost2010PropOp31
 70
     1
102
RTVSPost2010Prop32
280
     0
102
RTVSPost2010PropOp32
 70
     1
102
RTVSPost2010Prop33
280
     0
102
RTVSPost2010PropOp33
 70
     1
102
RTVSPost2010Prop34
280
     0
102
RTVSPost2010PropOp34
 70
     1
102
RTVSPost2010Prop35
280
     0
102
RTVSPost2010PropOp35
 70
     1
102
RTVSPost2010Prop36
280
     0
102
RTVSPost2010PropOp36
 70
     1
102
RTVSPost2010Prop37
 90
       50
102
RTVSPost2010PropOp37
 70
     1
102
RTVSPost2010Prop38
140
0.0
102
RTVSPost2010PropOp38
 70
     1
102
RTVSPost2010Prop39
140
1.0
102
RTVSPost2010PropOp39
 70
     1
102
RTVSPost2010Prop40
 90
        0
102
RTVSPost2010PropOp40
 70
     1
102
RTVSPost2010Prop41ColorIndex
 90
       18
102
RTVSPost2010Prop41ColorRGB
 90
        0
102
RTVSPost2010PropOp41
 70
     1
102
RTVSPost2010Prop42
 90
       50
102
RTVSPost2010PropOp42
 70
     1
102
RTVSPost2010Prop43
 90
        3
102
RTVSPost2010PropOp43
 70
     1
102
RTVSPost2010Prop44ColorIndex
 90
        5
102
RTVSPost2010Prop44ColorRGB
 90
      255
102
RTVSPost2010PropOp44
 70
     1
102
RTVSPost2010Prop45
280
     0
102
RTVSPost2010PropOp45
 70
     1
102
RTVSPost2010Prop46
 90
       50
102
RTVSPost2010PropOp46
 70
     1
102
RTVSPost2010Prop47
 90
       50
102
RTVSPost2010PropOp47
 70
     1
102
RTVSPost2010Prop48
 90
       50
102
RTVSPost2010PropOp48
 70
     1
102
RTVSPost2010Prop49
280
     0
102
RTVSPost2010PropOp49
 70
     1
102
RTVSPost2010Prop50
 90
       50
102
RTVSPost2010PropOp50
 70
     1
102
RTVSPost2010Prop51ColorIndex
 90
      256
102
RTVSPost2010Prop51ColorRGB
 90
-16777216
102
RTVSPost2010PropOp51
 70
     0
102
RTVSPost2010Prop52
140
1.0
102
RTVSPost2010PropOp52
 70
     0
102
RTVSPost2010Prop53
 90
        2
102
RTVSPost2010PropOp53
 70
     1
102
RTVSPost2010Prop54
  1
strokes_ogs.tif
102
RTVSPost2010PropOp54
 70
     1
102
RTVSPost2010Prop55
280
     0
102
RTVSPost2010PropOp55
 70
     1
102
RTVSPost2010Prop56
140
1.0
102
RTVSPost2010PropOp56
 70
     1
102
RTVSPost2010Prop57
140
1.0
102
RTVSPost2010PropOp57
 70
     1
102
RTVSPropertyOp0
 70
     1
102
RTVSPropertyOp1
 70
     1
102
RTVSPropertyOp2
 70
     1
102
RTVSPropertyOp3
 70
     1
102
RTVSPropertyOp4
 70
     1
102
RTVSPropertyOp5
 70
     1
102
RTVSPropertyOp6
 70
     1
102
RTVSPropertyOp7
 70
     1
102
RTVSPropertyOp8
 70
     1
102
RTVSPropertyOp9
 70
     1
102
RTVSPropertyOp10
 70
     1
102
RTVSPropertyOp11
 70
     1
102
RTVSPropertyOp12
 70
     1
102
RTVSPropertyOp13
 70
     1
102
RTVSPropertyOp14
 70
     1
102
RTVSPropertyOp15
 70
     1
102
RTVSPropertyOp16
 70
     1
102
RTVSPropertyOp17
 70
     1
102
RTVSPropertyOp18
 70
     1
102
RTVSPropertyOp19
 70
     1
102
RTVSPropertyOp20
 70
     1
102
RTVSPropertyOp21
 70
     1
102
RTVSPropertyOp22
 70
     1
102
RTVSPropertyOp23
 70
     1
102
RTVSPropertyOp24
 70
     1
102
RTVSPropertyOp25
 70
     1
102
RTVSPropertyOp26
 70
     1
102
RTVSPropertyOp27
 70
     1
102
RTVSPropertyOp28
 70
     1
102
RTVSPropertyOp29
 70
     1
102
RTVSPropertyOp30
 70
     1
102
RTVSPropertyOp31
 70
     1
102
RTVSPropertyOp32
 70
     1
102
RTVSPropertyOp33
 70
     1
102
RTVSPropertyOp34
 70
     1
102
RTVSPropertyOp35
 70
     1
102
RTVSPropertyOp36
 70
     1
102
RTVSPropertyOp37
 70
     1
102
RTVSPropertyOp38
 70
     1
102
RTVSPropertyOp39
 70
     1
102
RTVSPropertyOp40
 70
     1
102
RTVSPropertyOp41
 70
     1
102
RTVSPropertyOp42
 70
     1
102
RTVSPropertyOp43
 70
     1
102
RTVSPropertyOp44
 70
     1
102
RTVSPropertyOp45
 70
     1
102
RTVSPropertyOp46
 70
     1
102
RTVSPropertyOp47
 70
     1
102
RTVSPropertyOp48
 70
     1
102
RTVSPropertyOp49
 70
     1
102
RTVSPropertyOp50
 70
     1
102
RTVSPropertyOp51
 70
     0
102
RTVSPropertyOp52
 70
     0
102
RTVSPropertyOp53
 70
     1
102
RTVSPropertyOp54
 70
     1
102
RTVSPropertyOp55
 70
     1
102
RTVSPropertyOp56
 70
     1
102
RTVSPropertyOp57
 70
     1
102
RTVSPropertyOp58
 70
     1
102
RTVSPropertyOp59
 70
     1
102
RTVSPropertyOp60
 70
     1
102
RTVSPropertyOp61
 70
     1
102
RTVSPropertyOp62
 70
     1
  0
XRECORD
  5
A795
102
{ACAD_REACTORS
330
A794
102
}
330
A794
100
AcDbXrecord
280
     1
102
RTVSPost2010Prop28
280
     0
102
RTVSPost2010PropOp28
 70
     1
102
RTVSPost2010Prop29
280
     1
102
RTVSPost2010PropOp29
 70
     1
102
RTVSPost2010Prop30
280
     1
102
RTVSPost2010PropOp30
 70
     1
102
RTVSPost2010Prop31
280
     0
102
RTVSPost2010PropOp31
 70
     1
102
RTVSPost2010Prop32
280
     0
102
RTVSPost2010PropOp32
 70
     1
102
RTVSPost2010Prop33
280
     0
102
RTVSPost2010PropOp33
 70
     1
102
RTVSPost2010Prop34
280
     0
102
RTVSPost2010PropOp34
 70
     1
102
RTVSPost2010Prop35
280
     0
102
RTVSPost2010PropOp35
 70
     1
102
RTVSPost2010Prop36
280
     0
102
RTVSPost2010PropOp36
 70
     1
102
RTVSPost2010Prop37
 90
       50
102
RTVSPost2010PropOp37
 70
     1
102
RTVSPost2010Prop38
140
0.0
102
RTVSPost2010PropOp38
 70
     1
102
RTVSPost2010Prop39
140
1.0
102
RTVSPost2010PropOp39
 70
     1
102
RTVSPost2010Prop40
 90
        0
102
RTVSPost2010PropOp40
 70
     1
102
RTVSPost2010Prop41ColorIndex
 90
       18
102
RTVSPost2010Prop41ColorRGB
 90
        0
102
RTVSPost2010PropOp41
 70
     1
102
RTVSPost2010Prop42
 90
       50
102
RTVSPost2010PropOp42
 70
     1
102
RTVSPost2010Prop43
 90
        3
102
RTVSPost2010PropOp43
 70
     1
102
RTVSPost2010Prop44ColorIndex
 90
        5
102
RTVSPost2010Prop44ColorRGB
 90
      255
102
RTVSPost2010PropOp44
 70
     1
102
RTVSPost2010Prop45
280
     0
102
RTVSPost2010PropOp45
 70
     1
102
RTVSPost2010Prop46
 90
       50
102
RTVSPost2010PropOp46
 70
     1
102
RTVSPost2010Prop47
 90
       50
102
RTVSPost2010PropOp47
 70
     1
102
RTVSPost2010Prop48
 90
       50
102
RTVSPost2010PropOp48
 70
     1
102
RTVSPost2010Prop49
280
     0
102
RTVSPost2010PropOp49
 70
     1
102
RTVSPost2010Prop50
 90
       50
102
RTVSPost2010PropOp50
 70
     1
102
RTVSPost2010Prop51ColorIndex
 90
      256
102
RTVSPost2010Prop51ColorRGB
 90
-16777216
102
RTVSPost2010PropOp51
 70
     0
102
RTVSPost2010Prop52
140
1.0
102
RTVSPost2010PropOp52
 70
     0
102
RTVSPost2010Prop53
 90
        2
102
RTVSPost2010PropOp53
 70
     1
102
RTVSPost2010Prop54
  1
strokes_ogs.tif
102
RTVSPost2010PropOp54
 70
     1
102
RTVSPost2010Prop55
280
     0
102
RTVSPost2010PropOp55
 70
     1
102
RTVSPost2010Prop56
140
1.0
102
RTVSPost2010PropOp56
 70
     1
102
RTVSPost2010Prop57
140
1.0
102
RTVSPost2010PropOp57
 70
     1
102
RTVSPropertyOp0
 70
     1
102
RTVSPropertyOp1
 70
     1
102
RTVSPropertyOp2
 70
     1
102
RTVSPropertyOp3
 70
     1
102
RTVSPropertyOp4
 70
     1
102
RTVSPropertyOp5
 70
     1
102
RTVSPropertyOp6
 70
     1
102
RTVSPropertyOp7
 70
     1
102
RTVSPropertyOp8
 70
     1
102
RTVSPropertyOp9
 70
     1
102
RTVSPropertyOp10
 70
     1
102
RTVSPropertyOp11
 70
     1
102
RTVSPropertyOp12
 70
     1
102
RTVSPropertyOp13
 70
     1
102
RTVSPropertyOp14
 70
     1
102
RTVSPropertyOp15
 70
     1
102
RTVSPropertyOp16
 70
     1
102
RTVSPropertyOp17
 70
     1
102
RTVSPropertyOp18
 70
     1
102
RTVSPropertyOp19
 70
     1
102
RTVSPropertyOp20
 70
     1
102
RTVSPropertyOp21
 70
     1
102
RTVSPropertyOp22
 70
     1
102
RTVSPropertyOp23
 70
     1
102
RTVSPropertyOp24
 70
     1
102
RTVSPropertyOp25
 70
     1
102
RTVSPropertyOp26
 70
     1
102
RTVSPropertyOp27
 70
     1
102
RTVSPropertyOp28
 70
     1
102
RTVSPropertyOp29
 70
     1
102
RTVSPropertyOp30
 70
     1
102
RTVSPropertyOp31
 70
     1
102
RTVSPropertyOp32
 70
     1
102
RTVSPropertyOp33
 70
     1
102
RTVSPropertyOp34
 70
     1
102
RTVSPropertyOp35
 70
     1
102
RTVSPropertyOp36
 70
     1
102
RTVSPropertyOp37
 70
     1
102
RTVSPropertyOp38
 70
     1
102
RTVSPropertyOp39
 70
     1
102
RTVSPropertyOp40
 70
     1
102
RTVSPropertyOp41
 70
     1
102
RTVSPropertyOp42
 70
     1
102
RTVSPropertyOp43
 70
     1
102
RTVSPropertyOp44
 70
     1
102
RTVSPropertyOp45
 70
     1
102
RTVSPropertyOp46
 70
     1
102
RTVSPropertyOp47
 70
     1
102
RTVSPropertyOp48
 70
     1
102
RTVSPropertyOp49
 70
     1
102
RTVSPropertyOp50
 70
     1
102
RTVSPropertyOp51
 70
     0
102
RTVSPropertyOp52
 70
     0
102
RTVSPropertyOp53
 70
     1
102
RTVSPropertyOp54
 70
     1
102
RTVSPropertyOp55
 70
     1
102
RTVSPropertyOp56
 70
     1
102
RTVSPropertyOp57
 70
     1
102
RTVSPropertyOp58
 70
     1
102
RTVSPropertyOp59
 70
     1
102
RTVSPropertyOp60
 70
     1
102
RTVSPropertyOp61
 70
     1
102
RTVSPropertyOp62
 70
     1
  0
XRECORD
  5
A78B
102
{ACAD_REACTORS
330
A78A
102
}
330
A78A
100
AcDbXrecord
280
     1
102
RTVSPost2010Prop28
280
     0
102
RTVSPost2010PropOp28
 70
     1
102
RTVSPost2010Prop29
280
     1
102
RTVSPost2010PropOp29
 70
     1
102
RTVSPost2010Prop30
280
     1
102
RTVSPost2010PropOp30
 70
     1
102
RTVSPost2010Prop31
280
     0
102
RTVSPost2010PropOp31
 70
     1
102
RTVSPost2010Prop32
280
     0
102
RTVSPost2010PropOp32
 70
     1
102
RTVSPost2010Prop33
280
     0
102
RTVSPost2010PropOp33
 70
     1
102
RTVSPost2010Prop34
280
     0
102
RTVSPost2010PropOp34
 70
     1
102
RTVSPost2010Prop35
280
     0
102
RTVSPost2010PropOp35
 70
     1
102
RTVSPost2010Prop36
280
     0
102
RTVSPost2010PropOp36
 70
     1
102
RTVSPost2010Prop37
 90
       50
102
RTVSPost2010PropOp37
 70
     1
102
RTVSPost2010Prop38
140
0.0
102
RTVSPost2010PropOp38
 70
     1
102
RTVSPost2010Prop39
140
1.0
102
RTVSPost2010PropOp39
 70
     1
102
RTVSPost2010Prop40
 90
        0
102
RTVSPost2010PropOp40
 70
     1
102
RTVSPost2010Prop41ColorIndex
 90
       18
102
RTVSPost2010Prop41ColorRGB
 90
        0
102
RTVSPost2010PropOp41
 70
     1
102
RTVSPost2010Prop42
 90
       50
102
RTVSPost2010PropOp42
 70
     1
102
RTVSPost2010Prop43
 90
        3
102
RTVSPost2010PropOp43
 70
     1
102
RTVSPost2010Prop44ColorIndex
 90
        5
102
RTVSPost2010Prop44ColorRGB
 90
      255
102
RTVSPost2010PropOp44
 70
     1
102
RTVSPost2010Prop45
280
     0
102
RTVSPost2010PropOp45
 70
     1
102
RTVSPost2010Prop46
 90
       50
102
RTVSPost2010PropOp46
 70
     1
102
RTVSPost2010Prop47
 90
       50
102
RTVSPost2010PropOp47
 70
     1
102
RTVSPost2010Prop48
 90
       50
102
RTVSPost2010PropOp48
 70
     1
102
RTVSPost2010Prop49
280
     0
102
RTVSPost2010PropOp49
 70
     1
102
RTVSPost2010Prop50
 90
       50
102
RTVSPost2010PropOp50
 70
     1
102
RTVSPost2010Prop51ColorIndex
 90
      256
102
RTVSPost2010Prop51ColorRGB
 90
-16777216
102
RTVSPost2010PropOp51
 70
     0
102
RTVSPost2010Prop52
140
1.0
102
RTVSPost2010PropOp52
 70
     0
102
RTVSPost2010Prop53
 90
        2
102
RTVSPost2010PropOp53
 70
     1
102
RTVSPost2010Prop54
  1
strokes_ogs.tif
102
RTVSPost2010PropOp54
 70
     1
102
RTVSPost2010Prop55
280
     0
102
RTVSPost2010PropOp55
 70
     1
102
RTVSPost2010Prop56
140
1.0
102
RTVSPost2010PropOp56
 70
     1
102
RTVSPost2010Prop57
140
1.0
102
RTVSPost2010PropOp57
 70
     1
102
RTVSPropertyOp0
 70
     1
102
RTVSPropertyOp1
 70
     1
102
RTVSPropertyOp2
 70
     1
102
RTVSPropertyOp3
 70
     1
102
RTVSPropertyOp4
 70
     1
102
RTVSPropertyOp5
 70
     1
102
RTVSPropertyOp6
 70
     1
102
RTVSPropertyOp7
 70
     1
102
RTVSPropertyOp8
 70
     1
102
RTVSPropertyOp9
 70
     1
102
RTVSPropertyOp10
 70
     1
102
RTVSPropertyOp11
 70
     1
102
RTVSPropertyOp12
 70
     1
102
RTVSPropertyOp13
 70
     1
102
RTVSPropertyOp14
 70
     1
102
RTVSPropertyOp15
 70
     1
102
RTVSPropertyOp16
 70
     1
102
RTVSPropertyOp17
 70
     1
102
RTVSPropertyOp18
 70
     1
102
RTVSPropertyOp19
 70
     1
102
RTVSPropertyOp20
 70
     1
102
RTVSPropertyOp21
 70
     1
102
RTVSPropertyOp22
 70
     1
102
RTVSPropertyOp23
 70
     1
102
RTVSPropertyOp24
 70
     1
102
RTVSPropertyOp25
 70
     1
102
RTVSPropertyOp26
 70
     1
102
RTVSPropertyOp27
 70
     1
102
RTVSPropertyOp28
 70
     1
102
RTVSPropertyOp29
 70
     1
102
RTVSPropertyOp30
 70
     1
102
RTVSPropertyOp31
 70
     1
102
RTVSPropertyOp32
 70
     1
102
RTVSPropertyOp33
 70
     1
102
RTVSPropertyOp34
 70
     1
102
RTVSPropertyOp35
 70
     1
102
RTVSPropertyOp36
 70
     1
102
RTVSPropertyOp37
 70
     1
102
RTVSPropertyOp38
 70
     1
102
RTVSPropertyOp39
 70
     1
102
RTVSPropertyOp40
 70
     1
102
RTVSPropertyOp41
 70
     1
102
RTVSPropertyOp42
 70
     1
102
RTVSPropertyOp43
 70
     1
102
RTVSPropertyOp44
 70
     1
102
RTVSPropertyOp45
 70
     1
102
RTVSPropertyOp46
 70
     1
102
RTVSPropertyOp47
 70
     1
102
RTVSPropertyOp48
 70
     1
102
RTVSPropertyOp49
 70
     1
102
RTVSPropertyOp50
 70
     1
102
RTVSPropertyOp51
 70
     0
102
RTVSPropertyOp52
 70
     0
102
RTVSPropertyOp53
 70
     1
102
RTVSPropertyOp54
 70
     1
102
RTVSPropertyOp55
 70
     1
102
RTVSPropertyOp56
 70
     1
102
RTVSPropertyOp57
 70
     1
102
RTVSPropertyOp58
 70
     1
102
RTVSPropertyOp59
 70
     1
102
RTVSPropertyOp60
 70
     1
102
RTVSPropertyOp61
 70
     1
102
RTVSPropertyOp62
 70
     1
  0
XRECORD
  5
A77F
102
{ACAD_REACTORS
330
A77E
102
}
330
A77E
100
AcDbXrecord
280
     1
102
RTVSPost2010Prop28
280
     0
102
RTVSPost2010PropOp28
 70
     1
102
RTVSPost2010Prop29
280
     1
102
RTVSPost2010PropOp29
 70
     1
102
RTVSPost2010Prop30
280
     1
102
RTVSPost2010PropOp30
 70
     1
102
RTVSPost2010Prop31
280
     0
102
RTVSPost2010PropOp31
 70
     1
102
RTVSPost2010Prop32
280
     0
102
RTVSPost2010PropOp32
 70
     1
102
RTVSPost2010Prop33
280
     0
102
RTVSPost2010PropOp33
 70
     1
102
RTVSPost2010Prop34
280
     0
102
RTVSPost2010PropOp34
 70
     1
102
RTVSPost2010Prop35
280
     0
102
RTVSPost2010PropOp35
 70
     1
102
RTVSPost2010Prop36
280
     0
102
RTVSPost2010PropOp36
 70
     1
102
RTVSPost2010Prop37
 90
       50
102
RTVSPost2010PropOp37
 70
     1
102
RTVSPost2010Prop38
140
0.0
102
RTVSPost2010PropOp38
 70
     1
102
RTVSPost2010Prop39
140
1.0
102
RTVSPost2010PropOp39
 70
     1
102
RTVSPost2010Prop40
 90
        0
102
RTVSPost2010PropOp40
 70
     1
102
RTVSPost2010Prop41ColorIndex
 90
       18
102
RTVSPost2010Prop41ColorRGB
 90
        0
102
RTVSPost2010PropOp41
 70
     1
102
RTVSPost2010Prop42
 90
       50
102
RTVSPost2010PropOp42
 70
     1
102
RTVSPost2010Prop43
 90
        3
102
RTVSPost2010PropOp43
 70
     1
102
RTVSPost2010Prop44ColorIndex
 90
        5
102
RTVSPost2010Prop44ColorRGB
 90
      255
102
RTVSPost2010PropOp44
 70
     1
102
RTVSPost2010Prop45
280
     0
102
RTVSPost2010PropOp45
 70
     1
102
RTVSPost2010Prop46
 90
       50
102
RTVSPost2010PropOp46
 70
     1
102
RTVSPost2010Prop47
 90
       50
102
RTVSPost2010PropOp47
 70
     1
102
RTVSPost2010Prop48
 90
       50
102
RTVSPost2010PropOp48
 70
     1
102
RTVSPost2010Prop49
280
     0
102
RTVSPost2010PropOp49
 70
     1
102
RTVSPost2010Prop50
 90
       50
102
RTVSPost2010PropOp50
 70
     1
102
RTVSPost2010Prop51ColorIndex
 90
      256
102
RTVSPost2010Prop51ColorRGB
 90
-16777216
102
RTVSPost2010PropOp51
 70
     0
102
RTVSPost2010Prop52
140
1.0
102
RTVSPost2010PropOp52
 70
     0
102
RTVSPost2010Prop53
 90
        2
102
RTVSPost2010PropOp53
 70
     1
102
RTVSPost2010Prop54
  1
strokes_ogs.tif
102
RTVSPost2010PropOp54
 70
     1
102
RTVSPost2010Prop55
280
     0
102
RTVSPost2010PropOp55
 70
     1
102
RTVSPost2010Prop56
140
1.0
102
RTVSPost2010PropOp56
 70
     1
102
RTVSPost2010Prop57
140
1.0
102
RTVSPost2010PropOp57
 70
     1
102
RTVSPropertyOp0
 70
     1
102
RTVSPropertyOp1
 70
     1
102
RTVSPropertyOp2
 70
     1
102
RTVSPropertyOp3
 70
     1
102
RTVSPropertyOp4
 70
     1
102
RTVSPropertyOp5
 70
     1
102
RTVSPropertyOp6
 70
     1
102
RTVSPropertyOp7
 70
     1
102
RTVSPropertyOp8
 70
     1
102
RTVSPropertyOp9
 70
     1
102
RTVSPropertyOp10
 70
     1
102
RTVSPropertyOp11
 70
     1
102
RTVSPropertyOp12
 70
     1
102
RTVSPropertyOp13
 70
     1
102
RTVSPropertyOp14
 70
     1
102
RTVSPropertyOp15
 70
     1
102
RTVSPropertyOp16
 70
     1
102
RTVSPropertyOp17
 70
     1
102
RTVSPropertyOp18
 70
     1
102
RTVSPropertyOp19
 70
     1
102
RTVSPropertyOp20
 70
     1
102
RTVSPropertyOp21
 70
     1
102
RTVSPropertyOp22
 70
     1
102
RTVSPropertyOp23
 70
     1
102
RTVSPropertyOp24
 70
     1
102
RTVSPropertyOp25
 70
     1
102
RTVSPropertyOp26
 70
     1
102
RTVSPropertyOp27
 70
     1
102
RTVSPropertyOp28
 70
     1
102
RTVSPropertyOp29
 70
     1
102
RTVSPropertyOp30
 70
     1
102
RTVSPropertyOp31
 70
     1
102
RTVSPropertyOp32
 70
     1
102
RTVSPropertyOp33
 70
     1
102
RTVSPropertyOp34
 70
     1
102
RTVSPropertyOp35
 70
     1
102
RTVSPropertyOp36
 70
     1
102
RTVSPropertyOp37
 70
     1
102
RTVSPropertyOp38
 70
     1
102
RTVSPropertyOp39
 70
     1
102
RTVSPropertyOp40
 70
     1
102
RTVSPropertyOp41
 70
     1
102
RTVSPropertyOp42
 70
     1
102
RTVSPropertyOp43
 70
     1
102
RTVSPropertyOp44
 70
     1
102
RTVSPropertyOp45
 70
     1
102
RTVSPropertyOp46
 70
     1
102
RTVSPropertyOp47
 70
     1
102
RTVSPropertyOp48
 70
     1
102
RTVSPropertyOp49
 70
     1
102
RTVSPropertyOp50
 70
     1
102
RTVSPropertyOp51
 70
     0
102
RTVSPropertyOp52
 70
     0
102
RTVSPropertyOp53
 70
     1
102
RTVSPropertyOp54
 70
     1
102
RTVSPropertyOp55
 70
     1
102
RTVSPropertyOp56
 70
     1
102
RTVSPropertyOp57
 70
     1
102
RTVSPropertyOp58
 70
     1
102
RTVSPropertyOp59
 70
     1
102
RTVSPropertyOp60
 70
     1
102
RTVSPropertyOp61
 70
     1
102
RTVSPropertyOp62
 70
     1
  0
XRECORD
  5
A797
102
{ACAD_REACTORS
330
A796
102
}
330
A796
100
AcDbXrecord
280
     1
102
RTVSPost2010Prop28
280
     0
102
RTVSPost2010PropOp28
 70
     1
102
RTVSPost2010Prop29
280
     1
102
RTVSPost2010PropOp29
 70
     1
102
RTVSPost2010Prop30
280
     1
102
RTVSPost2010PropOp30
 70
     1
102
RTVSPost2010Prop31
280
     0
102
RTVSPost2010PropOp31
 70
     1
102
RTVSPost2010Prop32
280
     0
102
RTVSPost2010PropOp32
 70
     1
102
RTVSPost2010Prop33
280
     0
102
RTVSPost2010PropOp33
 70
     1
102
RTVSPost2010Prop34
280
     0
102
RTVSPost2010PropOp34
 70
     1
102
RTVSPost2010Prop35
280
     0
102
RTVSPost2010PropOp35
 70
     1
102
RTVSPost2010Prop36
280
     0
102
RTVSPost2010PropOp36
 70
     1
102
RTVSPost2010Prop37
 90
       50
102
RTVSPost2010PropOp37
 70
     1
102
RTVSPost2010Prop38
140
0.0
102
RTVSPost2010PropOp38
 70
     1
102
RTVSPost2010Prop39
140
1.0
102
RTVSPost2010PropOp39
 70
     1
102
RTVSPost2010Prop40
 90
        0
102
RTVSPost2010PropOp40
 70
     1
102
RTVSPost2010Prop41ColorIndex
 90
       18
102
RTVSPost2010Prop41ColorRGB
 90
        0
102
RTVSPost2010PropOp41
 70
     1
102
RTVSPost2010Prop42
 90
       50
102
RTVSPost2010PropOp42
 70
     1
102
RTVSPost2010Prop43
 90
        3
102
RTVSPost2010PropOp43
 70
     1
102
RTVSPost2010Prop44ColorIndex
 90
        5
102
RTVSPost2010Prop44ColorRGB
 90
      255
102
RTVSPost2010PropOp44
 70
     1
102
RTVSPost2010Prop45
280
     0
102
RTVSPost2010PropOp45
 70
     1
102
RTVSPost2010Prop46
 90
       50
102
RTVSPost2010PropOp46
 70
     1
102
RTVSPost2010Prop47
 90
       50
102
RTVSPost2010PropOp47
 70
     1
102
RTVSPost2010Prop48
 90
       50
102
RTVSPost2010PropOp48
 70
     1
102
RTVSPost2010Prop49
280
     0
102
RTVSPost2010PropOp49
 70
     1
102
RTVSPost2010Prop50
 90
       50
102
RTVSPost2010PropOp50
 70
     1
102
RTVSPost2010Prop51ColorIndex
 90
      256
102
RTVSPost2010Prop51ColorRGB
 90
-16777216
102
RTVSPost2010PropOp51
 70
     0
102
RTVSPost2010Prop52
140
1.0
102
RTVSPost2010PropOp52
 70
     0
102
RTVSPost2010Prop53
 90
        2
102
RTVSPost2010PropOp53
 70
     1
102
RTVSPost2010Prop54
  1
strokes_ogs.tif
102
RTVSPost2010PropOp54
 70
     1
102
RTVSPost2010Prop55
280
     0
102
RTVSPost2010PropOp55
 70
     1
102
RTVSPost2010Prop56
140
1.0
102
RTVSPost2010PropOp56
 70
     1
102
RTVSPost2010Prop57
140
1.0
102
RTVSPost2010PropOp57
 70
     1
102
RTVSPropertyOp0
 70
     1
102
RTVSPropertyOp1
 70
     1
102
RTVSPropertyOp2
 70
     1
102
RTVSPropertyOp3
 70
     1
102
RTVSPropertyOp4
 70
     1
102
RTVSPropertyOp5
 70
     1
102
RTVSPropertyOp6
 70
     1
102
RTVSPropertyOp7
 70
     1
102
RTVSPropertyOp8
 70
     1
102
RTVSPropertyOp9
 70
     1
102
RTVSPropertyOp10
 70
     1
102
RTVSPropertyOp11
 70
     1
102
RTVSPropertyOp12
 70
     1
102
RTVSPropertyOp13
 70
     1
102
RTVSPropertyOp14
 70
     1
102
RTVSPropertyOp15
 70
     1
102
RTVSPropertyOp16
 70
     1
102
RTVSPropertyOp17
 70
     1
102
RTVSPropertyOp18
 70
     1
102
RTVSPropertyOp19
 70
     1
102
RTVSPropertyOp20
 70
     1
102
RTVSPropertyOp21
 70
     1
102
RTVSPropertyOp22
 70
     1
102
RTVSPropertyOp23
 70
     1
102
RTVSPropertyOp24
 70
     1
102
RTVSPropertyOp25
 70
     1
102
RTVSPropertyOp26
 70
     1
102
RTVSPropertyOp27
 70
     1
102
RTVSPropertyOp28
 70
     1
102
RTVSPropertyOp29
 70
     1
102
RTVSPropertyOp30
 70
     1
102
RTVSPropertyOp31
 70
     1
102
RTVSPropertyOp32
 70
     1
102
RTVSPropertyOp33
 70
     1
102
RTVSPropertyOp34
 70
     1
102
RTVSPropertyOp35
 70
     1
102
RTVSPropertyOp36
 70
     1
102
RTVSPropertyOp37
 70
     1
102
RTVSPropertyOp38
 70
     1
102
RTVSPropertyOp39
 70
     1
102
RTVSPropertyOp40
 70
     1
102
RTVSPropertyOp41
 70
     1
102
RTVSPropertyOp42
 70
     1
102
RTVSPropertyOp43
 70
     1
102
RTVSPropertyOp44
 70
     1
102
RTVSPropertyOp45
 70
     1
102
RTVSPropertyOp46
 70
     1
102
RTVSPropertyOp47
 70
     1
102
RTVSPropertyOp48
 70
     1
102
RTVSPropertyOp49
 70
     1
102
RTVSPropertyOp50
 70
     1
102
RTVSPropertyOp51
 70
     0
102
RTVSPropertyOp52
 70
     0
102
RTVSPropertyOp53
 70
     1
102
RTVSPropertyOp54
 70
     1
102
RTVSPropertyOp55
 70
     1
102
RTVSPropertyOp56
 70
     1
102
RTVSPropertyOp57
 70
     1
102
RTVSPropertyOp58
 70
     1
102
RTVSPropertyOp59
 70
     1
102
RTVSPropertyOp60
 70
     1
102
RTVSPropertyOp61
 70
     1
102
RTVSPropertyOp62
 70
     1
  0
ENDSEC
  0
EOF
