  0
SECTION
  2
HEADER
  9
$ACADVER
  1
AC1015
  9
$ACADMAINTVER
 70
    20
  9
$DWGCODEPAGE
  3
ANSI_932
  9
$INSBASE
 10
0.0
 20
0.0
 30
0.0
  9
$EXTMIN
 10
10.0
 20
9.999999999999998
 30
0.0
  9
$EXTMAX
 10
1134.402674
 20
784.849816
 30
0.0
  9
$LIMMIN
 10
0.0
 20
0.0
  9
$LIMMAX
 10
1227.6
 20
846.2999999999999
  9
$ORTHOMODE
 70
     1
  9
$REGENMODE
 70
     1
  9
$FILLMODE
 70
     1
  9
$QTEXTMODE
 70
     0
  9
$MIRRTEXT
 70
     1
  9
$LTSCALE
 40
20.0
  9
$ATTMODE
 70
     1
  9
$TEXTSIZE
 40
5.0
  9
$TRACEWID
 40
1.0
  9
$TEXTSTYLE
  7
STANDARD
  9
$CLAYER
  8
0
  9
$CELTYPE
  6
BYLAYER
  9
$CECOLOR
 62
   256
  9
$CELTSCALE
 40
1.0
  9
$DISPSILH
 70
     0
  9
$DIMSCALE
 40
1.0
  9
$DIMASZ
 40
3.0
  9
$DIMEXO
 40
1.0
  9
$DIMDLI
 40
10.0
  9
$DIMRND
 40
0.0
  9
$DIMDLE
 40
0.0
  9
$DIMEXE
 40
1.0
  9
$DIMTP
 40
0.0
  9
$DIMTM
 40
0.0
  9
$DIMTXT
 40
2.5
  9
$DIMCEN
 40
0.0
  9
$DIMTSZ
 40
0.0
  9
$DIMTOL
 70
     0
  9
$DIMLIM
 70
     0
  9
$DIMTIH
 70
     0
  9
$DIMTOH
 70
     0
  9
$DIMSE1
 70
     1
  9
$DIMSE2
 70
     1
  9
$DIMTAD
 70
     3
  9
$DIMZIN
 70
     8
  9
$DIMBLK
  1

  9
$DIMASO
 70
     1
  9
$DIMSHO
 70
     1
  9
$DIMPOST
  1

  9
$DIMAPOST
  1

  9
$DIMALT
 70
     0
  9
$DIMALTD
 70
     2
  9
$DIMALTF
 40
25.4
  9
$DIMLFAC
 40
1.0
  9
$DIMTOFL
 70
     1
  9
$DIMTVP
 40
0.0
  9
$DIMTIX
 70
     0
  9
$DIMSOXD
 70
     0
  9
$DIMSAH
 70
     1
  9
$DIMBLK1
  1

  9
$DIMBLK2
  1

  9
$DIMSTYLE
  2
STANDARD
  9
$DIMCLRD
 70
     0
  9
$DIMCLRE
 70
     0
  9
$DIMCLRT
 70
     0
  9
$DIMTFAC
 40
1.0
  9
$DIMGAP
 40
1.0
  9
$DIMJUST
 70
     0
  9
$DIMSD1
 70
     0
  9
$DIMSD2
 70
     0
  9
$DIMTOLJ
 70
     1
  9
$DIMTZIN
 70
     0
  9
$DIMALTZ
 70
     0
  9
$DIMALTTZ
 70
     0
  9
$DIMUPT
 70
     0
  9
$DIMDEC
 70
     4
  9
$DIMTDEC
 70
     4
  9
$DIMALTU
 70
     2
  9
$DIMALTTD
 70
     2
  9
$DIMTXSTY
  7
STANDARD
  9
$DIMAUNIT
 70
     0
  9
$DIMADEC
 70
     0
  9
$DIMALTRND
 40
0.0
  9
$DIMAZIN
 70
     0
  9
$DIMDSEP
 70
    46
  9
$DIMATFIT
 70
     3
  9
$DIMFRAC
 70
     0
  9
$DIMLDRBLK
  1

  9
$DIMLUNIT
 70
     2
  9
$DIMLWD
 70
    -2
  9
$DIMLWE
 70
    -2
  9
$DIMTMOVE
 70
     0
  9
$LUNITS
 70
     2
  9
$LUPREC
 70
     4
  9
$SKETCHINC
 40
1.0
  9
$FILLETRAD
 40
0.0
  9
$AUNITS
 70
     0
  9
$AUPREC
 70
     2
  9
$MENU
  1
.
  9
$ELEVATION
 40
0.0
  9
$PELEVATION
 40
0.0
  9
$THICKNESS
 40
0.0
  9
$LIMCHECK
 70
     0
  9
$CHAMFERA
 40
10.0
  9
$CHAMFERB
 40
10.0
  9
$CHAMFERC
 40
0.0
  9
$CHAMFERD
 40
0.0
  9
$SKPOLY
 70
     0
  9
$TDCREATE
 40
2451233.437638542
  9
$TDUCREATE
 40
2451233.062638542
  9
$TDUPDATE
 40
2457192.665349815
  9
$TDUUPDATE
 40
2457192.290349815
  9
$TDINDWG
 40
0.0000134259
  9
$TDUSRTIMER
 40
0.0000129514
  9
$USRTIMER
 70
     1
  9
$ANGBASE
 50
0.0
  9
$ANGDIR
 70
     0
  9
$PDMODE
 70
     0
  9
$PDSIZE
 40
0.0
  9
$PLINEWID
 40
0.0
  9
$SPLFRAME
 70
     0
  9
$SPLINETYPE
 70
     6
  9
$SPLINESEGS
 70
     8
  9
$HANDSEED
  5
1224B
  9
$SURFTAB1
 70
     6
  9
$SURFTAB2
 70
     6
  9
$SURFTYPE
 70
     6
  9
$SURFU
 70
     6
  9
$SURFV
 70
     6
  9
$UCSBASE
  2

  9
$UCSNAME
  2

  9
$UCSORG
 10
0.0
 20
0.0
 30
0.0
  9
$UCSXDIR
 10
1.0
 20
0.0
 30
0.0
  9
$UCSYDIR
 10
0.0
 20
1.0
 30
0.0
  9
$UCSORTHOREF
  2

  9
$UCSORTHOVIEW
 70
     0
  9
$UCSORGTOP
 10
0.0
 20
0.0
 30
0.0
  9
$UCSORGBOTTOM
 10
0.0
 20
0.0
 30
0.0
  9
$UCSORGLEFT
 10
0.0
 20
0.0
 30
0.0
  9
$UCSORGRIGHT
 10
0.0
 20
0.0
 30
0.0
  9
$UCSORGFRONT
 10
0.0
 20
0.0
 30
0.0
  9
$UCSORGBACK
 10
0.0
 20
0.0
 30
0.0
  9
$PUCSBASE
  2

  9
$PUCSNAME
  2

  9
$PUCSORG
 10
0.0
 20
0.0
 30
0.0
  9
$PUCSXDIR
 10
1.0
 20
0.0
 30
0.0
  9
$PUCSYDIR
 10
0.0
 20
1.0
 30
0.0
  9
$PUCSORTHOREF
  2

  9
$PUCSORTHOVIEW
 70
     0
  9
$PUCSORGTOP
 10
0.0
 20
0.0
 30
0.0
  9
$PUCSORGBOTTOM
 10
0.0
 20
0.0
 30
0.0
  9
$PUCSORGLEFT
 10
0.0
 20
0.0
 30
0.0
  9
$PUCSORGRIGHT
 10
0.0
 20
0.0
 30
0.0
  9
$PUCSORGFRONT
 10
0.0
 20
0.0
 30
0.0
  9
$PUCSORGBACK
 10
0.0
 20
0.0
 30
0.0
  9
$USERI1
 70
     0
  9
$USERI2
 70
     0
  9
$USERI3
 70
     0
  9
$USERI4
 70
     0
  9
$USERI5
 70
     0
  9
$USERR1
 40
0.0
  9
$USERR2
 40
0.0
  9
$USERR3
 40
0.0
  9
$USERR4
 40
0.0
  9
$USERR5
 40
0.0
  9
$WORLDVIEW
 70
     1
  9
$SHADEDGE
 70
     3
  9
$SHADEDIF
 70
    70
  9
$TILEMODE
 70
     1
  9
$MAXACTVP
 70
    16
  9
$PINSBASE
 10
0.0
 20
0.0
 30
0.0
  9
$PLIMCHECK
 70
     0
  9
$PEXTMIN
 10
1.000000000000000E+20
 20
1.000000000000000E+20
 30
1.000000000000000E+20
  9
$PEXTMAX
 10
-1.000000000000000E+20
 20
-1.000000000000000E+20
 30
-1.000000000000000E+20
  9
$PLIMMIN
 10
0.0
 20
0.0
  9
$PLIMMAX
 10
420.0
 20
297.0
  9
$UNITMODE
 70
     0
  9
$VISRETAIN
 70
     0
  9
$PLINEGEN
 70
     0
  9
$PSLTSCALE
 70
     0
  9
$TREEDEPTH
 70
  3020
  9
$CMLSTYLE
  2
STANDARD
  9
$CMLJUST
 70
     0
  9
$CMLSCALE
 40
1.0
  9
$PROXYGRAPHICS
 70
     1
  9
$MEASUREMENT
 70
     0
  9
$CELWEIGHT
370
    -1
  9
$ENDCAPS
280
     0
  9
$JOINSTYLE
280
     0
  9
$LWDISPLAY
290
     0
  9
$INSUNITS
 70
     0
  9
$HYPERLINKBASE
  1

  9
$STYLESHEET
  1

  9
$XEDIT
290
     1
  9
$CEPSNTYPE
380
     0
  9
$PSTYLEMODE
290
     1
  9
$FINGERPRINTGUID
  2
{19E8657E-EAB1-442C-9766-BEA3AD5BD7DE}
  9
$VERSIONGUID
  2
{835E7384-9A0F-43BD-AFE1-3D2B69B989F0}
  9
$EXTNAMES
290
     1
  9
$PSVPSCALE
 40
0.0
  9
$OLESTARTUP
290
     0
  0
ENDSEC
  0
SECTION
  2
CLASSES
  0
CLASS
  1
ACDBDICTIONARYWDFLT
  2
AcDbDictionaryWithDefault
  3
ObjectDBX Classes
 90
        0
280
     0
281
     0
  0
CLASS
  1
ACDBPLACEHOLDER
  2
AcDbPlaceHolder
  3
ObjectDBX Classes
 90
        0
280
     0
281
     0
  0
CLASS
  1
LAYOUT
  2
AcDbLayout
  3
ObjectDBX Classes
 90
        0
280
     0
281
     0
  0
CLASS
  1
DICTIONARYVAR
  2
AcDbDictionaryVar
  3
ObjectDBX Classes
 90
        0
280
     0
281
     0
  0
CLASS
  1
MATERIAL
  2
AcDbMaterial
  3
ObjectDBX Classes
 90
     1153
280
     0
281
     0
  0
CLASS
  1
VISUALSTYLE
  2
AcDbVisualStyle
  3
ObjectDBX Classes
 90
     4095
280
     0
281
     0
  0
CLASS
  1
TABLESTYLE
  2
AcDbTableStyle
  3
ObjectDBX Classes
 90
     4095
280
     0
281
     0
  0
CLASS
  1
SCALE
  2
AcDbScale
  3
ObjectDBX Classes
 90
     1153
280
     0
281
     0
  0
CLASS
  1
MLEADERSTYLE
  2
AcDbMLeaderStyle
  3
ACDB_MLEADERSTYLE_CLASS
 90
     4095
280
     0
281
     0
  0
CLASS
  1
ACDBSECTIONVIEWSTYLE
  2
AcDbSectionViewStyle
  3
ObjectDBX Classes
 90
     1025
280
     0
281
     0
  0
CLASS
  1
ACDBDETAILVIEWSTYLE
  2
AcDbDetailViewStyle
  3
ObjectDBX Classes
 90
     1025
280
     0
281
     0
  0
CLASS
  1
CELLSTYLEMAP
  2
AcDbCellStyleMap
  3
ObjectDBX Classes
 90
     1152
280
     0
281
     0
  0
ENDSEC
  0
SECTION
  2
TABLES
  0
TABLE
  2
VPORT
  5
11E08
330
0
100
AcDbSymbolTable
 70
     1
  0
VPORT
  5
12194
330
11E08
100
AcDbSymbolTableRecord
100
AcDbViewportTableRecord
  2
*ACTIVE
 70
     0
 10
0.0
 20
0.0
 11
1.0
 21
1.0
 12
806.9114163038252
 22
397.4198269221811
 13
0.0
 23
0.0
 14
10.0
 24
10.0
 15
10.0
 25
10.0
 16
0.0
 26
0.0
 36
1.0
 17
0.0
 27
0.0
 37
0.0
 40
783.5418881585337
 41
1.899603698811096
 42
50.0
 43
0.0
 44
0.0
 50
0.0
 51
0.0
 71
     0
 72
   100
 73
     1
 74
     0
 75
     0
 76
     0
 77
     0
 78
     0
281
     0
 65
     1
110
0.0
120
0.0
130
0.0
111
1.0
121
0.0
131
0.0
112
0.0
122
1.0
132
0.0
 79
     0
146
0.0
1001
ACAD_NAV_VCDISPLAY
1070
     3
  0
ENDTAB
  0
TABLE
  2
LTYPE
  5
11E05
330
0
100
AcDbSymbolTable
 70
     4
  0
LTYPE
  5
11E13
330
11E05
100
AcDbSymbolTableRecord
100
AcDbLinetypeTableRecord
  2
BYBLOCK
 70
     0
  3

 72
    65
 73
     0
 40
0.0
  0
LTYPE
  5
11E14
330
11E05
100
AcDbSymbolTableRecord
100
AcDbLinetypeTableRecord
  2
BYLAYER
 70
     0
  3

 72
    65
 73
     0
 40
0.0
  0
LTYPE
  5
11E15
330
11E05
100
AcDbSymbolTableRecord
100
AcDbLinetypeTableRecord
  2
CONTINUOUS
 70
     0
  3
Solid line
 72
    65
 73
     0
 40
0.0
  0
LTYPE
  5
11E23
330
11E05
100
AcDbSymbolTableRecord
100
AcDbLinetypeTableRecord
  2
DASHED
 70
     0
  3
__ __ __ __ __ __ __ __ __ __ __ __ __ __ __ __
 72
    65
 73
     2
 40
0.75
 49
0.5
 74
     0
 49
-0.25
 74
     0
  0
LTYPE
  5
11E24
330
11E05
100
AcDbSymbolTableRecord
100
AcDbLinetypeTableRecord
  2
CENTER
 70
     0
  3
____ _ ____ _ ____ _ ____ _ ____ _ ____ _ ____ 
 72
    65
 73
     4
 40
2.0
 49
1.25
 74
     0
 49
-0.25
 74
     0
 49
0.25
 74
     0
 49
-0.25
 74
     0
  0
LTYPE
  5
11E25
330
11E05
100
AcDbSymbolTableRecord
100
AcDbLinetypeTableRecord
  2
PHANTOM
 70
     0
  3
______  __  __  ______  __  __  ______  __  __ 
 72
    65
 73
     6
 40
2.5
 49
1.25
 74
     0
 49
-0.25
 74
     0
 49
0.25
 74
     0
 49
-0.25
 74
     0
 49
0.25
 74
     0
 49
-0.25
 74
     0
  0
ENDTAB
  0
TABLE
  2
LAYER
  5
11E02
330
0
100
AcDbSymbolTable
 70
     8
  0
LAYER
  5
11E10
102
{ACAD_XDICTIONARY
360
121EF
102
}
330
11E02
100
AcDbSymbolTableRecord
100
AcDbLayerTableRecord
  2
0
 70
     0
 62
     7
  6
CONTINUOUS
370
    -3
390
1219D
  0
LAYER
  5
11E26
102
{ACAD_XDICTIONARY
360
121F1
102
}
330
11E02
100
AcDbSymbolTableRecord
100
AcDbLayerTableRecord
  2
4
 70
     0
 62
     1
  6
CENTER
370
    -3
390
1219D
  0
LAYER
  5
11E27
102
{ACAD_XDICTIONARY
360
121F3
102
}
330
11E02
100
AcDbSymbolTableRecord
100
AcDbLayerTableRecord
  2
5
 70
     0
 62
     6
  6
PHANTOM
370
    -3
390
1219D
  0
LAYER
  5
11E28
102
{ACAD_XDICTIONARY
360
121F5
102
}
330
11E02
100
AcDbSymbolTableRecord
100
AcDbLayerTableRecord
  2
1
 70
     0
 62
     7
  6
CONTINUOUS
370
    -3
390
1219D
  0
LAYER
  5
11E29
102
{ACAD_XDICTIONARY
360
121F7
102
}
330
11E02
100
AcDbSymbolTableRecord
100
AcDbLayerTableRecord
  2
2
 70
     0
 62
     4
  6
CONTINUOUS
370
    -3
390
1219D
  0
LAYER
  5
11E2A
102
{ACAD_XDICTIONARY
360
121F9
102
}
330
11E02
100
AcDbSymbolTableRecord
100
AcDbLayerTableRecord
  2
3
 70
     0
 62
     2
  6
DASHED
370
    -3
390
1219D
  0
LAYER
  5
11E2B
102
{ACAD_XDICTIONARY
360
121FB
102
}
330
11E02
100
AcDbSymbolTableRecord
100
AcDbLayerTableRecord
  2
6
 70
     0
 62
     5
  6
CONTINUOUS
370
    -3
390
1219D
  0
LAYER
  5
11E2C
102
{ACAD_XDICTIONARY
360
121FD
102
}
330
11E02
100
AcDbSymbolTableRecord
100
AcDbLayerTableRecord
  2
7
 70
     0
 62
     3
  6
CONTINUOUS
370
    -3
390
1219D
  0
ENDTAB
  0
TABLE
  2
STYLE
  5
11E03
330
0
100
AcDbSymbolTable
 70
     1
  0
STYLE
  5
11E11
330
11E03
100
AcDbSymbolTableRecord
100
AcDbTextStyleTableRecord
  2
STANDARD
 70
     0
 40
0.0
 41
1.0
 50
0.0
 71
     0
 42
5.0
  3
txt
  4

  0
ENDTAB
  0
TABLE
  2
VIEW
  5
11E06
330
0
100
AcDbSymbolTable
 70
     0
  0
ENDTAB
  0
TABLE
  2
UCS
  5
11E07
330
0
100
AcDbSymbolTable
 70
     0
  0
ENDTAB
  0
TABLE
  2
APPID
  5
11E09
330
0
100
AcDbSymbolTable
 70
     3
  0
APPID
  5
11E12
330
11E09
100
AcDbSymbolTableRecord
100
AcDbRegAppTableRecord
  2
ACAD
 70
     0
  0
APPID
  5
12209
330
11E09
100
AcDbSymbolTableRecord
100
AcDbRegAppTableRecord
  2
ACAD_NAV_VCDISPLAY
 70
     0
  0
APPID
  5
12242
330
11E09
100
AcDbSymbolTableRecord
100
AcDbRegAppTableRecord
  2
ACAD_MLEADERVER
 70
     0
  0
ENDTAB
  0
TABLE
  2
DIMSTYLE
  5
11E0A
330
0
100
AcDbSymbolTable
 70
     1
100
AcDbDimStyleTable
 71
     0
  0
DIMSTYLE
105
11E2E
330
11E0A
100
AcDbSymbolTableRecord
100
AcDbDimStyleTableRecord
  2
STANDARD
 70
     0
 41
3.0
 42
1.0
 43
10.0
 44
1.0
 73
     0
 74
     0
 77
     3
 78
     8
140
2.5
141
0.0
147
1.0
172
     1
173
     1
284
     8
285
     8
286
     8
340
11E11
  0
ENDTAB
  0
TABLE
  2
BLOCK_RECORD
  5
11E01
330
0
100
AcDbSymbolTable
 70
     0
  0
BLOCK_RECORD
  5
11E1E
102
{ACAD_XDICTIONARY
360
12197
102
}
330
11E01
100
AcDbSymbolTableRecord
100
AcDbBlockTableRecord
  2
*MODEL_SPACE
340
121EB
  0
BLOCK_RECORD
  5
11E1A
102
{ACAD_XDICTIONARY
360
12195
102
}
330
11E01
100
AcDbSymbolTableRecord
100
AcDbBlockTableRecord
  2
*PAPER_SPACE
340
121EC
  0
ENDTAB
  0
ENDSEC
  0
SECTION
  2
BLOCKS
  0
BLOCK
  5
11E1F
330
11E1E
100
AcDbEntity
  8
0
100
AcDbBlockBegin
  2
*MODEL_SPACE
 70
     0
 10
0.0
 20
0.0
 30
0.0
  3
*MODEL_SPACE
  1

  0
ENDBLK
  5
11E20
330
11E1E
100
AcDbEntity
  8
0
100
AcDbBlockEnd
  0
BLOCK
  5
11E1B
330
11E1A
100
AcDbEntity
 67
     1
  8
0
100
AcDbBlockBegin
  2
*PAPER_SPACE
 70
     0
 10
0.0
 20
0.0
 30
0.0
  3
*PAPER_SPACE
  1

  0
ENDBLK
  5
11E1C
330
11E1A
100
AcDbEntity
 67
     1
  8
0
100
AcDbBlockEnd
  0
ENDSEC
  0
SECTION
  2
ENTITIES
  0
TEXT
  5
11E36
330
11E1E
100
AcDbEntity
  8
7
  6
Continuous
100
AcDbText
 10
10.0
 20
18.0
 30
0.0
 40
3.0
  1
TYPE No.TM-84-2
100
AcDbText
  0
TEXT
  5
11E37
330
11E1E
100
AcDbEntity
  8
7
  6
Continuous
100
AcDbText
 10
10.0
 20
26.0
 30
0.0
 40
3.0
  1
CODE No.5122
100
AcDbText
  0
TEXT
  5
11E38
330
11E1E
100
AcDbEntity
  8
1
  6
Continuous
100
AcDbText
 10
10.0
 20
10.0
 30
0.0
 40
1.399999999999999
  1
LAYER
100
AcDbText
  0
TEXT
  5
11E39
330
11E1E
100
AcDbEntity
  8
1
  6
Continuous
100
AcDbText
 10
17.97951099999998
 20
10.04873699999998
 30
0.0
 40
1.399999999999999
  1
1
100
AcDbText
  0
TEXT
  5
11E3A
330
11E1E
100
AcDbEntity
  8
7
  6
Continuous
100
AcDbText
 10
29.97951099999999
 20
10.04873699999998
 30
0.0
 40
1.399999999999999
  1
7
100
AcDbText
  0
TEXT
  5
11E3B
330
11E1E
100
AcDbEntity
  8
4
  6
CENTER
100
AcDbText
 10
23.97951099999999
 20
10.04873699999998
 30
0.0
 40
1.399999999999999
  1
4
100
AcDbText
  0
TEXT
  5
11E3C
330
11E1E
100
AcDbEntity
  8
3
  6
DASHED
100
AcDbText
 10
21.979511
 20
10.04873699999998
 30
0.0
 40
1.399999999999999
  1
3
100
AcDbText
  0
TEXT
  5
11E3D
330
11E1E
100
AcDbEntity
  8
2
  6
Continuous
100
AcDbText
 10
19.97951099999999
 20
10.04873699999998
 30
0.0
 40
1.399999999999999
  1
2
100
AcDbText
  0
TEXT
  5
11E3E
330
11E1E
100
AcDbEntity
  8
6
  6
Continuous
100
AcDbText
 10
27.979511
 20
10.04873699999998
 30
0.0
 40
1.399999999999999
  1
6
100
AcDbText
  0
TEXT
  5
11E3F
330
11E1E
100
AcDbEntity
  8
5
  6
PHANTOM
100
AcDbText
 10
25.97951099999999
 20
10.04873699999998
 30
0.0
 40
1.399999999999999
  1
5
100
AcDbText
  0
LINE
  5
11E40
330
11E1E
100
AcDbEntity
  8
1
  6
Continuous
100
AcDbLine
 10
518.8820759999998
 20
554.849816
 30
0.0
 11
537.8820759999999
 21
554.849816
 31
0.0
  0
LINE
  5
11E41
330
11E1E
100
AcDbEntity
  8
1
  6
Continuous
100
AcDbLine
 10
518.8820759999998
 20
577.849816
 30
0.0
 11
565.882076
 21
577.849816
 31
0.0
  0
LINE
  5
11E42
330
11E1E
100
AcDbEntity
  8
1
  6
Continuous
100
AcDbLine
 10
565.882076
 20
579.4498160000001
 30
0.0
 11
1065.882076
 21
579.4498160000001
 31
0.0
  0
LINE
  5
11E43
330
11E1E
100
AcDbEntity
  8
1
  6
Continuous
100
AcDbLine
 10
537.8820759999999
 20
553.249816
 30
0.0
 11
1065.882076
 21
553.249816
 31
0.0
  0
LINE
  5
11E44
330
11E1E
100
AcDbEntity
  8
1
  6
Continuous
100
AcDbLine
 10
1065.882076
 20
553.249816
 30
0.0
 11
1065.882076
 21
579.4498160000001
 31
0.0
  0
ARC
  5
11E45
330
11E1E
100
AcDbEntity
  8
1
  6
Continuous
100
AcDbCircle
 10
518.8820759999998
 20
574.849816
 30
0.0
 40
3.0
100
AcDbArc
 50
90.0
 51
180.0
  0
ARC
  5
11E46
330
11E1E
100
AcDbEntity
  8
1
  6
Continuous
100
AcDbCircle
 10
518.8820759999998
 20
557.849816
 30
0.0
 40
3.0
100
AcDbArc
 50
180.0
 51
270.0
  0
LINE
  5
11E47
330
11E1E
100
AcDbEntity
  8
1
  6
Continuous
100
AcDbLine
 10
537.8820759999999
 20
553.249816
 30
0.0
 11
537.8820759999999
 21
554.849816
 31
0.0
  0
LINE
  5
11E48
330
11E1E
100
AcDbEntity
  8
1
  6
Continuous
100
AcDbLine
 10
565.882076
 20
577.849816
 30
0.0
 11
565.882076
 21
579.4498160000001
 31
0.0
  0
LINE
  5
11E49
330
11E1E
100
AcDbEntity
  8
4
  6
CENTER
100
AcDbLine
 10
510.8820759999998
 20
566.349816
 30
0.0
 11
1070.882075999999
 21
566.349816
 31
0.0
  0
ARC
  5
11E4A
330
11E1E
100
AcDbEntity
  8
1
  6
Continuous
100
AcDbCircle
 10
526.8820759999998
 20
560.849816
 30
0.0
 40
11.0
100
AcDbArc
 50
210.751502
 51
326.944269
  0
LINE
  5
11E4B
330
11E1E
100
AcDbEntity
  8
4
  6
CENTER
100
AcDbLine
 10
540.882076
 20
560.849816
 30
0.0
 11
512.8820759999999
 21
560.849816
 31
0.0
  0
LINE
  5
11E4C
330
11E1E
100
AcDbEntity
  8
4
  6
CENTER
100
AcDbLine
 10
526.8820759999998
 20
574.849816
 30
0.0
 11
526.8820759999998
 21
546.849816
 31
0.0
  0
CIRCLE
  5
11E4D
330
11E1E
100
AcDbEntity
  8
1
  6
Continuous
100
AcDbCircle
 10
535.8820759999998
 20
566.349816
 30
0.0
 40
2.0
  0
ARC
  5
11E4E
330
11E1E
100
AcDbEntity
  8
1
  6
Continuous
100
AcDbCircle
 10
526.8820759999998
 20
560.849816
 30
0.0
 40
11.0
100
AcDbArc
 50
21.052718
 51
41.806413
  0
LINE
  5
11E4F
330
11E1E
100
AcDbEntity
  8
4
  6
CENTER
100
AcDbLine
 10
535.8820759999998
 20
570.349816
 30
0.0
 11
535.8820759999998
 21
562.349816
 31
0.0
  0
CIRCLE
  5
11E50
330
11E1E
100
AcDbEntity
  8
1
  6
Continuous
100
AcDbCircle
 10
526.8820759999998
 20
560.849816
 30
0.0
 40
3.649999999999999
  0
LINE
  5
11E51
330
11E1E
100
AcDbEntity
  8
4
  6
CENTER
100
AcDbLine
 10
547.8820759999998
 20
560.349816
 30
0.0
 11
547.8820759999998
 21
572.349816
 31
0.0
  0
CIRCLE
  5
11E52
330
11E1E
100
AcDbEntity
  8
1
  6
Continuous
100
AcDbCircle
 10
547.8820759999998
 20
566.349816
 30
0.0
 40
3.0
  0
LINE
  5
11E53
330
11E1E
100
AcDbEntity
  8
4
  6
CENTER
100
AcDbLine
 10
671.8820759999998
 20
560.349816
 30
0.0
 11
671.8820759999998
 21
572.349816
 31
0.0
  0
CIRCLE
  5
11E54
330
11E1E
100
AcDbEntity
  8
1
  6
Continuous
100
AcDbCircle
 10
671.8820759999998
 20
566.349816
 30
0.0
 40
3.0
  0
CIRCLE
  5
11E55
330
11E1E
100
AcDbEntity
  8
1
  6
Continuous
100
AcDbCircle
 10
795.882076
 20
566.349816
 30
0.0
 40
3.0
  0
LINE
  5
11E56
330
11E1E
100
AcDbEntity
  8
4
  6
CENTER
100
AcDbLine
 10
795.882076
 20
560.349816
 30
0.0
 11
795.882076
 21
572.349816
 31
0.0
  0
LINE
  5
11E57
330
11E1E
100
AcDbEntity
  8
4
  6
CENTER
100
AcDbLine
 10
919.882076
 20
560.349816
 30
0.0
 11
919.882076
 21
572.349816
 31
0.0
  0
CIRCLE
  5
11E58
330
11E1E
100
AcDbEntity
  8
1
  6
Continuous
100
AcDbCircle
 10
919.882076
 20
566.349816
 30
0.0
 40
3.0
  0
LINE
  5
11E59
330
11E1E
100
AcDbEntity
  8
4
  6
CENTER
100
AcDbLine
 10
1043.882075999998
 20
560.349816
 30
0.0
 11
1043.882075999998
 21
572.349816
 31
0.0
  0
CIRCLE
  5
11E5A
330
11E1E
100
AcDbEntity
  8
1
  6
Continuous
100
AcDbCircle
 10
1043.882075999998
 20
566.349816
 30
0.0
 40
3.0
  0
LINE
  5
11E5B
330
11E1E
100
AcDbEntity
  8
4
  6
CENTER
100
AcDbLine
 10
1028.882075999999
 20
561.849816
 30
0.0
 11
1028.882075999999
 21
570.849816
 31
0.0
  0
CIRCLE
  5
11E5C
330
11E1E
100
AcDbEntity
  8
1
  6
Continuous
100
AcDbCircle
 10
1028.882075999999
 20
566.349816
 30
0.0
 40
2.0
  0
LINE
  5
11E5D
330
11E1E
100
AcDbEntity
  8
1
  6
Continuous
100
AcDbLine
 10
35.4
 20
579.4498160000001
 30
0.0
 11
29.0
 21
579.4498160000001
 31
0.0
  0
LINE
  5
11E5E
330
11E1E
100
AcDbEntity
  8
1
  6
Continuous
100
AcDbLine
 10
37.0
 20
577.849816
 30
0.0
 11
29.0
 21
577.849816
 31
0.0
  0
LINE
  5
11E5F
330
11E1E
100
AcDbEntity
  8
1
  6
Continuous
100
AcDbLine
 10
37.0
 20
577.849816
 30
0.0
 11
37.0
 21
554.849816
 31
0.0
  0
LINE
  5
11E60
330
11E1E
100
AcDbEntity
  8
1
  6
Continuous
100
AcDbLine
 10
37.0
 20
554.849816
 30
0.0
 11
34.39999999999999
 21
554.849816
 31
0.0
  0
LINE
  5
11E61
330
11E1E
100
AcDbEntity
  8
1
  6
Continuous
100
AcDbLine
 10
35.4
 20
553.249816
 30
0.0
 11
34.39999999999999
 21
553.249816
 31
0.0
  0
LINE
  5
11E62
330
11E1E
100
AcDbEntity
  8
1
  6
Continuous
100
AcDbLine
 10
29.0
 20
579.4498160000001
 30
0.0
 11
29.0
 21
577.849816
 31
0.0
  0
LINE
  5
11E63
330
11E1E
100
AcDbEntity
  8
1
  6
Continuous
100
AcDbLine
 10
35.4
 20
577.849816
 30
0.0
 11
35.4
 21
554.849816
 31
0.0
  0
ARC
  5
11E64
330
11E1E
100
AcDbEntity
  8
1
  6
Continuous
100
AcDbCircle
 10
35.4
 20
577.849816
 30
0.0
 40
1.6
100
AcDbArc
 50
0.0
 51
90.0
  0
ARC
  5
11E65
330
11E1E
100
AcDbEntity
  8
1
  6
Continuous
100
AcDbCircle
 10
35.4
 20
554.849816
 30
0.0
 40
1.6
100
AcDbArc
 50
270.0
 51
0.0
  0
LINE
  5
11E66
330
11E1E
100
AcDbEntity
  8
4
  6
CENTER
100
AcDbLine
 10
32.512867
 20
566.349816
 30
0.0
 11
39.43426999999999
 21
566.349816
 31
0.0
  0
LINE
  5
11E67
330
11E1E
100
AcDbEntity
  8
1
  6
Continuous
100
AcDbLine
 10
34.6
 20
576.349816
 30
0.0
 11
34.6
 21
565.599816
 31
0.0
  0
LINE
  5
11E68
330
11E1E
100
AcDbEntity
  8
1
  6
Continuous
100
AcDbLine
 10
27.6
 20
576.349816
 30
0.0
 11
27.6
 21
573.4498160000002
 31
0.0
  0
ARC
  5
11E69
330
11E1E
100
AcDbEntity
  8
1
  6
Continuous
100
AcDbCircle
 10
34.1
 20
555.349816
 30
0.0
 40
0.5
100
AcDbArc
 50
306.8698979999999
 51
0.0
  0
LINE
  5
11E6A
330
11E1E
100
AcDbEntity
  8
1
  6
Continuous
100
AcDbLine
 10
26.6
 20
570.099816
 30
0.0
 11
26.6
 21
561.599816
 31
0.0
  0
LINE
  5
11E6B
330
11E1E
100
AcDbEntity
  8
1
  6
Continuous
100
AcDbLine
 10
27.1
 20
561.099816
 30
0.0
 11
27.1
 21
570.599816
 31
0.0
  0
LINE
  5
11E6C
330
11E1E
100
AcDbEntity
  8
1
  6
Continuous
100
AcDbLine
 10
27.1
 20
561.099816
 30
0.0
 11
26.6
 21
561.599816
 31
0.0
  0
LINE
  5
11E6D
330
11E1E
100
AcDbEntity
  8
1
  6
Continuous
100
AcDbLine
 10
27.1
 20
570.599816
 30
0.0
 11
26.6
 21
570.099816
 31
0.0
  0
LINE
  5
11E6E
330
11E1E
100
AcDbEntity
  8
1
  6
Continuous
100
AcDbLine
 10
27.1
 20
561.099816
 30
0.0
 11
27.4
 21
561.099816
 31
0.0
  0
LINE
  5
11E6F
330
11E1E
100
AcDbEntity
  8
1
  6
Continuous
100
AcDbLine
 10
27.1
 20
570.599816
 30
0.0
 11
27.4
 21
570.599816
 31
0.0
  0
LINE
  5
11E70
330
11E1E
100
AcDbEntity
  8
1
  6
Continuous
100
AcDbLine
 10
34.1
 20
576.849816
 30
0.0
 11
28.1
 21
576.849816
 31
0.0
  0
ARC
  5
11E71
330
11E1E
100
AcDbEntity
  8
1
  6
Continuous
100
AcDbCircle
 10
34.1
 20
576.349816
 30
0.0
 40
0.5
100
AcDbArc
 50
0.0
 51
90.0
  0
ARC
  5
11E72
330
11E1E
100
AcDbEntity
  8
1
  6
Continuous
100
AcDbCircle
 10
28.1
 20
576.349816
 30
0.0
 40
0.5
100
AcDbArc
 50
90.0
 51
180.0
  0
LINE
  5
11E73
330
11E1E
100
AcDbEntity
  8
4
  6
CENTER
100
AcDbLine
 10
39.591998
 20
560.849816
 30
0.0
 11
25.943987
 21
560.849816
 31
0.0
  0
LINE
  5
11E74
330
11E1E
100
AcDbEntity
  8
1
  6
Continuous
100
AcDbLine
 10
34.9
 20
556.099816
 30
0.0
 11
34.9
 21
565.599816
 31
0.0
  0
LINE
  5
11E75
330
11E1E
100
AcDbEntity
  8
1
  6
Continuous
100
AcDbLine
 10
27.4
 20
571.349816
 30
0.0
 11
27.4
 21
550.349816
 31
0.0
  0
LINE
  5
11E76
330
11E1E
100
AcDbEntity
  8
1
  6
Continuous
100
AcDbLine
 10
34.39999999999999
 20
571.349816
 30
0.0
 11
34.39999999999999
 21
550.349816
 31
0.0
  0
ARC
  5
11E77
330
11E1E
100
AcDbEntity
  8
1
  6
Continuous
100
AcDbCircle
 10
33.9
 20
550.349816
 30
0.0
 40
0.5
100
AcDbArc
 50
270.0
 51
0.0
  0
LINE
  5
11E78
330
11E1E
100
AcDbEntity
  8
1
  6
Continuous
100
AcDbLine
 10
34.9
 20
556.099816
 30
0.0
 11
34.39999999999999
 21
556.099816
 31
0.0
  0
LINE
  5
11E79
330
11E1E
100
AcDbEntity
  8
1
  6
Continuous
100
AcDbLine
 10
27.9
 20
549.849816
 30
0.0
 11
33.9
 21
549.849816
 31
0.0
  0
ARC
  5
11E7A
330
11E1E
100
AcDbEntity
  8
1
  6
Continuous
100
AcDbCircle
 10
27.9
 20
550.349816
 30
0.0
 40
0.5
100
AcDbArc
 50
180.0
 51
270.0
  0
LINE
  5
11E7B
330
11E1E
100
AcDbEntity
  8
1
  6
Continuous
100
AcDbLine
 10
34.9
 20
556.099816
 30
0.0
 11
35.4
 21
556.599816
 31
0.0
  0
ARC
  5
11E7C
330
11E1E
100
AcDbEntity
  8
1
  6
Continuous
100
AcDbCircle
 10
33.9
 20
571.349816
 30
0.0
 40
0.5
100
AcDbArc
 50
0.0
 51
90.0
  0
LINE
  5
11E7D
330
11E1E
100
AcDbEntity
  8
1
  6
Continuous
100
AcDbLine
 10
34.9
 20
565.599816
 30
0.0
 11
34.39999999999999
 21
565.599816
 31
0.0
  0
LINE
  5
11E7E
330
11E1E
100
AcDbEntity
  8
1
  6
Continuous
100
AcDbLine
 10
26.6
 20
571.849816
 30
0.0
 11
33.9
 21
571.849816
 31
0.0
  0
ARC
  5
11E7F
330
11E1E
100
AcDbEntity
  8
1
  6
Continuous
100
AcDbCircle
 10
27.9
 20
571.349816
 30
0.0
 40
0.5
100
AcDbArc
 50
90.0
 51
180.0
  0
LINE
  5
11E80
330
11E1E
100
AcDbEntity
  8
1
  6
Continuous
100
AcDbLine
 10
34.9
 20
565.599816
 30
0.0
 11
35.4
 21
565.099816
 31
0.0
  0
LINE
  5
11E81
330
11E1E
100
AcDbEntity
  8
1
  6
Continuous
100
AcDbLine
 10
37.7
 20
564.499816
 30
0.0
 11
37.7
 21
557.199816
 31
0.0
  0
LINE
  5
11E82
330
11E1E
100
AcDbEntity
  8
1
  6
Continuous
100
AcDbLine
 10
37.7
 20
564.499816
 30
0.0
 11
37.0
 21
563.7998159999997
 31
0.0
  0
LINE
  5
11E83
330
11E1E
100
AcDbEntity
  8
1
  6
Continuous
100
AcDbLine
 10
37.7
 20
557.199816
 30
0.0
 11
37.0
 21
557.899816
 31
0.0
  0
LINE
  5
11E84
330
11E1E
100
AcDbEntity
  8
1
  6
Continuous
100
AcDbLine
 10
25.0
 20
551.849816
 30
0.0
 11
26.6
 21
551.849816
 31
0.0
  0
LINE
  5
11E85
330
11E1E
100
AcDbEntity
  8
1
  6
Continuous
100
AcDbLine
 10
26.6
 20
573.4498160000002
 30
0.0
 11
33.0
 21
573.4498160000002
 31
0.0
  0
LINE
  5
11E86
330
11E1E
100
AcDbEntity
  8
1
  6
Continuous
100
AcDbLine
 10
25.0
 20
571.849816
 30
0.0
 11
25.0
 21
551.849816
 31
0.0
  0
LINE
  5
11E87
330
11E1E
100
AcDbEntity
  8
1
  6
Continuous
100
AcDbLine
 10
26.6
 20
571.849816
 30
0.0
 11
26.6
 21
551.849816
 31
0.0
  0
LINE
  5
11E88
330
11E1E
100
AcDbEntity
  8
4
  6
CENTER
100
AcDbLine
 10
22.36147799999999
 20
561.849816
 30
0.0
 11
29.28288099999999
 21
561.849816
 31
0.0
  0
LINE
  5
11E89
330
11E1E
100
AcDbEntity
  8
1
  6
Continuous
100
AcDbLine
 10
33.0
 20
573.4498160000002
 30
0.0
 11
33.0
 21
571.849816
 31
0.0
  0
ARC
  5
11E8A
330
11E1E
100
AcDbEntity
  8
1
  6
Continuous
100
AcDbCircle
 10
26.6
 20
571.849816
 30
0.0
 40
1.6
100
AcDbArc
 50
90.0
 51
180.0
  0
LINE
  5
11E8B
330
11E1E
100
AcDbEntity
  8
4
  6
CENTER
100
AcDbLine
 10
22.36147799999999
 20
565.849816
 30
0.0
 11
36.169351
 21
565.849816
 31
0.0
  0
LINE
  5
11E8C
330
11E1E
100
AcDbEntity
  8
1
  6
Continuous
100
AcDbLine
 10
24.3
 20
569.4998159999999
 30
0.0
 11
24.3
 21
562.199816
 31
0.0
  0
LINE
  5
11E8D
330
11E1E
100
AcDbEntity
  8
1
  6
Continuous
100
AcDbLine
 10
24.3
 20
569.4998159999999
 30
0.0
 11
25.0
 21
568.7998159999997
 31
0.0
  0
LINE
  5
11E8E
330
11E1E
100
AcDbEntity
  8
1
  6
Continuous
100
AcDbLine
 10
24.3
 20
562.199816
 30
0.0
 11
25.0
 21
562.899816
 31
0.0
  0
LINE
  5
11E8F
330
11E1E
100
AcDbEntity
  8
1
  6
Continuous
100
AcDbLine
 10
34.6
 20
556.099816
 30
0.0
 11
34.6
 21
555.349816
 31
0.0
  0
LINE
  5
11E90
330
11E1E
100
AcDbEntity
  8
1
  6
Continuous
100
AcDbLine
 10
27.6
 20
571.849816
 30
0.0
 11
27.6
 21
571.7498159999998
 31
0.0
  0
LINE
  5
11E91
330
11E1E
100
AcDbEntity
  8
1
  6
Continuous
100
AcDbLine
 10
1119.764151999999
 20
577.849816
 30
0.0
 11
1119.764151999999
 21
554.849816
 31
0.0
  0
LINE
  5
11E92
330
11E1E
100
AcDbEntity
  8
1
  6
Continuous
100
AcDbLine
 10
1121.364151999999
 20
577.849816
 30
0.0
 11
1121.364151999999
 21
554.849816
 31
0.0
  0
LINE
  5
11E93
330
11E1E
100
AcDbEntity
  8
1
  6
Continuous
100
AcDbLine
 10
1129.364151999999
 20
571.349816
 30
0.0
 11
1129.364151999999
 21
570.599816
 31
0.0
  0
LINE
  5
11E94
330
11E1E
100
AcDbEntity
  8
1
  6
Continuous
100
AcDbLine
 10
1122.364152
 20
554.949816
 30
0.0
 11
1122.364152
 21
554.849816
 31
0.0
  0
LINE
  5
11E95
330
11E1E
100
AcDbEntity
  8
1
  6
Continuous
100
AcDbLine
 10
1130.164152
 20
571.849816
 30
0.0
 11
1130.164152
 21
551.849816
 31
0.0
  0
LINE
  5
11E96
330
11E1E
100
AcDbEntity
  8
1
  6
Continuous
100
AcDbLine
 10
1131.764152
 20
571.849816
 30
0.0
 11
1131.764152
 21
551.849816
 31
0.0
  0
LINE
  5
11E97
330
11E1E
100
AcDbEntity
  8
1
  6
Continuous
100
AcDbLine
 10
1132.464152
 20
569.4998159999999
 30
0.0
 11
1132.464152
 21
562.199816
 31
0.0
  0
LINE
  5
11E98
330
11E1E
100
AcDbEntity
  8
1
  6
Continuous
100
AcDbLine
 10
1129.664152
 20
561.099816
 30
0.0
 11
1129.664152
 21
570.599816
 31
0.0
  0
LINE
  5
11E99
330
11E1E
100
AcDbEntity
  8
1
  6
Continuous
100
AcDbLine
 10
1130.164152
 20
570.099816
 30
0.0
 11
1130.164152
 21
561.599816
 31
0.0
  0
LINE
  5
11E9A
330
11E1E
100
AcDbEntity
  8
1
  6
Continuous
100
AcDbLine
 10
1122.164152
 20
576.349816
 30
0.0
 11
1122.164152
 21
555.349816
 31
0.0
  0
LINE
  5
11E9B
330
11E1E
100
AcDbEntity
  8
4
  6
CENTER
100
AcDbLine
 10
1134.402674
 20
561.849816
 30
0.0
 11
1127.481271
 21
561.849816
 31
0.0
  0
LINE
  5
11E9C
330
11E1E
100
AcDbEntity
  8
1
  6
Continuous
100
AcDbLine
 10
1128.864152
 20
549.849816
 30
0.0
 11
1122.864151999998
 21
549.849816
 31
0.0
  0
LINE
  5
11E9D
330
11E1E
100
AcDbEntity
  8
4
  6
CENTER
100
AcDbLine
 10
1134.402674
 20
565.849816
 30
0.0
 11
1120.594800999999
 21
565.849816
 31
0.0
  0
LINE
  5
11E9E
330
11E1E
100
AcDbEntity
  8
4
  6
CENTER
100
AcDbLine
 10
1117.172153999999
 20
560.849816
 30
0.0
 11
1130.820166
 21
560.849816
 31
0.0
  0
ARC
  5
11E9F
330
11E1E
100
AcDbEntity
  8
1
  6
Continuous
100
AcDbCircle
 10
1128.864152
 20
550.349816
 30
0.0
 40
0.5
100
AcDbArc
 50
270.0
 51
0.0
  0
LINE
  5
11EA0
330
11E1E
100
AcDbEntity
  8
1
  6
Continuous
100
AcDbLine
 10
1131.764152
 20
551.849816
 30
0.0
 11
1130.164152
 21
551.849816
 31
0.0
  0
LINE
  5
11EA1
330
11E1E
100
AcDbEntity
  8
1
  6
Continuous
100
AcDbLine
 10
1132.464152
 20
562.199816
 30
0.0
 11
1131.764152
 21
562.899816
 31
0.0
  0
LINE
  5
11EA2
330
11E1E
100
AcDbEntity
  8
1
  6
Continuous
100
AcDbLine
 10
1129.664152
 20
561.099816
 30
0.0
 11
1130.164152
 21
561.599816
 31
0.0
  0
LINE
  5
11EA3
330
11E1E
100
AcDbEntity
  8
1
  6
Continuous
100
AcDbLine
 10
1129.664152
 20
561.099816
 30
0.0
 11
1129.164152
 21
561.099816
 31
0.0
  0
ARC
  5
11EA4
330
11E1E
100
AcDbEntity
  8
1
  6
Continuous
100
AcDbCircle
 10
1121.364151999999
 20
554.849816
 30
0.0
 40
1.6
100
AcDbArc
 50
180.0
 51
270.0
  0
LINE
  5
11EA5
330
11E1E
100
AcDbEntity
  8
1
  6
Continuous
100
AcDbLine
 10
1121.864151999999
 20
556.099816
 30
0.0
 11
1121.864151999999
 21
565.599816
 31
0.0
  0
ARC
  5
11EA6
330
11E1E
100
AcDbEntity
  8
1
  6
Continuous
100
AcDbCircle
 10
1122.864151999998
 20
550.349816
 30
0.0
 40
0.5
100
AcDbArc
 50
180.0
 51
270.0
  0
LINE
  5
11EA7
330
11E1E
100
AcDbEntity
  8
1
  6
Continuous
100
AcDbLine
 10
1121.864151999999
 20
556.099816
 30
0.0
 11
1122.164152
 21
556.099816
 31
0.0
  0
LINE
  5
11EA8
330
11E1E
100
AcDbEntity
  8
1
  6
Continuous
100
AcDbLine
 10
1121.864151999999
 20
556.099816
 30
0.0
 11
1121.364151999999
 21
556.599816
 31
0.0
  0
LINE
  5
11EA9
330
11E1E
100
AcDbEntity
  8
1
  6
Continuous
100
AcDbLine
 10
1121.864151999999
 20
565.599816
 30
0.0
 11
1122.164152
 21
565.599816
 31
0.0
  0
LINE
  5
11EAA
330
11E1E
100
AcDbEntity
  8
1
  6
Continuous
100
AcDbLine
 10
1121.864151999999
 20
565.599816
 30
0.0
 11
1121.364151999999
 21
565.099816
 31
0.0
  0
LINE
  5
11EAB
330
11E1E
100
AcDbEntity
  8
1
  6
Continuous
100
AcDbLine
 10
1121.364151999999
 20
554.849816
 30
0.0
 11
1128.664152
 21
554.849816
 31
0.0
  0
LINE
  5
11EAC
330
11E1E
100
AcDbEntity
  8
1
  6
Continuous
100
AcDbLine
 10
1121.364151999999
 20
553.249816
 30
0.0
 11
1127.764151999999
 21
553.249816
 31
0.0
  0
LINE
  5
11EAD
330
11E1E
100
AcDbEntity
  8
1
  6
Continuous
100
AcDbLine
 10
1119.064151999999
 20
564.499816
 30
0.0
 11
1119.764151999999
 21
563.7998159999997
 31
0.0
  0
LINE
  5
11EAE
330
11E1E
100
AcDbEntity
  8
1
  6
Continuous
100
AcDbLine
 10
1119.064151999999
 20
557.199816
 30
0.0
 11
1119.764151999999
 21
557.899816
 31
0.0
  0
LINE
  5
11EAF
330
11E1E
100
AcDbEntity
  8
1
  6
Continuous
100
AcDbLine
 10
1119.064151999999
 20
564.499816
 30
0.0
 11
1119.064151999999
 21
557.199816
 31
0.0
  0
LINE
  5
11EB0
330
11E1E
100
AcDbEntity
  8
1
  6
Continuous
100
AcDbLine
 10
1131.764152
 20
571.849816
 30
0.0
 11
1129.164152
 21
571.849816
 31
0.0
  0
LINE
  5
11EB1
330
11E1E
100
AcDbEntity
  8
1
  6
Continuous
100
AcDbLine
 10
1130.164152
 20
573.4498160000002
 30
0.0
 11
1129.164152
 21
573.4498160000002
 31
0.0
  0
LINE
  5
11EB2
330
11E1E
100
AcDbEntity
  8
1
  6
Continuous
100
AcDbLine
 10
1122.664152
 20
576.849816
 30
0.0
 11
1128.664152
 21
576.849816
 31
0.0
  0
ARC
  5
11EB3
330
11E1E
100
AcDbEntity
  8
1
  6
Continuous
100
AcDbCircle
 10
1128.864152
 20
571.349816
 30
0.0
 40
0.5
100
AcDbArc
 50
0.0
 51
53.130102
  0
ARC
  5
11EB4
330
11E1E
100
AcDbEntity
  8
1
  6
Continuous
100
AcDbCircle
 10
1130.164152
 20
571.849816
 30
0.0
 40
1.6
100
AcDbArc
 50
0.0
 51
90.0
  0
LINE
  5
11EB5
330
11E1E
100
AcDbEntity
  8
1
  6
Continuous
100
AcDbLine
 10
1132.464152
 20
569.4998159999999
 30
0.0
 11
1131.764152
 21
568.7998159999997
 31
0.0
  0
LINE
  5
11EB6
330
11E1E
100
AcDbEntity
  8
1
  6
Continuous
100
AcDbLine
 10
1129.664152
 20
570.599816
 30
0.0
 11
1130.164152
 21
570.099816
 31
0.0
  0
ARC
  5
11EB7
330
11E1E
100
AcDbEntity
  8
1
  6
Continuous
100
AcDbCircle
 10
1128.664152
 20
576.349816
 30
0.0
 40
0.5
100
AcDbArc
 50
0.0
 51
90.0
  0
LINE
  5
11EB8
330
11E1E
100
AcDbEntity
  8
1
  6
Continuous
100
AcDbLine
 10
1129.164152
 20
576.349816
 30
0.0
 11
1129.164152
 21
555.349816
 31
0.0
  0
LINE
  5
11EB9
330
11E1E
100
AcDbEntity
  8
1
  6
Continuous
100
AcDbLine
 10
1129.664152
 20
570.599816
 30
0.0
 11
1129.164152
 21
570.599816
 31
0.0
  0
ARC
  5
11EBA
330
11E1E
100
AcDbEntity
  8
1
  6
Continuous
100
AcDbCircle
 10
1121.364151999999
 20
577.849816
 30
0.0
 40
1.6
100
AcDbArc
 50
90.0
 51
180.0
  0
ARC
  5
11EBB
330
11E1E
100
AcDbEntity
  8
1
  6
Continuous
100
AcDbCircle
 10
1122.664152
 20
576.349816
 30
0.0
 40
0.5
100
AcDbArc
 50
90.0
 51
180.0
  0
LINE
  5
11EBC
330
11E1E
100
AcDbEntity
  8
4
  6
CENTER
100
AcDbLine
 10
1124.251285
 20
566.349816
 30
0.0
 11
1117.329881999999
 21
566.349816
 31
0.0
  0
LINE
  5
11EBD
330
11E1E
100
AcDbEntity
  8
1
  6
Continuous
100
AcDbLine
 10
1127.764151999999
 20
579.4498160000001
 30
0.0
 11
1127.764151999999
 21
577.849816
 31
0.0
  0
LINE
  5
11EBE
330
11E1E
100
AcDbEntity
  8
1
  6
Continuous
100
AcDbLine
 10
1121.364151999999
 20
579.4498160000001
 30
0.0
 11
1127.764151999999
 21
579.4498160000001
 31
0.0
  0
LINE
  5
11EBF
330
11E1E
100
AcDbEntity
  8
1
  6
Continuous
100
AcDbLine
 10
1121.364151999999
 20
577.849816
 30
0.0
 11
1127.764151999999
 21
577.849816
 31
0.0
  0
LINE
  5
11EC0
330
11E1E
100
AcDbEntity
  8
1
  6
Continuous
100
AcDbLine
 10
1127.764151999999
 20
553.249816
 30
0.0
 11
1127.764151999999
 21
554.849816
 31
0.0
  0
ARC
  5
11EC1
330
11E1E
100
AcDbEntity
  8
1
  6
Continuous
100
AcDbCircle
 10
1122.664152
 20
555.349816
 30
0.0
 40
0.5
100
AcDbArc
 50
180.0
 51
270.0
  0
ARC
  5
11EC2
330
11E1E
100
AcDbEntity
  8
1
  6
Continuous
100
AcDbCircle
 10
1128.664152
 20
555.349816
 30
0.0
 40
0.5
100
AcDbArc
 50
270.0
 51
0.0
  0
LINE
  5
11EC3
330
11E1E
100
AcDbEntity
  8
1
  6
Continuous
100
AcDbLine
 10
1122.364152
 20
553.249816
 30
0.0
 11
1122.364152
 21
550.349816
 31
0.0
  0
LINE
  5
11EC4
330
11E1E
100
AcDbEntity
  8
1
  6
Continuous
100
AcDbLine
 10
1129.364151999999
 20
561.099816
 30
0.0
 11
1129.364151999999
 21
550.349816
 31
0.0
  0
LINE
  5
11EC5
330
11E1E
100
AcDbEntity
  8
1
  6
Continuous
100
AcDbLine
 10
1062.882075999999
 20
667.849816
 30
0.0
 11
568.8820759999997
 21
667.849816
 31
0.0
  0
LINE
  5
11EC6
330
11E1E
100
AcDbEntity
  8
1
  6
Continuous
100
AcDbLine
 10
1065.882076
 20
659.849816
 30
0.0
 11
515.882076
 21
659.849816
 31
0.0
  0
LINE
  5
11EC7
330
11E1E
100
AcDbEntity
  8
1
  6
Continuous
100
AcDbLine
 10
515.882076
 20
659.849816
 30
0.0
 11
515.882076
 21
661.4498160000001
 31
0.0
  0
LINE
  5
11EC8
330
11E1E
100
AcDbEntity
  8
1
  6
Continuous
100
AcDbLine
 10
565.882076
 20
659.849816
 30
0.0
 11
565.882076
 21
664.849816
 31
0.0
  0
LINE
  5
11EC9
330
11E1E
100
AcDbEntity
  8
1
  6
Continuous
100
AcDbLine
 10
565.882076
 20
661.4498160000001
 30
0.0
 11
515.882076
 21
661.4498160000001
 31
0.0
  0
ARC
  5
11ECA
330
11E1E
100
AcDbEntity
  8
1
  6
Continuous
100
AcDbCircle
 10
568.8820759999997
 20
664.849816
 30
0.0
 40
3.0
100
AcDbArc
 50
90.0
 51
180.0
  0
LINE
  5
11ECB
330
11E1E
100
AcDbEntity
  8
1
  6
Continuous
100
AcDbLine
 10
1065.882076
 20
659.849816
 30
0.0
 11
1065.882076
 21
664.849816
 31
0.0
  0
ARC
  5
11ECC
330
11E1E
100
AcDbEntity
  8
1
  6
Continuous
100
AcDbCircle
 10
1062.882075999999
 20
664.849816
 30
0.0
 40
3.0
100
AcDbArc
 50
0.0
 51
90.0
  0
LINE
  5
11ECD
330
11E1E
100
AcDbEntity
  8
1
  6
Continuous
100
AcDbLine
 10
537.8820759999999
 20
661.4498160000001
 30
0.0
 11
537.8820759999999
 21
663.849816
 31
0.0
  0
LINE
  5
11ECE
330
11E1E
100
AcDbEntity
  8
4
  6
CENTER
100
AcDbLine
 10
526.8820759999998
 20
673.2695859999997
 30
0.0
 11
526.8820759999998
 21
655.349816
 31
0.0
  0
ARC
  5
11ECF
330
11E1E
100
AcDbEntity
  8
1
  6
Continuous
100
AcDbCircle
 10
537.382076
 20
662.9498160000001
 30
0.0
 40
0.5
100
AcDbArc
 50
270.0
 51
0.0
  0
LINE
  5
11ED0
330
11E1E
100
AcDbEntity
  8
1
  6
Continuous
100
AcDbLine
 10
537.382076
 20
662.4498160000001
 30
0.0
 11
516.382076
 21
662.4498160000001
 31
0.0
  0
ARC
  5
11ED1
330
11E1E
100
AcDbEntity
  8
1
  6
Continuous
100
AcDbCircle
 10
516.382076
 20
662.9498160000001
 30
0.0
 40
0.5
100
AcDbArc
 50
180.0
 51
270.0
  0
LINE
  5
11ED2
330
11E1E
100
AcDbEntity
  8
1
  6
Continuous
100
AcDbLine
 10
522.132076
 20
661.9498160000001
 30
0.0
 11
522.632076
 21
661.4498160000001
 31
0.0
  0
LINE
  5
11ED3
330
11E1E
100
AcDbEntity
  8
1
  6
Continuous
100
AcDbLine
 10
522.132076
 20
661.9498160000001
 30
0.0
 11
522.132076
 21
662.4498160000001
 31
0.0
  0
LINE
  5
11ED4
330
11E1E
100
AcDbEntity
  8
1
  6
Continuous
100
AcDbLine
 10
531.6320759999999
 20
661.9498160000001
 30
0.0
 11
531.132076
 21
661.4498160000001
 31
0.0
  0
LINE
  5
11ED5
330
11E1E
100
AcDbEntity
  8
1
  6
Continuous
100
AcDbLine
 10
531.6320759999999
 20
661.9498160000001
 30
0.0
 11
531.6320759999999
 21
662.4498160000001
 31
0.0
  0
LINE
  5
11ED6
330
11E1E
100
AcDbEntity
  8
1
  6
Continuous
100
AcDbLine
 10
522.132076
 20
661.9498160000001
 30
0.0
 11
531.6320759999999
 21
661.9498160000001
 31
0.0
  0
LINE
  5
11ED7
330
11E1E
100
AcDbEntity
  8
1
  6
Continuous
100
AcDbLine
 10
530.5320759999998
 20
659.149816
 30
0.0
 11
523.232076
 21
659.149816
 31
0.0
  0
LINE
  5
11ED8
330
11E1E
100
AcDbEntity
  8
1
  6
Continuous
100
AcDbLine
 10
523.232076
 20
659.149816
 30
0.0
 11
523.9320759999999
 21
659.849816
 31
0.0
  0
LINE
  5
11ED9
330
11E1E
100
AcDbEntity
  8
1
  6
Continuous
100
AcDbLine
 10
530.5320759999998
 20
659.149816
 30
0.0
 11
529.832076
 21
659.849816
 31
0.0
  0
LINE
  5
11EDA
330
11E1E
100
AcDbEntity
  8
1
  6
Continuous
100
AcDbLine
 10
515.882076
 20
662.9498160000001
 30
0.0
 11
515.882076
 21
663.849816
 31
0.0
  0
LINE
  5
11EDB
330
11E1E
100
AcDbEntity
  8
4
  6
CENTER
100
AcDbLine
 10
535.8820759999998
 20
664.562335
 30
0.0
 11
535.8820759999998
 21
656.562335
 31
0.0
  0
LINE
  5
11EDC
330
11E1E
100
AcDbEntity
  8
4
  6
CENTER
100
AcDbLine
 10
547.8820759999998
 20
664.562335
 30
0.0
 11
547.8820759999998
 21
656.562335
 31
0.0
  0
LINE
  5
11EDD
330
11E1E
100
AcDbEntity
  8
4
  6
CENTER
100
AcDbLine
 10
671.8820759999998
 20
664.562335
 30
0.0
 11
671.8820759999998
 21
656.562335
 31
0.0
  0
LINE
  5
11EDE
330
11E1E
100
AcDbEntity
  8
4
  6
CENTER
100
AcDbLine
 10
795.882076
 20
664.562335
 30
0.0
 11
795.882076
 21
656.562335
 31
0.0
  0
LINE
  5
11EDF
330
11E1E
100
AcDbEntity
  8
4
  6
CENTER
100
AcDbLine
 10
919.882076
 20
664.562335
 30
0.0
 11
919.882076
 21
656.562335
 31
0.0
  0
LINE
  5
11EE0
330
11E1E
100
AcDbEntity
  8
4
  6
CENTER
100
AcDbLine
 10
1043.882075999998
 20
664.562335
 30
0.0
 11
1043.882075999998
 21
656.562335
 31
0.0
  0
LINE
  5
11EE1
330
11E1E
100
AcDbEntity
  8
4
  6
CENTER
100
AcDbLine
 10
1028.882075999999
 20
664.562335
 30
0.0
 11
1028.882075999999
 21
656.562335
 31
0.0
  0
LINE
  5
11EE2
330
11E1E
100
AcDbEntity
  8
1
  6
Continuous
100
AcDbLine
 10
565.882076
 20
752.249816
 30
0.0
 11
1065.882076
 21
752.249816
 31
0.0
  0
LINE
  5
11EE3
330
11E1E
100
AcDbEntity
  8
3
  6
DASHED
100
AcDbLine
 10
537.8820759999999
 20
778.449816
 30
0.0
 11
640.419792
 21
778.449816
 31
0.0
  0
LINE
  5
11EE4
330
11E1E
100
AcDbEntity
  8
4
  6
CENTER
100
AcDbLine
 10
85.882076
 20
769.849816
 30
0.0
 11
645.882076
 21
769.849816
 31
0.0
  0
LINE
  5
11EE5
330
11E1E
100
AcDbEntity
  8
4
  6
CENTER
100
AcDbLine
 10
510.8820759999998
 20
765.349816
 30
0.0
 11
1070.882075999999
 21
765.349816
 31
0.0
  0
LINE
  5
11EE6
330
11E1E
100
AcDbEntity
  8
3
  6
DASHED
100
AcDbLine
 10
515.882076
 20
776.849816
 30
0.0
 11
515.882076
 21
758.249816
 31
0.0
  0
LINE
  5
11EE7
330
11E1E
100
AcDbEntity
  8
4
  6
CENTER
100
AcDbLine
 10
795.882076
 20
771.349816
 30
0.0
 11
795.882076
 21
759.349816
 31
0.0
  0
LINE
  5
11EE8
330
11E1E
100
AcDbEntity
  8
4
  6
CENTER
100
AcDbLine
 10
671.8820759999998
 20
771.349816
 30
0.0
 11
671.8820759999998
 21
759.349816
 31
0.0
  0
LINE
  5
11EE9
330
11E1E
100
AcDbEntity
  8
4
  6
CENTER
100
AcDbLine
 10
547.8820759999998
 20
771.349816
 30
0.0
 11
547.8820759999998
 21
759.349816
 31
0.0
  0
LINE
  5
11EEA
330
11E1E
100
AcDbEntity
  8
4
  6
CENTER
100
AcDbLine
 10
535.8820759999998
 20
761.349816
 30
0.0
 11
535.8820759999998
 21
769.349816
 31
0.0
  0
LINE
  5
11EEB
330
11E1E
100
AcDbEntity
  8
4
  6
CENTER
100
AcDbLine
 10
526.8820759999998
 20
756.849816
 30
0.0
 11
526.8820759999998
 21
784.849816
 31
0.0
  0
ARC
  5
11EEC
330
11E1E
100
AcDbEntity
  8
1
  6
Continuous
100
AcDbCircle
 10
526.8820759999998
 20
770.849816
 30
0.0
 40
11.0
100
AcDbArc
 50
54.903199
 51
125.096801
  0
LINE
  5
11EED
330
11E1E
100
AcDbEntity
  8
4
  6
CENTER
100
AcDbLine
 10
540.882076
 20
770.849816
 30
0.0
 11
512.8820759999999
 21
770.849816
 31
0.0
  0
ARC
  5
11EEE
330
11E1E
100
AcDbEntity
  8
1
  6
Continuous
100
AcDbCircle
 10
518.8820759999998
 20
756.849816
 30
0.0
 40
3.0
100
AcDbArc
 50
180.0
 51
270.0
  0
LINE
  5
11EEF
330
11E1E
100
AcDbEntity
  8
1
  6
Continuous
100
AcDbLine
 10
565.882076
 20
753.849816
 30
0.0
 11
565.882076
 21
752.249816
 31
0.0
  0
LINE
  5
11EF0
330
11E1E
100
AcDbEntity
  8
1
  6
Continuous
100
AcDbLine
 10
1065.882076
 20
778.449816
 30
0.0
 11
1065.882076
 21
752.249816
 31
0.0
  0
LINE
  5
11EF1
330
11E1E
100
AcDbEntity
  8
4
  6
CENTER
100
AcDbLine
 10
1043.882075999998
 20
771.349816
 30
0.0
 11
1043.882075999998
 21
759.349816
 31
0.0
  0
LINE
  5
11EF2
330
11E1E
100
AcDbEntity
  8
4
  6
CENTER
100
AcDbLine
 10
1028.882075999999
 20
769.849816
 30
0.0
 11
1028.882075999999
 21
760.849816
 31
0.0
  0
LINE
  5
11EF3
330
11E1E
100
AcDbEntity
  8
4
  6
CENTER
100
AcDbLine
 10
919.882076
 20
771.349816
 30
0.0
 11
919.882076
 21
759.349816
 31
0.0
  0
LINE
  5
11EF4
330
11E1E
100
AcDbEntity
  8
1
  6
Continuous
100
AcDbLine
 10
518.8820759999998
 20
753.849816
 30
0.0
 11
1065.882076
 21
753.849816
 31
0.0
  0
LINE
  5
11EF5
330
11E1E
100
AcDbEntity
  8
1
  6
Continuous
100
AcDbLine
 10
93.88207599999999
 20
779.849816
 30
0.0
 11
637.8820759999999
 21
779.849816
 31
0.0
  0
ARC
  5
11EF6
330
11E1E
100
AcDbEntity
  8
1
  6
Continuous
100
AcDbCircle
 10
93.88207599999999
 20
776.849816
 30
0.0
 40
3.0
100
AcDbArc
 50
90.0
 51
180.0
  0
LINE
  5
11EF7
330
11E1E
100
AcDbEntity
  8
1
  6
Continuous
100
AcDbLine
 10
90.882076
 20
776.849816
 30
0.0
 11
90.882076
 21
758.249816
 31
0.0
  0
LINE
  5
11EF8
330
11E1E
100
AcDbEntity
  8
1
  6
Continuous
100
AcDbLine
 10
90.882076
 20
758.249816
 30
0.0
 11
529.8820759999999
 21
758.249816
 31
0.0
  0
LINE
  5
11EF9
330
11E1E
100
AcDbEntity
  8
1
  6
Continuous
100
AcDbLine
 10
529.8820759999999
 20
760.249816
 30
0.0
 11
543.8820759999998
 21
760.249816
 31
0.0
  0
LINE
  5
11EFA
330
11E1E
100
AcDbEntity
  8
1
  6
Continuous
100
AcDbLine
 10
529.8820759999999
 20
758.249816
 30
0.0
 11
529.8820759999999
 21
760.249816
 31
0.0
  0
LINE
  5
11EFB
330
11E1E
100
AcDbEntity
  8
1
  6
Continuous
100
AcDbLine
 10
530.7056059999998
 20
760.249816
 30
0.0
 11
529.8820759999999
 21
759.849816
 31
0.0
  0
LINE
  5
11EFC
330
11E1E
100
AcDbEntity
  8
1
  6
Continuous
100
AcDbLine
 10
533.999723
 20
760.249816
 30
0.0
 11
529.8820759999999
 21
758.249816
 31
0.0
  0
LINE
  5
11EFD
330
11E1E
100
AcDbEntity
  8
1
  6
Continuous
100
AcDbLine
 10
543.8820759999998
 20
758.249816
 30
0.0
 11
543.8820759999998
 21
760.249816
 31
0.0
  0
LINE
  5
11EFE
330
11E1E
100
AcDbEntity
  8
1
  6
Continuous
100
AcDbLine
 10
543.0585469999998
 20
760.249816
 30
0.0
 11
543.8820759999998
 21
759.849816
 31
0.0
  0
LINE
  5
11EFF
330
11E1E
100
AcDbEntity
  8
1
  6
Continuous
100
AcDbLine
 10
539.7644289999998
 20
760.249816
 30
0.0
 11
543.8820759999998
 21
758.249816
 31
0.0
  0
LINE
  5
11F00
330
11E1E
100
AcDbEntity
  8
1
  6
Continuous
100
AcDbLine
 10
543.8820759999998
 20
758.249816
 30
0.0
 11
618.8820759999997
 21
758.249816
 31
0.0
  0
LINE
  5
11F01
330
11E1E
100
AcDbEntity
  8
1
  6
Continuous
100
AcDbLine
 10
618.8820759999997
 20
759.849816
 30
0.0
 11
637.8820759999999
 21
759.849816
 31
0.0
  0
LINE
  5
11F02
330
11E1E
100
AcDbEntity
  8
1
  6
Continuous
100
AcDbLine
 10
618.8820759999997
 20
759.849816
 30
0.0
 11
618.8820759999997
 21
758.249816
 31
0.0
  0
ARC
  5
11F03
330
11E1E
100
AcDbEntity
  8
1
  6
Continuous
100
AcDbCircle
 10
637.8820759999999
 20
762.849816
 30
0.0
 40
3.0
100
AcDbArc
 50
270.0
 51
0.0
  0
ARC
  5
11F04
330
11E1E
100
AcDbEntity
  8
1
  6
Continuous
100
AcDbCircle
 10
637.8820759999999
 20
776.849816
 30
0.0
 40
3.0
100
AcDbArc
 50
0.0
 51
90.0
  0
ARC
  5
11F05
330
11E1E
100
AcDbEntity
  8
1
  6
Continuous
100
AcDbCircle
 10
629.8820759999999
 20
765.849816
 30
0.0
 40
11.0
100
AcDbArc
 50
213.0557309999999
 51
329.2484979999999
  0
CIRCLE
  5
11F06
330
11E1E
100
AcDbEntity
  8
1
  6
Continuous
100
AcDbCircle
 10
629.8820759999999
 20
765.849816
 30
0.0
 40
3.649999999999999
  0
LINE
  5
11F07
330
11E1E
100
AcDbEntity
  8
4
  6
CENTER
100
AcDbLine
 10
616.1179279999998
 20
765.849816
 30
0.0
 11
643.8024429999998
 21
765.849816
 31
0.0
  0
LINE
  5
11F08
330
11E1E
100
AcDbEntity
  8
4
  6
CENTER
100
AcDbLine
 10
629.8820759999999
 20
775.5502759999997
 30
0.0
 11
629.8820759999999
 21
756.149356
 31
0.0
  0
CIRCLE
  5
11F09
330
11E1E
100
AcDbEntity
  8
1
  6
Continuous
100
AcDbCircle
 10
620.882076
 20
769.849816
 30
0.0
 40
2.0
  0
LINE
  5
11F0A
330
11E1E
100
AcDbEntity
  8
4
  6
CENTER
100
AcDbLine
 10
620.882076
 20
774.349816
 30
0.0
 11
620.882076
 21
765.349816
 31
0.0
  0
LINE
  5
11F0B
330
11E1E
100
AcDbEntity
  8
4
  6
CENTER
100
AcDbLine
 10
608.8820759999999
 20
775.849816
 30
0.0
 11
608.8820759999999
 21
763.849816
 31
0.0
  0
CIRCLE
  5
11F0C
330
11E1E
100
AcDbEntity
  8
1
  6
Continuous
100
AcDbCircle
 10
608.8820759999999
 20
769.849816
 30
0.0
 40
3.0
  0
LINE
  5
11F0D
330
11E1E
100
AcDbEntity
  8
4
  6
CENTER
100
AcDbLine
 10
484.8820759999998
 20
775.849816
 30
0.0
 11
484.8820759999998
 21
763.849816
 31
0.0
  0
CIRCLE
  5
11F0E
330
11E1E
100
AcDbEntity
  8
1
  6
Continuous
100
AcDbCircle
 10
484.8820759999998
 20
769.849816
 30
0.0
 40
3.0
  0
LINE
  5
11F0F
330
11E1E
100
AcDbEntity
  8
4
  6
CENTER
100
AcDbLine
 10
360.8820759999999
 20
775.849816
 30
0.0
 11
360.8820759999999
 21
763.849816
 31
0.0
  0
CIRCLE
  5
11F10
330
11E1E
100
AcDbEntity
  8
1
  6
Continuous
100
AcDbCircle
 10
360.8820759999999
 20
769.849816
 30
0.0
 40
3.0
  0
CIRCLE
  5
11F11
330
11E1E
100
AcDbEntity
  8
1
  6
Continuous
100
AcDbCircle
 10
236.8820759999999
 20
769.849816
 30
0.0
 40
3.0
  0
LINE
  5
11F12
330
11E1E
100
AcDbEntity
  8
4
  6
CENTER
100
AcDbLine
 10
236.8820759999999
 20
775.849816
 30
0.0
 11
236.8820759999999
 21
763.849816
 31
0.0
  0
CIRCLE
  5
11F13
330
11E1E
100
AcDbEntity
  8
1
  6
Continuous
100
AcDbCircle
 10
112.8820759999999
 20
769.849816
 30
0.0
 40
3.0
  0
LINE
  5
11F14
330
11E1E
100
AcDbEntity
  8
4
  6
CENTER
100
AcDbLine
 10
112.8820759999999
 20
775.849816
 30
0.0
 11
112.8820759999999
 21
763.849816
 31
0.0
  0
CIRCLE
  5
11F15
330
11E1E
100
AcDbEntity
  8
1
  6
Continuous
100
AcDbCircle
 10
127.882076
 20
769.849816
 30
0.0
 40
2.0
  0
LINE
  5
11F16
330
11E1E
100
AcDbEntity
  8
4
  6
CENTER
100
AcDbLine
 10
127.882076
 20
765.849816
 30
0.0
 11
127.882076
 21
773.849816
 31
0.0
  0
LINE
  5
11F17
330
11E1E
100
AcDbEntity
  8
1
  6
Continuous
100
AcDbLine
 10
640.882076
 20
776.849816
 30
0.0
 11
640.882076
 21
762.849816
 31
0.0
  0
LINE
  5
11F18
330
11E1E
100
AcDbEntity
  8
1
  6
Continuous
100
AcDbLine
 10
90.882076
 20
573.4498160000002
 30
0.0
 11
515.882076
 21
573.4498160000002
 31
0.0
  0
LINE
  5
11F19
330
11E1E
100
AcDbEntity
  8
1
  6
Continuous
100
AcDbLine
 10
93.88207599999999
 20
551.849816
 30
0.0
 11
520.5575209999998
 21
551.849816
 31
0.0
  0
CIRCLE
  5
11F1A
330
11E1E
100
AcDbEntity
  8
1
  6
Continuous
100
AcDbCircle
 10
127.882076
 20
561.849816
 30
0.0
 40
2.0
  0
CIRCLE
  5
11F1B
330
11E1E
100
AcDbEntity
  8
1
  6
Continuous
100
AcDbCircle
 10
112.8820759999999
 20
561.849816
 30
0.0
 40
3.0
  0
LINE
  5
11F1C
330
11E1E
100
AcDbEntity
  8
1
  6
Continuous
100
AcDbLine
 10
90.882076
 20
554.849816
 30
0.0
 11
90.882076
 21
573.4498160000002
 31
0.0
  0
LINE
  5
11F1D
330
11E1E
100
AcDbEntity
  8
4
  6
CENTER
100
AcDbLine
 10
127.882076
 20
565.849816
 30
0.0
 11
127.882076
 21
557.849816
 31
0.0
  0
LINE
  5
11F1E
330
11E1E
100
AcDbEntity
  8
4
  6
CENTER
100
AcDbLine
 10
112.8820759999999
 20
555.849816
 30
0.0
 11
112.8820759999999
 21
567.849816
 31
0.0
  0
ARC
  5
11F1F
330
11E1E
100
AcDbEntity
  8
1
  6
Continuous
100
AcDbCircle
 10
93.88207599999999
 20
554.849816
 30
0.0
 40
3.0
100
AcDbArc
 50
180.0
 51
270.0
  0
CIRCLE
  5
11F20
330
11E1E
100
AcDbEntity
  8
1
  6
Continuous
100
AcDbCircle
 10
236.8820759999999
 20
561.849816
 30
0.0
 40
3.0
  0
LINE
  5
11F21
330
11E1E
100
AcDbEntity
  8
4
  6
CENTER
100
AcDbLine
 10
236.8820759999999
 20
555.849816
 30
0.0
 11
236.8820759999999
 21
567.849816
 31
0.0
  0
CIRCLE
  5
11F22
330
11E1E
100
AcDbEntity
  8
1
  6
Continuous
100
AcDbCircle
 10
360.8820759999999
 20
561.849816
 30
0.0
 40
3.0
  0
LINE
  5
11F23
330
11E1E
100
AcDbEntity
  8
4
  6
CENTER
100
AcDbLine
 10
360.8820759999999
 20
555.849816
 30
0.0
 11
360.8820759999999
 21
567.849816
 31
0.0
  0
CIRCLE
  5
11F24
330
11E1E
100
AcDbEntity
  8
1
  6
Continuous
100
AcDbCircle
 10
484.8820759999998
 20
561.849816
 30
0.0
 40
3.0
  0
LINE
  5
11F25
330
11E1E
100
AcDbEntity
  8
4
  6
CENTER
100
AcDbLine
 10
484.8820759999998
 20
555.849816
 30
0.0
 11
484.8820759999998
 21
567.849816
 31
0.0
  0
CIRCLE
  5
11F26
330
11E1E
100
AcDbEntity
  8
1
  6
Continuous
100
AcDbCircle
 10
112.8820759999999
 20
561.849816
 30
0.0
 40
4.299999999999998
  0
CIRCLE
  5
11F27
330
11E1E
100
AcDbEntity
  8
1
  6
Continuous
100
AcDbCircle
 10
236.8820759999999
 20
561.849816
 30
0.0
 40
4.299999999999998
  0
CIRCLE
  5
11F28
330
11E1E
100
AcDbEntity
  8
1
  6
Continuous
100
AcDbCircle
 10
360.8820759999999
 20
561.849816
 30
0.0
 40
4.299999999999998
  0
CIRCLE
  5
11F29
330
11E1E
100
AcDbEntity
  8
1
  6
Continuous
100
AcDbCircle
 10
484.8820759999998
 20
561.849816
 30
0.0
 40
4.299999999999998
  0
LINE
  5
11F2A
330
11E1E
100
AcDbEntity
  8
1
  6
Continuous
100
AcDbLine
 10
90.882076
 20
571.849816
 30
0.0
 11
515.882076
 21
571.849816
 31
0.0
  0
LINE
  5
11F2B
330
11E1E
100
AcDbEntity
  8
1
  6
Continuous
100
AcDbLine
 10
515.882076
 20
758.249816
 30
0.0
 11
515.882076
 21
756.849816
 31
0.0
  0
LINE
  5
11F2C
330
11E1E
100
AcDbEntity
  8
3
  6
DASHED
100
AcDbLine
 10
537.8820759999999
 20
778.449816
 30
0.0
 11
537.8820759999999
 21
776.849816
 31
0.0
  0
LINE
  5
11F2D
330
11E1E
100
AcDbEntity
  8
3
  6
DASHED
100
AcDbLine
 10
515.882076
 20
776.849816
 30
0.0
 11
640.882076
 21
776.849816
 31
0.0
  0
LINE
  5
11F2E
330
11E1E
100
AcDbEntity
  8
1
  6
Continuous
100
AcDbLine
 10
640.419792
 20
778.449816
 30
0.0
 11
1065.882076
 21
778.449816
 31
0.0
  0
LINE
  5
11F2F
330
11E1E
100
AcDbEntity
  8
1
  6
Continuous
100
AcDbLine
 10
640.882076
 20
776.849816
 30
0.0
 11
1065.882076
 21
776.849816
 31
0.0
  0
CIRCLE
  5
11F30
330
11E1E
100
AcDbEntity
  8
1
  6
Continuous
100
AcDbCircle
 10
1028.882075999999
 20
765.349816
 30
0.0
 40
2.0
  0
CIRCLE
  5
11F31
330
11E1E
100
AcDbEntity
  8
1
  6
Continuous
100
AcDbCircle
 10
1043.882075999998
 20
765.349816
 30
0.0
 40
4.299999999999998
  0
CIRCLE
  5
11F32
330
11E1E
100
AcDbEntity
  8
1
  6
Continuous
100
AcDbCircle
 10
1043.882075999998
 20
765.349816
 30
0.0
 40
3.0
  0
CIRCLE
  5
11F33
330
11E1E
100
AcDbEntity
  8
1
  6
Continuous
100
AcDbCircle
 10
919.882076
 20
765.349816
 30
0.0
 40
3.0
  0
CIRCLE
  5
11F34
330
11E1E
100
AcDbEntity
  8
1
  6
Continuous
100
AcDbCircle
 10
919.882076
 20
765.349816
 30
0.0
 40
4.299999999999998
  0
CIRCLE
  5
11F35
330
11E1E
100
AcDbEntity
  8
1
  6
Continuous
100
AcDbCircle
 10
795.882076
 20
765.349816
 30
0.0
 40
4.299999999999998
  0
CIRCLE
  5
11F36
330
11E1E
100
AcDbEntity
  8
1
  6
Continuous
100
AcDbCircle
 10
795.882076
 20
765.349816
 30
0.0
 40
3.0
  0
CIRCLE
  5
11F37
330
11E1E
100
AcDbEntity
  8
1
  6
Continuous
100
AcDbCircle
 10
671.8820759999998
 20
765.349816
 30
0.0
 40
3.0
  0
CIRCLE
  5
11F38
330
11E1E
100
AcDbEntity
  8
1
  6
Continuous
100
AcDbCircle
 10
671.8820759999998
 20
765.349816
 30
0.0
 40
4.299999999999998
  0
LINE
  5
11F39
330
11E1E
100
AcDbEntity
  8
1
  6
Continuous
100
AcDbLine
 10
640.882076
 20
671.849816
 30
0.0
 11
90.882076
 21
671.849816
 31
0.0
  0
LINE
  5
11F3A
330
11E1E
100
AcDbEntity
  8
1
  6
Continuous
100
AcDbLine
 10
640.882076
 20
670.249816
 30
0.0
 11
618.8820759999997
 21
670.249816
 31
0.0
  0
LINE
  5
11F3B
330
11E1E
100
AcDbEntity
  8
1
  6
Continuous
100
AcDbLine
 10
640.882076
 20
670.249816
 30
0.0
 11
640.882076
 21
671.849816
 31
0.0
  0
LINE
  5
11F3C
330
11E1E
100
AcDbEntity
  8
1
  6
Continuous
100
AcDbLine
 10
640.382076
 20
669.249816
 30
0.0
 11
619.382076
 21
669.249816
 31
0.0
  0
ARC
  5
11F3D
330
11E1E
100
AcDbEntity
  8
1
  6
Continuous
100
AcDbCircle
 10
640.382076
 20
668.749816
 30
0.0
 40
0.5
100
AcDbArc
 50
0.0
 51
90.0
  0
LINE
  5
11F3E
330
11E1E
100
AcDbEntity
  8
1
  6
Continuous
100
AcDbLine
 10
640.882076
 20
667.849816
 30
0.0
 11
640.882076
 21
668.749816
 31
0.0
  0
LINE
  5
11F3F
330
11E1E
100
AcDbEntity
  8
3
  6
DASHED
100
AcDbLine
 10
618.8820759999997
 20
666.849816
 30
0.0
 11
618.8820759999997
 21
667.849816
 31
0.0
  0
ARC
  5
11F40
330
11E1E
100
AcDbEntity
  8
1
  6
Continuous
100
AcDbCircle
 10
619.382076
 20
668.749816
 30
0.0
 40
0.5
100
AcDbArc
 50
90.0
 51
180.0
  0
LINE
  5
11F41
330
11E1E
100
AcDbEntity
  8
4
  6
CENTER
100
AcDbLine
 10
620.882076
 20
675.046399
 30
0.0
 11
620.882076
 21
667.046399
 31
0.0
  0
LINE
  5
11F42
330
11E1E
100
AcDbEntity
  8
4
  6
CENTER
100
AcDbLine
 10
608.8820759999999
 20
675.046399
 30
0.0
 11
608.8820759999999
 21
667.046399
 31
0.0
  0
LINE
  5
11F43
330
11E1E
100
AcDbEntity
  8
4
  6
CENTER
100
AcDbLine
 10
629.8820759999999
 20
658.395608
 30
0.0
 11
629.8820759999999
 21
676.349816
 31
0.0
  0
LINE
  5
11F44
330
11E1E
100
AcDbEntity
  8
1
  6
Continuous
100
AcDbLine
 10
625.1320759999997
 20
669.749816
 30
0.0
 11
625.1320759999997
 21
669.249816
 31
0.0
  0
LINE
  5
11F45
330
11E1E
100
AcDbEntity
  8
1
  6
Continuous
100
AcDbLine
 10
634.632076
 20
669.749816
 30
0.0
 11
634.632076
 21
669.249816
 31
0.0
  0
LINE
  5
11F46
330
11E1E
100
AcDbEntity
  8
1
  6
Continuous
100
AcDbLine
 10
633.532076
 20
672.5498159999999
 30
0.0
 11
632.832076
 21
671.849816
 31
0.0
  0
LINE
  5
11F47
330
11E1E
100
AcDbEntity
  8
1
  6
Continuous
100
AcDbLine
 10
626.232076
 20
672.5498159999999
 30
0.0
 11
626.9320759999999
 21
671.849816
 31
0.0
  0
LINE
  5
11F48
330
11E1E
100
AcDbEntity
  8
1
  6
Continuous
100
AcDbLine
 10
633.532076
 20
672.5498159999999
 30
0.0
 11
626.232076
 21
672.5498159999999
 31
0.0
  0
LINE
  5
11F49
330
11E1E
100
AcDbEntity
  8
1
  6
Continuous
100
AcDbLine
 10
625.1320759999997
 20
669.749816
 30
0.0
 11
634.632076
 21
669.749816
 31
0.0
  0
LINE
  5
11F4A
330
11E1E
100
AcDbEntity
  8
1
  6
Continuous
100
AcDbLine
 10
625.1320759999997
 20
669.749816
 30
0.0
 11
625.632076
 21
670.249816
 31
0.0
  0
LINE
  5
11F4B
330
11E1E
100
AcDbEntity
  8
1
  6
Continuous
100
AcDbLine
 10
634.632076
 20
669.749816
 30
0.0
 11
634.132076
 21
670.249816
 31
0.0
  0
LINE
  5
11F4C
330
11E1E
100
AcDbEntity
  8
1
  6
Continuous
100
AcDbLine
 10
536.882076
 20
669.849816
 30
0.0
 11
536.882076
 21
663.849816
 31
0.0
  0
LINE
  5
11F4D
330
11E1E
100
AcDbEntity
  8
1
  6
Continuous
100
AcDbLine
 10
529.8820759999999
 20
663.849816
 30
0.0
 11
529.8820759999999
 21
671.849816
 31
0.0
  0
LINE
  5
11F4E
330
11E1E
100
AcDbEntity
  8
1
  6
Continuous
100
AcDbLine
 10
543.8820759999998
 20
663.849816
 30
0.0
 11
543.8820759999998
 21
671.849816
 31
0.0
  0
LINE
  5
11F4F
330
11E1E
100
AcDbEntity
  8
4
  6
CENTER
100
AcDbLine
 10
536.882076
 20
663.296925
 30
0.0
 11
536.882076
 21
674.8831199999997
 31
0.0
  0
LINE
  5
11F50
330
11E1E
100
AcDbEntity
  8
1
  6
Continuous
100
AcDbLine
 10
543.8820759999998
 20
669.849816
 30
0.0
 11
529.8820759999999
 21
669.849816
 31
0.0
  0
LINE
  5
11F51
330
11E1E
100
AcDbEntity
  8
1
  6
Continuous
100
AcDbLine
 10
543.8820759999998
 20
670.249816
 30
0.0
 11
529.8820759999999
 21
670.249816
 31
0.0
  0
LINE
  5
11F52
330
11E1E
100
AcDbEntity
  8
4
  6
CENTER
100
AcDbLine
 10
484.8820759999998
 20
675.046399
 30
0.0
 11
484.8820759999998
 21
667.046399
 31
0.0
  0
LINE
  5
11F53
330
11E1E
100
AcDbEntity
  8
4
  6
CENTER
100
AcDbLine
 10
360.8820759999999
 20
675.046399
 30
0.0
 11
360.8820759999999
 21
667.046399
 31
0.0
  0
LINE
  5
11F54
330
11E1E
100
AcDbEntity
  8
4
  6
CENTER
100
AcDbLine
 10
236.8820759999999
 20
675.046399
 30
0.0
 11
236.8820759999999
 21
667.046399
 31
0.0
  0
LINE
  5
11F55
330
11E1E
100
AcDbEntity
  8
4
  6
CENTER
100
AcDbLine
 10
127.882076
 20
675.046399
 30
0.0
 11
127.882076
 21
667.046399
 31
0.0
  0
LINE
  5
11F56
330
11E1E
100
AcDbEntity
  8
4
  6
CENTER
100
AcDbLine
 10
112.8820759999999
 20
675.046399
 30
0.0
 11
112.8820759999999
 21
667.046399
 31
0.0
  0
LINE
  5
11F57
330
11E1E
100
AcDbEntity
  8
3
  6
DASHED
100
AcDbLine
 10
615.882076
 20
663.849816
 30
0.0
 11
565.882076
 21
663.849816
 31
0.0
  0
ARC
  5
11F58
330
11E1E
100
AcDbEntity
  8
1
  6
Continuous
100
AcDbCircle
 10
93.88207599999999
 20
666.849816
 30
0.0
 40
3.0
100
AcDbArc
 50
180.0
 51
270.0
  0
LINE
  5
11F59
330
11E1E
100
AcDbEntity
  8
1
  6
Continuous
100
AcDbLine
 10
90.882076
 20
666.849816
 30
0.0
 11
90.882076
 21
671.849816
 31
0.0
  0
ARC
  5
11F5A
330
11E1E
100
AcDbEntity
  8
3
  6
DASHED
100
AcDbCircle
 10
615.882076
 20
666.849816
 30
0.0
 40
3.0
100
AcDbArc
 50
270.0
 51
0.0
  0
LINE
  5
11F5B
330
11E1E
100
AcDbEntity
  8
1
  6
Continuous
100
AcDbLine
 10
618.8820759999997
 20
667.849816
 30
0.0
 11
618.8820759999997
 21
671.849816
 31
0.0
  0
LINE
  5
11F5C
330
11E1E
100
AcDbEntity
  8
1
  6
Continuous
100
AcDbLine
 10
565.882076
 20
663.849816
 30
0.0
 11
93.88207599999999
 21
663.849816
 31
0.0
  0
LINE
  5
11F5D
330
11E1E
100
AcDbEntity
  8
4
  6
CENTER
100
AcDbLine
 10
536.882076
 20
755.430289
 30
0.0
 11
536.882076
 21
764.095005
 31
0.0
  0
LINE
  5
11F5E
330
11E1E
100
AcDbEntity
  8
1
  6
Continuous
100
AcDbLine
 10
515.882076
 20
557.849816
 30
0.0
 11
515.882076
 21
574.849816
 31
0.0
  0
LINE
  5
11F5F
330
11E1E
100
AcDbEntity
  8
3
  6
DASHED
100
AcDbLine
 10
543.8820759999998
 20
573.4498160000002
 30
0.0
 11
618.8820759999997
 21
573.4498160000002
 31
0.0
  0
LINE
  5
11F60
330
11E1E
100
AcDbEntity
  8
3
  6
DASHED
100
AcDbLine
 10
529.8820759999999
 20
571.4498160000001
 30
0.0
 11
530.7056059999998
 21
571.4498160000001
 31
0.0
  0
LINE
  5
11F61
330
11E1E
100
AcDbEntity
  8
3
  6
DASHED
100
AcDbLine
 10
529.8820759999999
 20
571.849816
 30
0.0
 11
529.8820759999999
 21
571.4498160000001
 31
0.0
  0
LINE
  5
11F62
330
11E1E
100
AcDbEntity
  8
3
  6
DASHED
100
AcDbLine
 10
536.882076
 20
568.4498160000003
 30
0.0
 11
529.8820759999999
 21
571.849816
 31
0.0
  0
LINE
  5
11F63
330
11E1E
100
AcDbEntity
  8
3
  6
DASHED
100
AcDbLine
 10
536.882076
 20
570.0498159999997
 30
0.0
 11
529.8820759999999
 21
573.4498160000002
 31
0.0
  0
LINE
  5
11F64
330
11E1E
100
AcDbEntity
  8
3
  6
DASHED
100
AcDbLine
 10
543.8820759999998
 20
571.849816
 30
0.0
 11
543.8820759999998
 21
571.4498160000001
 31
0.0
  0
LINE
  5
11F65
330
11E1E
100
AcDbEntity
  8
3
  6
DASHED
100
AcDbLine
 10
536.882076
 20
568.4498160000003
 30
0.0
 11
543.8820759999998
 21
571.849816
 31
0.0
  0
LINE
  5
11F66
330
11E1E
100
AcDbEntity
  8
3
  6
DASHED
100
AcDbLine
 10
536.882076
 20
570.0498159999997
 30
0.0
 11
543.8820759999998
 21
573.4498160000002
 31
0.0
  0
LINE
  5
11F67
330
11E1E
100
AcDbEntity
  8
3
  6
DASHED
100
AcDbLine
 10
618.8820759999997
 20
571.849816
 30
0.0
 11
618.8820759999997
 21
573.4498160000002
 31
0.0
  0
ARC
  5
11F68
330
11E1E
100
AcDbEntity
  8
3
  6
DASHED
100
AcDbCircle
 10
637.8820759999999
 20
568.849816
 30
0.0
 40
3.0
100
AcDbArc
 50
0.0
 51
61.024143
  0
LINE
  5
11F69
330
11E1E
100
AcDbEntity
  8
3
  6
DASHED
100
AcDbLine
 10
640.882076
 20
554.849816
 30
0.0
 11
640.882076
 21
568.849816
 31
0.0
  0
LINE
  5
11F6A
330
11E1E
100
AcDbEntity
  8
1
  6
Continuous
100
AcDbLine
 10
533.206631
 20
551.849816
 30
0.0
 11
637.8820759999999
 21
551.849816
 31
0.0
  0
ARC
  5
11F6B
330
11E1E
100
AcDbEntity
  8
1
  6
Continuous
100
AcDbCircle
 10
637.8820759999999
 20
554.849816
 30
0.0
 40
3.0
100
AcDbArc
 50
270.0
 51
327.769047
  0
ARC
  5
11F6C
330
11E1E
100
AcDbEntity
  8
3
  6
DASHED
100
AcDbCircle
 10
637.8820759999999
 20
554.849816
 30
0.0
 40
3.0
100
AcDbArc
 50
327.769047
 51
0.0
  0
CIRCLE
  5
11F6D
330
11E1E
100
AcDbEntity
  8
3
  6
DASHED
100
AcDbCircle
 10
629.8820759999999
 20
565.849816
 30
0.0
 40
11.0
  0
LINE
  5
11F6E
330
11E1E
100
AcDbEntity
  8
3
  6
DASHED
100
AcDbLine
 10
515.882076
 20
573.4498160000002
 30
0.0
 11
529.8820759999999
 21
573.4498160000002
 31
0.0
  0
LINE
  5
11F6F
330
11E1E
100
AcDbEntity
  8
3
  6
DASHED
100
AcDbLine
 10
543.0585469999998
 20
571.4498160000001
 30
0.0
 11
543.8820759999998
 21
571.4498160000001
 31
0.0
  0
LINE
  5
11F70
330
11E1E
100
AcDbEntity
  8
3
  6
DASHED
100
AcDbLine
 10
533.999723
 20
571.4498160000001
 30
0.0
 11
539.7644289999998
 21
571.4498160000001
 31
0.0
  0
LINE
  5
11F71
330
11E1E
100
AcDbEntity
  8
3
  6
DASHED
100
AcDbLine
 10
515.882076
 20
571.849816
 30
0.0
 11
529.8820759999999
 21
571.849816
 31
0.0
  0
LINE
  5
11F72
330
11E1E
100
AcDbEntity
  8
3
  6
DASHED
100
AcDbLine
 10
543.8820759999998
 20
571.849816
 30
0.0
 11
620.6625320000001
 21
571.849816
 31
0.0
  0
LINE
  5
11F73
330
11E1E
100
AcDbEntity
  8
4
  6
CENTER
100
AcDbLine
 10
629.8820759999999
 20
551.849816
 30
0.0
 11
629.8820759999999
 21
579.849816
 31
0.0
  0
LINE
  5
11F74
330
11E1E
100
AcDbEntity
  8
1
  6
Continuous
100
AcDbLine
 10
1065.882076
 20
471.4498159999997
 30
0.0
 11
515.882076
 21
471.4498159999997
 31
0.0
  0
LINE
  5
11F75
330
11E1E
100
AcDbEntity
  8
1
  6
Continuous
100
AcDbLine
 10
1062.882075999999
 20
463.4498159999998
 30
0.0
 11
540.882076
 21
463.4498159999998
 31
0.0
  0
LINE
  5
11F76
330
11E1E
100
AcDbEntity
  8
1
  6
Continuous
100
AcDbLine
 10
515.882076
 20
467.4498159999997
 30
0.0
 11
93.88207599999999
 21
467.4498159999997
 31
0.0
  0
LINE
  5
11F77
330
11E1E
100
AcDbEntity
  8
1
  6
Continuous
100
AcDbLine
 10
640.882076
 20
459.4498159999998
 30
0.0
 11
90.882076
 21
459.4498159999998
 31
0.0
  0
LINE
  5
11F78
330
11E1E
100
AcDbEntity
  8
1
  6
Continuous
100
AcDbLine
 10
90.882076
 20
464.449816
 30
0.0
 11
90.882076
 21
459.4498159999998
 31
0.0
  0
ARC
  5
11F79
330
11E1E
100
AcDbEntity
  8
1
  6
Continuous
100
AcDbCircle
 10
93.88207599999999
 20
464.449816
 30
0.0
 40
3.0
100
AcDbArc
 50
90.0
 51
180.0
  0
LINE
  5
11F7A
330
11E1E
100
AcDbEntity
  8
4
  6
CENTER
100
AcDbLine
 10
112.8820759999999
 20
456.253233
 30
0.0
 11
112.8820759999999
 21
464.253233
 31
0.0
  0
LINE
  5
11F7B
330
11E1E
100
AcDbEntity
  8
4
  6
CENTER
100
AcDbLine
 10
127.882076
 20
456.253233
 30
0.0
 11
127.882076
 21
464.253233
 31
0.0
  0
LINE
  5
11F7C
330
11E1E
100
AcDbEntity
  8
4
  6
CENTER
100
AcDbLine
 10
236.8820759999999
 20
456.253233
 30
0.0
 11
236.8820759999999
 21
464.253233
 31
0.0
  0
LINE
  5
11F7D
330
11E1E
100
AcDbEntity
  8
4
  6
CENTER
100
AcDbLine
 10
360.8820759999999
 20
456.253233
 30
0.0
 11
360.8820759999999
 21
464.253233
 31
0.0
  0
LINE
  5
11F7E
330
11E1E
100
AcDbEntity
  8
3
  6
DASHED
100
AcDbLine
 10
615.882076
 20
467.4498159999997
 30
0.0
 11
515.882076
 21
467.4498159999997
 31
0.0
  0
LINE
  5
11F7F
330
11E1E
100
AcDbEntity
  8
1
  6
Continuous
100
AcDbLine
 10
537.382076
 20
468.8498159999999
 30
0.0
 11
516.382076
 21
468.8498159999999
 31
0.0
  0
LINE
  5
11F80
330
11E1E
100
AcDbEntity
  8
1
  6
Continuous
100
AcDbLine
 10
537.8820759999999
 20
469.8498159999998
 30
0.0
 11
515.882076
 21
469.8498159999998
 31
0.0
  0
LINE
  5
11F81
330
11E1E
100
AcDbEntity
  8
4
  6
CENTER
100
AcDbLine
 10
484.8820759999998
 20
456.253233
 30
0.0
 11
484.8820759999998
 21
464.253233
 31
0.0
  0
LINE
  5
11F82
330
11E1E
100
AcDbEntity
  8
1
  6
Continuous
100
AcDbLine
 10
515.882076
 20
468.349816
 30
0.0
 11
515.882076
 21
462.3498159999998
 31
0.0
  0
ARC
  5
11F83
330
11E1E
100
AcDbEntity
  8
1
  6
Continuous
100
AcDbCircle
 10
516.382076
 20
468.349816
 30
0.0
 40
0.5
100
AcDbArc
 50
90.0
 51
180.0
  0
LINE
  5
11F84
330
11E1E
100
AcDbEntity
  8
1
  6
Continuous
100
AcDbLine
 10
515.882076
 20
471.4498159999997
 30
0.0
 11
515.882076
 21
469.8498159999998
 31
0.0
  0
LINE
  5
11F85
330
11E1E
100
AcDbEntity
  8
1
  6
Continuous
100
AcDbLine
 10
536.882076
 20
461.449816
 30
0.0
 11
536.882076
 21
461.8498159999998
 31
0.0
  0
LINE
  5
11F86
330
11E1E
100
AcDbEntity
  8
1
  6
Continuous
100
AcDbLine
 10
529.8820759999999
 20
461.8498159999998
 30
0.0
 11
529.8820759999999
 21
461.049816
 31
0.0
  0
LINE
  5
11F87
330
11E1E
100
AcDbEntity
  8
3
  6
DASHED
100
AcDbLine
 10
543.8820759999998
 20
467.4498159999997
 30
0.0
 11
543.8820759999998
 21
463.4498159999998
 31
0.0
  0
LINE
  5
11F88
330
11E1E
100
AcDbEntity
  8
4
  6
CENTER
100
AcDbLine
 10
536.882076
 20
468.002707
 30
0.0
 11
536.882076
 21
456.416512
 31
0.0
  0
LINE
  5
11F89
330
11E1E
100
AcDbEntity
  8
4
  6
CENTER
100
AcDbLine
 10
546.8820759999998
 20
456.253233
 30
0.0
 11
546.8820759999998
 21
464.253233
 31
0.0
  0
LINE
  5
11F8A
330
11E1E
100
AcDbEntity
  8
4
  6
CENTER
100
AcDbLine
 10
531.882076
 20
456.253233
 30
0.0
 11
531.882076
 21
464.253233
 31
0.0
  0
LINE
  5
11F8B
330
11E1E
100
AcDbEntity
  8
4
  6
CENTER
100
AcDbLine
 10
526.8820759999998
 20
458.030046
 30
0.0
 11
526.8820759999998
 21
475.9498159999998
 31
0.0
  0
LINE
  5
11F8C
330
11E1E
100
AcDbEntity
  8
4
  6
CENTER
100
AcDbLine
 10
535.8820759999998
 20
466.737296
 30
0.0
 11
535.8820759999998
 21
474.7372959999998
 31
0.0
  0
LINE
  5
11F8D
330
11E1E
100
AcDbEntity
  8
1
  6
Continuous
100
AcDbLine
 10
530.5320759999998
 20
472.149816
 30
0.0
 11
529.832076
 21
471.4498159999997
 31
0.0
  0
LINE
  5
11F8E
330
11E1E
100
AcDbEntity
  8
1
  6
Continuous
100
AcDbLine
 10
523.232076
 20
472.149816
 30
0.0
 11
523.9320759999999
 21
471.4498159999997
 31
0.0
  0
LINE
  5
11F8F
330
11E1E
100
AcDbEntity
  8
1
  6
Continuous
100
AcDbLine
 10
530.5320759999998
 20
472.149816
 30
0.0
 11
523.232076
 21
472.149816
 31
0.0
  0
LINE
  5
11F90
330
11E1E
100
AcDbEntity
  8
1
  6
Continuous
100
AcDbLine
 10
522.132076
 20
469.3498159999998
 30
0.0
 11
531.6320759999999
 21
469.3498159999998
 31
0.0
  0
LINE
  5
11F91
330
11E1E
100
AcDbEntity
  8
1
  6
Continuous
100
AcDbLine
 10
531.6320759999999
 20
469.3498159999998
 30
0.0
 11
531.6320759999999
 21
468.8498159999999
 31
0.0
  0
LINE
  5
11F92
330
11E1E
100
AcDbEntity
  8
1
  6
Continuous
100
AcDbLine
 10
531.6320759999999
 20
469.3498159999998
 30
0.0
 11
531.132076
 21
469.8498159999998
 31
0.0
  0
LINE
  5
11F93
330
11E1E
100
AcDbEntity
  8
1
  6
Continuous
100
AcDbLine
 10
522.132076
 20
469.3498159999998
 30
0.0
 11
522.132076
 21
468.8498159999999
 31
0.0
  0
LINE
  5
11F94
330
11E1E
100
AcDbEntity
  8
1
  6
Continuous
100
AcDbLine
 10
522.132076
 20
469.3498159999998
 30
0.0
 11
522.632076
 21
469.8498159999998
 31
0.0
  0
ARC
  5
11F95
330
11E1E
100
AcDbEntity
  8
1
  6
Continuous
100
AcDbCircle
 10
537.382076
 20
468.349816
 30
0.0
 40
0.5
100
AcDbArc
 50
0.0
 51
90.0
  0
LINE
  5
11F96
330
11E1E
100
AcDbEntity
  8
1
  6
Continuous
100
AcDbLine
 10
537.8820759999999
 20
471.4498159999997
 30
0.0
 11
537.8820759999999
 21
462.3498159999998
 31
0.0
  0
LINE
  5
11F97
330
11E1E
100
AcDbEntity
  8
4
  6
CENTER
100
AcDbLine
 10
547.8820759999998
 20
466.737296
 30
0.0
 11
547.8820759999998
 21
474.7372959999998
 31
0.0
  0
LINE
  5
11F98
330
11E1E
100
AcDbEntity
  8
1
  6
Continuous
100
AcDbLine
 10
543.8820759999998
 20
461.049816
 30
0.0
 11
529.8820759999999
 21
461.049816
 31
0.0
  0
LINE
  5
11F99
330
11E1E
100
AcDbEntity
  8
1
  6
Continuous
100
AcDbLine
 10
543.8820759999998
 20
461.449816
 30
0.0
 11
529.8820759999999
 21
461.449816
 31
0.0
  0
LINE
  5
11F9A
330
11E1E
100
AcDbEntity
  8
1
  6
Continuous
100
AcDbLine
 10
640.882076
 20
461.049816
 30
0.0
 11
90.882076
 21
461.049816
 31
0.0
  0
LINE
  5
11F9B
330
11E1E
100
AcDbEntity
  8
1
  6
Continuous
100
AcDbLine
 10
640.382076
 20
462.049816
 30
0.0
 11
619.382076
 21
462.049816
 31
0.0
  0
LINE
  5
11F9C
330
11E1E
100
AcDbEntity
  8
1
  6
Continuous
100
AcDbLine
 10
618.8820759999997
 20
463.4498159999998
 30
0.0
 11
618.8820759999997
 21
461.049816
 31
0.0
  0
LINE
  5
11F9D
330
11E1E
100
AcDbEntity
  8
4
  6
CENTER
100
AcDbLine
 10
608.8820759999999
 20
456.253233
 30
0.0
 11
608.8820759999999
 21
464.253233
 31
0.0
  0
LINE
  5
11F9E
330
11E1E
100
AcDbEntity
  8
4
  6
CENTER
100
AcDbLine
 10
620.882076
 20
456.253233
 30
0.0
 11
620.882076
 21
464.253233
 31
0.0
  0
LINE
  5
11F9F
330
11E1E
100
AcDbEntity
  8
3
  6
DASHED
100
AcDbLine
 10
618.8820759999997
 20
464.449816
 30
0.0
 11
618.8820759999997
 21
463.4498159999998
 31
0.0
  0
ARC
  5
11FA0
330
11E1E
100
AcDbEntity
  8
3
  6
DASHED
100
AcDbCircle
 10
615.882076
 20
464.449816
 30
0.0
 40
3.0
100
AcDbArc
 50
0.0
 51
90.0
  0
ARC
  5
11FA1
330
11E1E
100
AcDbEntity
  8
1
  6
Continuous
100
AcDbCircle
 10
619.382076
 20
462.549816
 30
0.0
 40
0.5
100
AcDbArc
 50
180.0
 51
270.0
  0
LINE
  5
11FA2
330
11E1E
100
AcDbEntity
  8
1
  6
Continuous
100
AcDbLine
 10
634.632076
 20
461.549816
 30
0.0
 11
634.632076
 21
462.049816
 31
0.0
  0
LINE
  5
11FA3
330
11E1E
100
AcDbEntity
  8
1
  6
Continuous
100
AcDbLine
 10
625.1320759999997
 20
461.549816
 30
0.0
 11
625.1320759999997
 21
462.049816
 31
0.0
  0
LINE
  5
11FA4
330
11E1E
100
AcDbEntity
  8
4
  6
CENTER
100
AcDbLine
 10
629.8820759999999
 20
472.904023
 30
0.0
 11
629.8820759999999
 21
454.9498159999997
 31
0.0
  0
LINE
  5
11FA5
330
11E1E
100
AcDbEntity
  8
1
  6
Continuous
100
AcDbLine
 10
640.882076
 20
463.4498159999998
 30
0.0
 11
640.882076
 21
462.549816
 31
0.0
  0
ARC
  5
11FA6
330
11E1E
100
AcDbEntity
  8
1
  6
Continuous
100
AcDbCircle
 10
640.382076
 20
462.549816
 30
0.0
 40
0.5
100
AcDbArc
 50
270.0
 51
0.0
  0
LINE
  5
11FA7
330
11E1E
100
AcDbEntity
  8
1
  6
Continuous
100
AcDbLine
 10
634.632076
 20
461.549816
 30
0.0
 11
634.132076
 21
461.049816
 31
0.0
  0
LINE
  5
11FA8
330
11E1E
100
AcDbEntity
  8
1
  6
Continuous
100
AcDbLine
 10
625.1320759999997
 20
461.549816
 30
0.0
 11
625.632076
 21
461.049816
 31
0.0
  0
LINE
  5
11FA9
330
11E1E
100
AcDbEntity
  8
1
  6
Continuous
100
AcDbLine
 10
625.1320759999997
 20
461.549816
 30
0.0
 11
634.632076
 21
461.549816
 31
0.0
  0
LINE
  5
11FAA
330
11E1E
100
AcDbEntity
  8
1
  6
Continuous
100
AcDbLine
 10
633.532076
 20
458.7498159999998
 30
0.0
 11
626.232076
 21
458.7498159999998
 31
0.0
  0
LINE
  5
11FAB
330
11E1E
100
AcDbEntity
  8
1
  6
Continuous
100
AcDbLine
 10
626.232076
 20
458.7498159999998
 30
0.0
 11
626.9320759999999
 21
459.4498159999998
 31
0.0
  0
LINE
  5
11FAC
330
11E1E
100
AcDbEntity
  8
1
  6
Continuous
100
AcDbLine
 10
633.532076
 20
458.7498159999998
 30
0.0
 11
632.832076
 21
459.4498159999998
 31
0.0
  0
LINE
  5
11FAD
330
11E1E
100
AcDbEntity
  8
1
  6
Continuous
100
AcDbLine
 10
640.882076
 20
461.049816
 30
0.0
 11
640.882076
 21
459.4498159999998
 31
0.0
  0
LINE
  5
11FAE
330
11E1E
100
AcDbEntity
  8
4
  6
CENTER
100
AcDbLine
 10
671.8820759999998
 20
466.737296
 30
0.0
 11
671.8820759999998
 21
474.7372959999998
 31
0.0
  0
LINE
  5
11FAF
330
11E1E
100
AcDbEntity
  8
4
  6
CENTER
100
AcDbLine
 10
795.882076
 20
466.737296
 30
0.0
 11
795.882076
 21
474.7372959999998
 31
0.0
  0
LINE
  5
11FB0
330
11E1E
100
AcDbEntity
  8
4
  6
CENTER
100
AcDbLine
 10
919.882076
 20
466.737296
 30
0.0
 11
919.882076
 21
474.7372959999998
 31
0.0
  0
LINE
  5
11FB1
330
11E1E
100
AcDbEntity
  8
4
  6
CENTER
100
AcDbLine
 10
1028.882075999999
 20
466.737296
 30
0.0
 11
1028.882075999999
 21
474.7372959999998
 31
0.0
  0
LINE
  5
11FB2
330
11E1E
100
AcDbEntity
  8
1
  6
Continuous
100
AcDbLine
 10
1065.882076
 20
471.4498159999997
 30
0.0
 11
1065.882076
 21
466.4498159999998
 31
0.0
  0
LINE
  5
11FB3
330
11E1E
100
AcDbEntity
  8
4
  6
CENTER
100
AcDbLine
 10
1043.882075999998
 20
466.737296
 30
0.0
 11
1043.882075999998
 21
474.7372959999998
 31
0.0
  0
ARC
  5
11FB4
330
11E1E
100
AcDbEntity
  8
1
  6
Continuous
100
AcDbCircle
 10
1062.882075999999
 20
466.4498159999998
 30
0.0
 40
3.0
100
AcDbArc
 50
270.0
 51
0.0
  0
ARC
  5
11FB5
330
11E1E
100
AcDbEntity
  8
1
  6
Continuous
100
AcDbCircle
 10
540.882076
 20
466.4498159999998
 30
0.0
 40
3.0
100
AcDbArc
 50
180.0
 51
270.0
  0
LINE
  5
11FB6
330
11E1E
100
AcDbEntity
  8
1
  6
Continuous
100
AcDbLine
 10
543.8820759999998
 20
463.4498159999998
 30
0.0
 11
543.8820759999998
 21
461.049816
 31
0.0
  0
LINE
  5
11FB7
330
11E1E
100
AcDbEntity
  8
1
  6
Continuous
100
AcDbLine
 10
537.382076
 20
461.8498159999998
 30
0.0
 11
516.382076
 21
461.8498159999998
 31
0.0
  0
ARC
  5
11FB8
330
11E1E
100
AcDbEntity
  8
1
  6
Continuous
100
AcDbCircle
 10
537.382076
 20
462.3498159999998
 30
0.0
 40
0.5
100
AcDbArc
 50
270.0
 51
0.0
  0
ARC
  5
11FB9
330
11E1E
100
AcDbEntity
  8
1
  6
Continuous
100
AcDbCircle
 10
516.382076
 20
462.3498159999998
 30
0.0
 40
0.5
100
AcDbArc
 50
180.0
 51
270.0
  0
ARC
  5
11FBA
330
11E1E
100
AcDbEntity
  8
3
  6
DASHED
100
AcDbCircle
 10
526.8820759999998
 20
770.849816
 30
0.0
 40
11.0
100
AcDbArc
 50
125.096801
 51
54.903199
  0
ARC
  5
11FBB
330
11E1E
100
AcDbEntity
  8
3
  6
DASHED
100
AcDbCircle
 10
629.8820759999999
 20
765.849816
 30
0.0
 40
11.0
100
AcDbArc
 50
329.2484979999999
 51
213.0557309999999
  0
ARC
  5
11FBC
330
11E1E
100
AcDbEntity
  8
3
  6
DASHED
100
AcDbCircle
 10
526.8820759999998
 20
560.849816
 30
0.0
 40
11.0
100
AcDbArc
 50
326.944269
 51
21.052718
  0
ARC
  5
11FBD
330
11E1E
100
AcDbEntity
  8
3
  6
DASHED
100
AcDbCircle
 10
526.8820759999998
 20
560.849816
 30
0.0
 40
11.0
100
AcDbArc
 50
41.806413
 51
210.751502
  0
LINE
  5
11FBE
330
11E1E
100
AcDbEntity
  8
4
  6
CENTER
100
AcDbLine
 10
620.882076
 20
566.349816
 30
0.0
 11
620.882076
 21
557.349816
 31
0.0
  0
LINE
  5
11FBF
330
11E1E
100
AcDbEntity
  8
4
  6
CENTER
100
AcDbLine
 10
608.8820759999999
 20
567.849816
 30
0.0
 11
608.8820759999999
 21
555.849816
 31
0.0
  0
LINE
  5
11FC0
330
11E1E
100
AcDbEntity
  8
4
  6
CENTER
100
AcDbLine
 10
643.7849700000001
 20
565.849816
 30
0.0
 11
615.78497
 21
565.849816
 31
0.0
  0
LINE
  5
11FC1
330
11E1E
100
AcDbEntity
  8
4
  6
CENTER
100
AcDbLine
 10
84.17394899999996
 20
561.849816
 30
0.0
 11
1073.354646
 21
561.849816
 31
0.0
  0
LINE
  5
11FC2
330
11E1E
100
AcDbEntity
  8
1
  6
Continuous
100
AcDbLine
 10
565.882076
 20
334.2999999999999
 30
0.0
 11
1065.882076
 21
334.2999999999999
 31
0.0
  0
LINE
  5
11FC3
330
11E1E
100
AcDbEntity
  8
1
  6
Continuous
100
AcDbLine
 10
537.8820759999999
 20
360.4999999999998
 30
0.0
 11
1065.882076
 21
360.4999999999998
 31
0.0
  0
LINE
  5
11FC4
330
11E1E
100
AcDbEntity
  8
4
  6
CENTER
100
AcDbLine
 10
510.8820759999998
 20
347.3999999999999
 30
0.0
 11
1070.882075999999
 21
347.3999999999999
 31
0.0
  0
LINE
  5
11FC5
330
11E1E
100
AcDbEntity
  8
4
  6
CENTER
100
AcDbLine
 10
84.17394899999996
 20
351.8999999999999
 30
0.0
 11
646.477576
 21
351.8999999999999
 31
0.0
  0
LINE
  5
11FC6
330
11E1E
100
AcDbEntity
  8
1
  6
Continuous
100
AcDbLine
 10
640.882076
 20
136.8999999999997
 30
0.0
 11
1065.882076
 21
136.8999999999997
 31
0.0
  0
LINE
  5
11FC7
330
11E1E
100
AcDbEntity
  8
1
  6
Continuous
100
AcDbLine
 10
640.419792
 20
135.3
 30
0.0
 11
1065.882076
 21
135.3
 31
0.0
  0
LINE
  5
11FC8
330
11E1E
100
AcDbEntity
  8
1
  6
Continuous
100
AcDbLine
 10
518.8820759999998
 20
159.9
 30
0.0
 11
1065.882076
 21
159.9
 31
0.0
  0
LINE
  5
11FC9
330
11E1E
100
AcDbEntity
  8
4
  6
CENTER
100
AcDbLine
 10
510.8820759999998
 20
148.3999999999998
 30
0.0
 11
1070.882075999999
 21
148.3999999999998
 31
0.0
  0
LINE
  5
11FCA
330
11E1E
100
AcDbEntity
  8
1
  6
Continuous
100
AcDbLine
 10
565.882076
 20
161.5
 30
0.0
 11
1065.882076
 21
161.5
 31
0.0
  0
LINE
  5
11FCB
330
11E1E
100
AcDbEntity
  8
1
  6
Continuous
100
AcDbLine
 10
1065.882076
 20
253.9
 30
0.0
 11
515.882076
 21
253.9
 31
0.0
  0
LINE
  5
11FCC
330
11E1E
100
AcDbEntity
  8
1
  6
Continuous
100
AcDbLine
 10
1062.882075999999
 20
245.9
 30
0.0
 11
568.8820759999997
 21
245.9
 31
0.0
  0
LINE
  5
11FCD
330
11E1E
100
AcDbEntity
  8
1
  6
Continuous
100
AcDbLine
 10
1062.882075999999
 20
49.5
 30
0.0
 11
540.882076
 21
49.5
 31
0.0
  0
LINE
  5
11FCE
330
11E1E
100
AcDbEntity
  8
1
  6
Continuous
100
AcDbLine
 10
1065.882076
 20
41.5
 30
0.0
 11
515.882076
 21
41.5
 31
0.0
  0
LINE
  5
11FCF
330
11E1E
100
AcDbEntity
  8
1
  6
Continuous
100
AcDbLine
 10
90.882076
 20
340.3
 30
0.0
 11
515.882076
 21
340.3
 31
0.0
  0
LINE
  5
11FD0
330
11E1E
100
AcDbEntity
  8
1
  6
Continuous
100
AcDbLine
 10
90.882076
 20
341.9
 30
0.0
 11
515.882076
 21
341.9
 31
0.0
  0
LINE
  5
11FD1
330
11E1E
100
AcDbEntity
  8
1
  6
Continuous
100
AcDbLine
 10
93.88207599999999
 20
361.8999999999999
 30
0.0
 11
520.5575209999998
 21
361.8999999999999
 31
0.0
  0
LINE
  5
11FD2
330
11E1E
100
AcDbEntity
  8
1
  6
Continuous
100
AcDbLine
 10
640.882076
 20
51.9
 30
0.0
 11
90.882076
 21
51.9
 31
0.0
  0
LINE
  5
11FD3
330
11E1E
100
AcDbEntity
  8
1
  6
Continuous
100
AcDbLine
 10
640.882076
 20
53.5
 30
0.0
 11
90.882076
 21
53.5
 31
0.0
  0
LINE
  5
11FD4
330
11E1E
100
AcDbEntity
  8
1
  6
Continuous
100
AcDbLine
 10
515.882076
 20
45.49999999999999
 30
0.0
 11
93.88207599999999
 21
45.49999999999999
 31
0.0
  0
ARC
  5
11FD5
330
11E1E
100
AcDbEntity
  8
1
  6
Continuous
100
AcDbCircle
 10
93.88207599999999
 20
48.5
 30
0.0
 40
3.0
100
AcDbArc
 50
180.0
 51
270.0
  0
LINE
  5
11FD6
330
11E1E
100
AcDbEntity
  8
1
  6
Continuous
100
AcDbLine
 10
90.882076
 20
48.5
 30
0.0
 11
90.882076
 21
53.5
 31
0.0
  0
LINE
  5
11FD7
330
11E1E
100
AcDbEntity
  8
4
  6
CENTER
100
AcDbLine
 10
112.8820759999999
 20
56.696583
 30
0.0
 11
112.8820759999999
 21
48.69658300000001
 31
0.0
  0
LINE
  5
11FD8
330
11E1E
100
AcDbEntity
  8
4
  6
CENTER
100
AcDbLine
 10
127.882076
 20
56.696583
 30
0.0
 11
127.882076
 21
48.69658300000001
 31
0.0
  0
LINE
  5
11FD9
330
11E1E
100
AcDbEntity
  8
1
  6
Continuous
100
AcDbLine
 10
25.0
 20
159.9
 30
0.0
 11
25.0
 21
136.8999999999997
 31
0.0
  0
LINE
  5
11FDA
330
11E1E
100
AcDbEntity
  8
1
  6
Continuous
100
AcDbLine
 10
26.6
 20
159.9
 30
0.0
 11
26.6
 21
136.8999999999997
 31
0.0
  0
ARC
  5
11FDB
330
11E1E
100
AcDbEntity
  8
1
  6
Continuous
100
AcDbCircle
 10
27.9
 20
158.4
 30
0.0
 40
0.5
100
AcDbArc
 50
90.0
 51
180.0
  0
ARC
  5
11FDC
330
11E1E
100
AcDbEntity
  8
1
  6
Continuous
100
AcDbCircle
 10
33.9
 20
158.4
 30
0.0
 40
0.5
100
AcDbArc
 50
0.0
 51
90.0
  0
LINE
  5
11FDD
330
11E1E
100
AcDbEntity
  8
1
  6
Continuous
100
AcDbLine
 10
25.0
 20
136.8999999999997
 30
0.0
 11
27.6
 21
136.8999999999997
 31
0.0
  0
LINE
  5
11FDE
330
11E1E
100
AcDbEntity
  8
1
  6
Continuous
100
AcDbLine
 10
26.6
 20
135.3
 30
0.0
 11
27.6
 21
135.3
 31
0.0
  0
ARC
  5
11FDF
330
11E1E
100
AcDbEntity
  8
1
  6
Continuous
100
AcDbCircle
 10
26.6
 20
136.8999999999997
 30
0.0
 40
1.6
100
AcDbArc
 50
180.0
 51
270.0
  0
LINE
  5
11FE0
330
11E1E
100
AcDbEntity
  8
4
  6
CENTER
100
AcDbLine
 10
29.487133
 20
148.3999999999998
 30
0.0
 11
22.56572999999999
 21
148.3999999999998
 31
0.0
  0
LINE
  5
11FE1
330
11E1E
100
AcDbEntity
  8
1
  6
Continuous
100
AcDbLine
 10
27.4
 20
158.4
 30
0.0
 11
27.4
 21
147.65
 31
0.0
  0
LINE
  5
11FE2
330
11E1E
100
AcDbEntity
  8
1
  6
Continuous
100
AcDbLine
 10
34.39999999999999
 20
158.4
 30
0.0
 11
34.39999999999999
 21
155.4999999999998
 31
0.0
  0
ARC
  5
11FE3
330
11E1E
100
AcDbEntity
  8
1
  6
Continuous
100
AcDbCircle
 10
27.9
 20
137.4
 30
0.0
 40
0.5
100
AcDbArc
 50
180.0
 51
233.130102
  0
LINE
  5
11FE4
330
11E1E
100
AcDbEntity
  8
1
  6
Continuous
100
AcDbLine
 10
35.4
 20
152.15
 30
0.0
 11
35.4
 21
143.65
 31
0.0
  0
LINE
  5
11FE5
330
11E1E
100
AcDbEntity
  8
1
  6
Continuous
100
AcDbLine
 10
34.9
 20
143.1499999999998
 30
0.0
 11
34.9
 21
152.65
 31
0.0
  0
LINE
  5
11FE6
330
11E1E
100
AcDbEntity
  8
1
  6
Continuous
100
AcDbLine
 10
34.9
 20
143.1499999999998
 30
0.0
 11
35.4
 21
143.65
 31
0.0
  0
LINE
  5
11FE7
330
11E1E
100
AcDbEntity
  8
1
  6
Continuous
100
AcDbLine
 10
34.9
 20
152.65
 30
0.0
 11
35.4
 21
152.15
 31
0.0
  0
LINE
  5
11FE8
330
11E1E
100
AcDbEntity
  8
1
  6
Continuous
100
AcDbLine
 10
34.9
 20
143.1499999999998
 30
0.0
 11
34.6
 21
143.1499999999998
 31
0.0
  0
LINE
  5
11FE9
330
11E1E
100
AcDbEntity
  8
1
  6
Continuous
100
AcDbLine
 10
34.9
 20
152.65
 30
0.0
 11
34.6
 21
152.65
 31
0.0
  0
LINE
  5
11FEA
330
11E1E
100
AcDbEntity
  8
1
  6
Continuous
100
AcDbLine
 10
27.9
 20
158.9
 30
0.0
 11
33.9
 21
158.9
 31
0.0
  0
LINE
  5
11FEB
330
11E1E
100
AcDbEntity
  8
4
  6
CENTER
100
AcDbLine
 10
22.408002
 20
142.9
 30
0.0
 11
36.056013
 21
142.9
 31
0.0
  0
LINE
  5
11FEC
330
11E1E
100
AcDbEntity
  8
1
  6
Continuous
100
AcDbLine
 10
27.1
 20
138.15
 30
0.0
 11
27.1
 21
147.65
 31
0.0
  0
LINE
  5
11FED
330
11E1E
100
AcDbEntity
  8
1
  6
Continuous
100
AcDbLine
 10
27.1
 20
138.15
 30
0.0
 11
27.6
 21
138.15
 31
0.0
  0
LINE
  5
11FEE
330
11E1E
100
AcDbEntity
  8
1
  6
Continuous
100
AcDbLine
 10
27.1
 20
138.15
 30
0.0
 11
26.6
 21
138.65
 31
0.0
  0
ARC
  5
11FEF
330
11E1E
100
AcDbEntity
  8
1
  6
Continuous
100
AcDbCircle
 10
28.1
 20
153.3999999999998
 30
0.0
 40
0.5
100
AcDbArc
 50
90.0
 51
180.0
  0
LINE
  5
11FF0
330
11E1E
100
AcDbEntity
  8
1
  6
Continuous
100
AcDbLine
 10
27.1
 20
147.65
 30
0.0
 11
27.6
 21
147.65
 31
0.0
  0
LINE
  5
11FF1
330
11E1E
100
AcDbEntity
  8
1
  6
Continuous
100
AcDbLine
 10
35.4
 20
153.9
 30
0.0
 11
28.1
 21
153.9
 31
0.0
  0
ARC
  5
11FF2
330
11E1E
100
AcDbEntity
  8
1
  6
Continuous
100
AcDbCircle
 10
34.1
 20
153.3999999999998
 30
0.0
 40
0.5
100
AcDbArc
 50
0.0
 51
90.0
  0
LINE
  5
11FF3
330
11E1E
100
AcDbEntity
  8
1
  6
Continuous
100
AcDbLine
 10
27.1
 20
147.65
 30
0.0
 11
26.6
 21
147.1499999999998
 31
0.0
  0
LINE
  5
11FF4
330
11E1E
100
AcDbEntity
  8
1
  6
Continuous
100
AcDbLine
 10
24.3
 20
146.55
 30
0.0
 11
24.3
 21
139.25
 31
0.0
  0
LINE
  5
11FF5
330
11E1E
100
AcDbEntity
  8
1
  6
Continuous
100
AcDbLine
 10
24.3
 20
146.55
 30
0.0
 11
25.0
 21
145.8499999999999
 31
0.0
  0
LINE
  5
11FF6
330
11E1E
100
AcDbEntity
  8
1
  6
Continuous
100
AcDbLine
 10
24.3
 20
139.25
 30
0.0
 11
25.0
 21
139.9499999999999
 31
0.0
  0
LINE
  5
11FF7
330
11E1E
100
AcDbEntity
  8
1
  6
Continuous
100
AcDbLine
 10
37.0
 20
133.9
 30
0.0
 11
35.4
 21
133.9
 31
0.0
  0
LINE
  5
11FF8
330
11E1E
100
AcDbEntity
  8
1
  6
Continuous
100
AcDbLine
 10
35.4
 20
155.4999999999998
 30
0.0
 11
29.0
 21
155.4999999999998
 31
0.0
  0
LINE
  5
11FF9
330
11E1E
100
AcDbEntity
  8
1
  6
Continuous
100
AcDbLine
 10
37.0
 20
153.9
 30
0.0
 11
37.0
 21
133.9
 31
0.0
  0
LINE
  5
11FFA
330
11E1E
100
AcDbEntity
  8
1
  6
Continuous
100
AcDbLine
 10
35.4
 20
153.9
 30
0.0
 11
35.4
 21
133.9
 31
0.0
  0
LINE
  5
11FFB
330
11E1E
100
AcDbEntity
  8
4
  6
CENTER
100
AcDbLine
 10
39.63852199999998
 20
143.9
 30
0.0
 11
32.71711899999999
 21
143.9
 31
0.0
  0
LINE
  5
11FFC
330
11E1E
100
AcDbEntity
  8
1
  6
Continuous
100
AcDbLine
 10
29.0
 20
155.4999999999998
 30
0.0
 11
29.0
 21
153.9
 31
0.0
  0
ARC
  5
11FFD
330
11E1E
100
AcDbEntity
  8
1
  6
Continuous
100
AcDbCircle
 10
35.4
 20
153.9
 30
0.0
 40
1.6
100
AcDbArc
 50
0.0
 51
90.0
  0
LINE
  5
11FFE
330
11E1E
100
AcDbEntity
  8
4
  6
CENTER
100
AcDbLine
 10
39.63852199999998
 20
147.9
 30
0.0
 11
25.830649
 21
147.9
 31
0.0
  0
LINE
  5
11FFF
330
11E1E
100
AcDbEntity
  8
1
  6
Continuous
100
AcDbLine
 10
37.7
 20
151.55
 30
0.0
 11
37.7
 21
144.25
 31
0.0
  0
LINE
  5
12000
330
11E1E
100
AcDbEntity
  8
1
  6
Continuous
100
AcDbLine
 10
37.7
 20
151.55
 30
0.0
 11
37.0
 21
150.8499999999999
 31
0.0
  0
LINE
  5
12001
330
11E1E
100
AcDbEntity
  8
1
  6
Continuous
100
AcDbLine
 10
37.7
 20
144.25
 30
0.0
 11
37.0
 21
144.95
 31
0.0
  0
LINE
  5
12002
330
11E1E
100
AcDbEntity
  8
1
  6
Continuous
100
AcDbLine
 10
27.4
 20
138.15
 30
0.0
 11
27.4
 21
137.4
 31
0.0
  0
LINE
  5
12003
330
11E1E
100
AcDbEntity
  8
1
  6
Continuous
100
AcDbLine
 10
34.39999999999999
 20
153.9
 30
0.0
 11
34.39999999999999
 21
153.8
 31
0.0
  0
ARC
  5
12004
330
11E1E
100
AcDbEntity
  8
1
  6
Continuous
100
AcDbCircle
 10
28.1
 20
132.4
 30
0.0
 40
0.5
100
AcDbArc
 50
180.0
 51
270.0
  0
LINE
  5
12005
330
11E1E
100
AcDbEntity
  8
1
  6
Continuous
100
AcDbLine
 10
34.1
 20
131.9
 30
0.0
 11
28.1
 21
131.9
 31
0.0
  0
ARC
  5
12006
330
11E1E
100
AcDbEntity
  8
1
  6
Continuous
100
AcDbCircle
 10
34.1
 20
132.4
 30
0.0
 40
0.5
100
AcDbArc
 50
270.0
 51
0.0
  0
LINE
  5
12007
330
11E1E
100
AcDbEntity
  8
1
  6
Continuous
100
AcDbLine
 10
34.6
 20
153.3999999999998
 30
0.0
 11
34.6
 21
132.4
 31
0.0
  0
LINE
  5
12008
330
11E1E
100
AcDbEntity
  8
1
  6
Continuous
100
AcDbLine
 10
27.6
 20
153.3999999999998
 30
0.0
 11
27.6
 21
132.4
 31
0.0
  0
LINE
  5
12009
330
11E1E
100
AcDbEntity
  8
1
  6
Continuous
100
AcDbLine
 10
26.6
 20
161.5
 30
0.0
 11
33.0
 21
161.5
 31
0.0
  0
LINE
  5
1200A
330
11E1E
100
AcDbEntity
  8
1
  6
Continuous
100
AcDbLine
 10
25.0
 20
159.9
 30
0.0
 11
33.0
 21
159.9
 31
0.0
  0
LINE
  5
1200B
330
11E1E
100
AcDbEntity
  8
1
  6
Continuous
100
AcDbLine
 10
33.0
 20
161.5
 30
0.0
 11
33.0
 21
159.9
 31
0.0
  0
ARC
  5
1200C
330
11E1E
100
AcDbEntity
  8
1
  6
Continuous
100
AcDbCircle
 10
26.6
 20
159.9
 30
0.0
 40
1.6
100
AcDbArc
 50
90.0
 51
180.0
  0
LINE
  5
1200D
330
11E1E
100
AcDbEntity
  8
1
  6
Continuous
100
AcDbLine
 10
90.882076
 20
358.8999999999999
 30
0.0
 11
90.882076
 21
340.3
 31
0.0
  0
ARC
  5
1200E
330
11E1E
100
AcDbEntity
  8
1
  6
Continuous
100
AcDbCircle
 10
93.88207599999999
 20
358.8999999999999
 30
0.0
 40
3.0
100
AcDbArc
 50
90.0
 51
180.0
  0
CIRCLE
  5
1200F
330
11E1E
100
AcDbEntity
  8
1
  6
Continuous
100
AcDbCircle
 10
127.882076
 20
351.8999999999999
 30
0.0
 40
2.0
  0
CIRCLE
  5
12010
330
11E1E
100
AcDbEntity
  8
1
  6
Continuous
100
AcDbCircle
 10
112.8820759999999
 20
351.8999999999999
 30
0.0
 40
3.0
  0
LINE
  5
12011
330
11E1E
100
AcDbEntity
  8
4
  6
CENTER
100
AcDbLine
 10
112.8820759999999
 20
357.8999999999999
 30
0.0
 11
112.8820759999999
 21
345.8999999999999
 31
0.0
  0
CIRCLE
  5
12012
330
11E1E
100
AcDbEntity
  8
1
  6
Continuous
100
AcDbCircle
 10
112.8820759999999
 20
351.8999999999999
 30
0.0
 40
4.299999999999998
  0
LINE
  5
12013
330
11E1E
100
AcDbEntity
  8
4
  6
CENTER
100
AcDbLine
 10
127.882076
 20
347.8999999999999
 30
0.0
 11
127.882076
 21
355.8999999999999
 31
0.0
  0
LINE
  5
12014
330
11E1E
100
AcDbEntity
  8
4
  6
CENTER
100
AcDbLine
 10
236.8820759999999
 20
56.696583
 30
0.0
 11
236.8820759999999
 21
48.69658300000001
 31
0.0
  0
LINE
  5
12015
330
11E1E
100
AcDbEntity
  8
4
  6
CENTER
100
AcDbLine
 10
360.8820759999999
 20
56.696583
 30
0.0
 11
360.8820759999999
 21
48.69658300000001
 31
0.0
  0
CIRCLE
  5
12016
330
11E1E
100
AcDbEntity
  8
1
  6
Continuous
100
AcDbCircle
 10
236.8820759999999
 20
351.8999999999999
 30
0.0
 40
3.0
  0
LINE
  5
12017
330
11E1E
100
AcDbEntity
  8
4
  6
CENTER
100
AcDbLine
 10
236.8820759999999
 20
357.8999999999999
 30
0.0
 11
236.8820759999999
 21
345.8999999999999
 31
0.0
  0
CIRCLE
  5
12018
330
11E1E
100
AcDbEntity
  8
1
  6
Continuous
100
AcDbCircle
 10
236.8820759999999
 20
351.8999999999999
 30
0.0
 40
4.299999999999998
  0
CIRCLE
  5
12019
330
11E1E
100
AcDbEntity
  8
1
  6
Continuous
100
AcDbCircle
 10
360.8820759999999
 20
351.8999999999999
 30
0.0
 40
3.0
  0
CIRCLE
  5
1201A
330
11E1E
100
AcDbEntity
  8
1
  6
Continuous
100
AcDbCircle
 10
360.8820759999999
 20
351.8999999999999
 30
0.0
 40
4.299999999999998
  0
LINE
  5
1201B
330
11E1E
100
AcDbEntity
  8
4
  6
CENTER
100
AcDbLine
 10
360.8820759999999
 20
357.8999999999999
 30
0.0
 11
360.8820759999999
 21
345.8999999999999
 31
0.0
  0
LINE
  5
1201C
330
11E1E
100
AcDbEntity
  8
3
  6
DASHED
100
AcDbLine
 10
543.8820759999998
 20
340.3
 30
0.0
 11
618.8820759999997
 21
340.3
 31
0.0
  0
LINE
  5
1201D
330
11E1E
100
AcDbEntity
  8
1
  6
Continuous
100
AcDbLine
 10
533.206631
 20
361.8999999999999
 30
0.0
 11
637.8820759999999
 21
361.8999999999999
 31
0.0
  0
LINE
  5
1201E
330
11E1E
100
AcDbEntity
  8
3
  6
DASHED
100
AcDbLine
 10
543.8820759999998
 20
341.9
 30
0.0
 11
620.6625320000001
 21
341.9
 31
0.0
  0
LINE
  5
1201F
330
11E1E
100
AcDbEntity
  8
3
  6
DASHED
100
AcDbLine
 10
615.882076
 20
45.49999999999999
 30
0.0
 11
515.882076
 21
45.49999999999999
 31
0.0
  0
LINE
  5
12020
330
11E1E
100
AcDbEntity
  8
4
  6
CENTER
100
AcDbLine
 10
547.8820759999998
 20
46.21251899999999
 30
0.0
 11
547.8820759999998
 21
38.212519
 31
0.0
  0
LINE
  5
12021
330
11E1E
100
AcDbEntity
  8
1
  6
Continuous
100
AcDbLine
 10
537.8820759999999
 20
41.5
 30
0.0
 11
537.8820759999999
 21
50.6
 31
0.0
  0
LINE
  5
12022
330
11E1E
100
AcDbEntity
  8
4
  6
CENTER
100
AcDbLine
 10
535.8820759999998
 20
46.21251899999999
 30
0.0
 11
535.8820759999998
 21
38.212519
 31
0.0
  0
LINE
  5
12023
330
11E1E
100
AcDbEntity
  8
4
  6
CENTER
100
AcDbLine
 10
526.8820759999998
 20
54.91976999999999
 30
0.0
 11
526.8820759999998
 21
37.0
 31
0.0
  0
LINE
  5
12024
330
11E1E
100
AcDbEntity
  8
1
  6
Continuous
100
AcDbLine
 10
515.882076
 20
44.59999999999999
 30
0.0
 11
515.882076
 21
50.6
 31
0.0
  0
LINE
  5
12025
330
11E1E
100
AcDbEntity
  8
1
  6
Continuous
100
AcDbLine
 10
537.382076
 20
51.1
 30
0.0
 11
516.382076
 21
51.1
 31
0.0
  0
LINE
  5
12026
330
11E1E
100
AcDbEntity
  8
4
  6
CENTER
100
AcDbLine
 10
484.8820759999998
 20
56.696583
 30
0.0
 11
484.8820759999998
 21
48.69658300000001
 31
0.0
  0
ARC
  5
12027
330
11E1E
100
AcDbEntity
  8
1
  6
Continuous
100
AcDbCircle
 10
516.382076
 20
50.6
 30
0.0
 40
0.5
100
AcDbArc
 50
90.0
 51
180.0
  0
ARC
  5
12028
330
11E1E
100
AcDbEntity
  8
1
  6
Continuous
100
AcDbCircle
 10
537.382076
 20
50.6
 30
0.0
 40
0.5
100
AcDbArc
 50
0.0
 51
90.0
  0
LINE
  5
12029
330
11E1E
100
AcDbEntity
  8
1
  6
Continuous
100
AcDbLine
 10
543.8820759999998
 20
49.5
 30
0.0
 11
543.8820759999998
 21
51.9
 31
0.0
  0
ARC
  5
1202A
330
11E1E
100
AcDbEntity
  8
1
  6
Continuous
100
AcDbCircle
 10
540.882076
 20
46.5
 30
0.0
 40
3.0
100
AcDbArc
 50
90.0
 51
180.0
  0
LINE
  5
1202B
330
11E1E
100
AcDbEntity
  8
1
  6
Continuous
100
AcDbLine
 10
543.8820759999998
 20
51.5
 30
0.0
 11
529.8820759999999
 21
51.5
 31
0.0
  0
LINE
  5
1202C
330
11E1E
100
AcDbEntity
  8
1
  6
Continuous
100
AcDbLine
 10
543.8820759999998
 20
51.9
 30
0.0
 11
529.8820759999999
 21
51.9
 31
0.0
  0
LINE
  5
1202D
330
11E1E
100
AcDbEntity
  8
4
  6
CENTER
100
AcDbLine
 10
531.882076
 20
56.696583
 30
0.0
 11
531.882076
 21
48.69658300000001
 31
0.0
  0
LINE
  5
1202E
330
11E1E
100
AcDbEntity
  8
4
  6
CENTER
100
AcDbLine
 10
536.882076
 20
44.947109
 30
0.0
 11
536.882076
 21
56.533304
 31
0.0
  0
LINE
  5
1202F
330
11E1E
100
AcDbEntity
  8
3
  6
DASHED
100
AcDbLine
 10
543.8820759999998
 20
45.49999999999999
 30
0.0
 11
543.8820759999998
 21
49.5
 31
0.0
  0
LINE
  5
12030
330
11E1E
100
AcDbEntity
  8
1
  6
Continuous
100
AcDbLine
 10
529.8820759999999
 20
51.1
 30
0.0
 11
529.8820759999999
 21
51.9
 31
0.0
  0
LINE
  5
12031
330
11E1E
100
AcDbEntity
  8
1
  6
Continuous
100
AcDbLine
 10
536.882076
 20
51.5
 30
0.0
 11
536.882076
 21
51.1
 31
0.0
  0
LINE
  5
12032
330
11E1E
100
AcDbEntity
  8
4
  6
CENTER
100
AcDbLine
 10
546.8820759999998
 20
56.696583
 30
0.0
 11
546.8820759999998
 21
48.69658300000001
 31
0.0
  0
LINE
  5
12033
330
11E1E
100
AcDbEntity
  8
1
  6
Continuous
100
AcDbLine
 10
537.8820759999999
 20
43.1
 30
0.0
 11
515.882076
 21
43.1
 31
0.0
  0
LINE
  5
12034
330
11E1E
100
AcDbEntity
  8
1
  6
Continuous
100
AcDbLine
 10
537.382076
 20
44.1
 30
0.0
 11
516.382076
 21
44.1
 31
0.0
  0
LINE
  5
12035
330
11E1E
100
AcDbEntity
  8
1
  6
Continuous
100
AcDbLine
 10
515.882076
 20
41.5
 30
0.0
 11
515.882076
 21
43.1
 31
0.0
  0
ARC
  5
12036
330
11E1E
100
AcDbEntity
  8
1
  6
Continuous
100
AcDbCircle
 10
516.382076
 20
44.59999999999999
 30
0.0
 40
0.5
100
AcDbArc
 50
180.0
 51
270.0
  0
ARC
  5
12037
330
11E1E
100
AcDbEntity
  8
1
  6
Continuous
100
AcDbCircle
 10
537.382076
 20
44.59999999999999
 30
0.0
 40
0.5
100
AcDbArc
 50
270.0
 51
0.0
  0
LINE
  5
12038
330
11E1E
100
AcDbEntity
  8
1
  6
Continuous
100
AcDbLine
 10
522.132076
 20
43.6
 30
0.0
 11
522.632076
 21
43.1
 31
0.0
  0
LINE
  5
12039
330
11E1E
100
AcDbEntity
  8
1
  6
Continuous
100
AcDbLine
 10
522.132076
 20
43.6
 30
0.0
 11
522.132076
 21
44.1
 31
0.0
  0
LINE
  5
1203A
330
11E1E
100
AcDbEntity
  8
1
  6
Continuous
100
AcDbLine
 10
531.6320759999999
 20
43.6
 30
0.0
 11
531.132076
 21
43.1
 31
0.0
  0
LINE
  5
1203B
330
11E1E
100
AcDbEntity
  8
1
  6
Continuous
100
AcDbLine
 10
531.6320759999999
 20
43.6
 30
0.0
 11
531.6320759999999
 21
44.1
 31
0.0
  0
LINE
  5
1203C
330
11E1E
100
AcDbEntity
  8
1
  6
Continuous
100
AcDbLine
 10
522.132076
 20
43.6
 30
0.0
 11
531.6320759999999
 21
43.6
 31
0.0
  0
LINE
  5
1203D
330
11E1E
100
AcDbEntity
  8
1
  6
Continuous
100
AcDbLine
 10
530.5320759999998
 20
40.8
 30
0.0
 11
523.232076
 21
40.8
 31
0.0
  0
LINE
  5
1203E
330
11E1E
100
AcDbEntity
  8
1
  6
Continuous
100
AcDbLine
 10
523.232076
 20
40.8
 30
0.0
 11
523.9320759999999
 21
41.5
 31
0.0
  0
LINE
  5
1203F
330
11E1E
100
AcDbEntity
  8
1
  6
Continuous
100
AcDbLine
 10
530.5320759999998
 20
40.8
 30
0.0
 11
529.832076
 21
41.5
 31
0.0
  0
ARC
  5
12040
330
11E1E
100
AcDbEntity
  8
1
  6
Continuous
100
AcDbCircle
 10
518.8820759999998
 20
338.8999999999999
 30
0.0
 40
3.0
100
AcDbArc
 50
180.0
 51
270.0
  0
ARC
  5
12041
330
11E1E
100
AcDbEntity
  8
1
  6
Continuous
100
AcDbCircle
 10
518.8820759999998
 20
355.8999999999999
 30
0.0
 40
3.0
100
AcDbArc
 50
90.0
 51
180.0
  0
LINE
  5
12042
330
11E1E
100
AcDbEntity
  8
4
  6
CENTER
100
AcDbLine
 10
540.882076
 20
352.8999999999999
 30
0.0
 11
512.8820759999999
 21
352.8999999999999
 31
0.0
  0
LINE
  5
12043
330
11E1E
100
AcDbEntity
  8
3
  6
DASHED
100
AcDbLine
 10
515.882076
 20
340.3
 30
0.0
 11
529.8820759999999
 21
340.3
 31
0.0
  0
LINE
  5
12044
330
11E1E
100
AcDbEntity
  8
3
  6
DASHED
100
AcDbLine
 10
515.882076
 20
341.9
 30
0.0
 11
529.8820759999999
 21
341.9
 31
0.0
  0
ARC
  5
12045
330
11E1E
100
AcDbEntity
  8
3
  6
DASHED
100
AcDbCircle
 10
526.8820759999998
 20
352.8999999999999
 30
0.0
 40
11.0
100
AcDbArc
 50
149.248498
 51
318.1935870000001
  0
ARC
  5
12046
330
11E1E
100
AcDbEntity
  8
1
  6
Continuous
100
AcDbCircle
 10
526.8820759999998
 20
352.8999999999999
 30
0.0
 40
11.0
100
AcDbArc
 50
33.055731
 51
149.248498
  0
CIRCLE
  5
12047
330
11E1E
100
AcDbEntity
  8
1
  6
Continuous
100
AcDbCircle
 10
484.8820759999998
 20
351.8999999999999
 30
0.0
 40
3.0
  0
LINE
  5
12048
330
11E1E
100
AcDbEntity
  8
4
  6
CENTER
100
AcDbLine
 10
484.8820759999998
 20
357.8999999999999
 30
0.0
 11
484.8820759999998
 21
345.8999999999999
 31
0.0
  0
CIRCLE
  5
12049
330
11E1E
100
AcDbEntity
  8
1
  6
Continuous
100
AcDbCircle
 10
484.8820759999998
 20
351.8999999999999
 30
0.0
 40
4.299999999999998
  0
LINE
  5
1204A
330
11E1E
100
AcDbEntity
  8
1
  6
Continuous
100
AcDbLine
 10
515.882076
 20
355.8999999999999
 30
0.0
 11
515.882076
 21
338.8999999999999
 31
0.0
  0
CIRCLE
  5
1204B
330
11E1E
100
AcDbEntity
  8
1
  6
Continuous
100
AcDbCircle
 10
547.8820759999998
 20
347.3999999999999
 30
0.0
 40
3.0
  0
LINE
  5
1204C
330
11E1E
100
AcDbEntity
  8
1
  6
Continuous
100
AcDbLine
 10
518.8820759999998
 20
358.8999999999999
 30
0.0
 11
537.8820759999999
 21
358.8999999999999
 31
0.0
  0
LINE
  5
1204D
330
11E1E
100
AcDbEntity
  8
1
  6
Continuous
100
AcDbLine
 10
537.8820759999999
 20
360.4999999999998
 30
0.0
 11
537.8820759999999
 21
358.8999999999999
 31
0.0
  0
CIRCLE
  5
1204E
330
11E1E
100
AcDbEntity
  8
1
  6
Continuous
100
AcDbCircle
 10
535.8820759999998
 20
347.3999999999999
 30
0.0
 40
2.0
  0
ARC
  5
1204F
330
11E1E
100
AcDbEntity
  8
1
  6
Continuous
100
AcDbCircle
 10
526.8820759999998
 20
352.8999999999999
 30
0.0
 40
11.0
100
AcDbArc
 50
318.1935870000001
 51
338.9472819999999
  0
LINE
  5
12050
330
11E1E
100
AcDbEntity
  8
4
  6
CENTER
100
AcDbLine
 10
535.8820759999998
 20
343.3999999999999
 30
0.0
 11
535.8820759999998
 21
351.3999999999999
 31
0.0
  0
CIRCLE
  5
12051
330
11E1E
100
AcDbEntity
  8
1
  6
Continuous
100
AcDbCircle
 10
526.8820759999998
 20
352.8999999999999
 30
0.0
 40
3.649999999999999
  0
LINE
  5
12052
330
11E1E
100
AcDbEntity
  8
3
  6
DASHED
100
AcDbLine
 10
529.8820759999999
 20
342.3
 30
0.0
 11
530.7056059999998
 21
342.3
 31
0.0
  0
LINE
  5
12053
330
11E1E
100
AcDbEntity
  8
3
  6
DASHED
100
AcDbLine
 10
529.8820759999999
 20
341.9
 30
0.0
 11
529.8820759999999
 21
342.3
 31
0.0
  0
LINE
  5
12054
330
11E1E
100
AcDbEntity
  8
3
  6
DASHED
100
AcDbLine
 10
536.882076
 20
345.3
 30
0.0
 11
529.8820759999999
 21
341.9
 31
0.0
  0
LINE
  5
12055
330
11E1E
100
AcDbEntity
  8
3
  6
DASHED
100
AcDbLine
 10
536.882076
 20
343.6999999999999
 30
0.0
 11
529.8820759999999
 21
340.3
 31
0.0
  0
LINE
  5
12056
330
11E1E
100
AcDbEntity
  8
3
  6
DASHED
100
AcDbLine
 10
543.8820759999998
 20
341.9
 30
0.0
 11
543.8820759999998
 21
342.3
 31
0.0
  0
LINE
  5
12057
330
11E1E
100
AcDbEntity
  8
3
  6
DASHED
100
AcDbLine
 10
536.882076
 20
345.3
 30
0.0
 11
543.8820759999998
 21
341.9
 31
0.0
  0
LINE
  5
12058
330
11E1E
100
AcDbEntity
  8
3
  6
DASHED
100
AcDbLine
 10
536.882076
 20
343.6999999999999
 30
0.0
 11
543.8820759999998
 21
340.3
 31
0.0
  0
LINE
  5
12059
330
11E1E
100
AcDbEntity
  8
3
  6
DASHED
100
AcDbLine
 10
543.0585469999998
 20
342.3
 30
0.0
 11
543.8820759999998
 21
342.3
 31
0.0
  0
LINE
  5
1205A
330
11E1E
100
AcDbEntity
  8
3
  6
DASHED
100
AcDbLine
 10
533.999723
 20
342.3
 30
0.0
 11
539.7644289999998
 21
342.3
 31
0.0
  0
ARC
  5
1205B
330
11E1E
100
AcDbEntity
  8
3
  6
DASHED
100
AcDbCircle
 10
526.8820759999998
 20
352.8999999999999
 30
0.0
 40
11.0
100
AcDbArc
 50
338.9472819999999
 51
33.055731
  0
LINE
  5
1205C
330
11E1E
100
AcDbEntity
  8
4
  6
CENTER
100
AcDbLine
 10
526.8820759999998
 20
338.8999999999999
 30
0.0
 11
526.8820759999998
 21
366.9
 31
0.0
  0
LINE
  5
1205D
330
11E1E
100
AcDbEntity
  8
4
  6
CENTER
100
AcDbLine
 10
547.8820759999998
 20
353.3999999999999
 30
0.0
 11
547.8820759999998
 21
341.3999999999999
 31
0.0
  0
LINE
  5
1205E
330
11E1E
100
AcDbEntity
  8
1
  6
Continuous
100
AcDbLine
 10
518.8820759999998
 20
335.8999999999999
 30
0.0
 11
565.882076
 21
335.8999999999999
 31
0.0
  0
LINE
  5
1205F
330
11E1E
100
AcDbEntity
  8
1
  6
Continuous
100
AcDbLine
 10
565.882076
 20
335.8999999999999
 30
0.0
 11
565.882076
 21
334.2999999999999
 31
0.0
  0
LINE
  5
12060
330
11E1E
100
AcDbEntity
  8
4
  6
CENTER
100
AcDbLine
 10
671.8820759999998
 20
46.21251899999999
 30
0.0
 11
671.8820759999998
 21
38.212519
 31
0.0
  0
LINE
  5
12061
330
11E1E
100
AcDbEntity
  8
4
  6
CENTER
100
AcDbLine
 10
629.8820759999999
 20
40.04579299999997
 30
0.0
 11
629.8820759999999
 21
58.0
 31
0.0
  0
ARC
  5
12062
330
11E1E
100
AcDbEntity
  8
3
  6
DASHED
100
AcDbCircle
 10
615.882076
 20
48.5
 30
0.0
 40
3.0
100
AcDbArc
 50
270.0
 51
0.0
  0
LINE
  5
12063
330
11E1E
100
AcDbEntity
  8
1
  6
Continuous
100
AcDbLine
 10
640.382076
 20
50.89999999999999
 30
0.0
 11
619.382076
 21
50.89999999999999
 31
0.0
  0
LINE
  5
12064
330
11E1E
100
AcDbEntity
  8
1
  6
Continuous
100
AcDbLine
 10
618.8820759999997
 20
49.5
 30
0.0
 11
618.8820759999997
 21
51.9
 31
0.0
  0
ARC
  5
12065
330
11E1E
100
AcDbEntity
  8
1
  6
Continuous
100
AcDbCircle
 10
619.382076
 20
50.4
 30
0.0
 40
0.5
100
AcDbArc
 50
90.0
 51
180.0
  0
LINE
  5
12066
330
11E1E
100
AcDbEntity
  8
3
  6
DASHED
100
AcDbLine
 10
618.8820759999997
 20
48.5
 30
0.0
 11
618.8820759999997
 21
49.5
 31
0.0
  0
LINE
  5
12067
330
11E1E
100
AcDbEntity
  8
4
  6
CENTER
100
AcDbLine
 10
620.882076
 20
56.696583
 30
0.0
 11
620.882076
 21
48.69658300000001
 31
0.0
  0
LINE
  5
12068
330
11E1E
100
AcDbEntity
  8
4
  6
CENTER
100
AcDbLine
 10
608.8820759999999
 20
56.696583
 30
0.0
 11
608.8820759999999
 21
48.69658300000001
 31
0.0
  0
LINE
  5
12069
330
11E1E
100
AcDbEntity
  8
1
  6
Continuous
100
AcDbLine
 10
640.882076
 20
51.9
 30
0.0
 11
640.882076
 21
53.5
 31
0.0
  0
LINE
  5
1206A
330
11E1E
100
AcDbEntity
  8
1
  6
Continuous
100
AcDbLine
 10
633.532076
 20
54.2
 30
0.0
 11
632.832076
 21
53.5
 31
0.0
  0
LINE
  5
1206B
330
11E1E
100
AcDbEntity
  8
1
  6
Continuous
100
AcDbLine
 10
626.232076
 20
54.2
 30
0.0
 11
626.9320759999999
 21
53.5
 31
0.0
  0
LINE
  5
1206C
330
11E1E
100
AcDbEntity
  8
1
  6
Continuous
100
AcDbLine
 10
633.532076
 20
54.2
 30
0.0
 11
626.232076
 21
54.2
 31
0.0
  0
LINE
  5
1206D
330
11E1E
100
AcDbEntity
  8
1
  6
Continuous
100
AcDbLine
 10
625.1320759999997
 20
51.4
 30
0.0
 11
634.632076
 21
51.4
 31
0.0
  0
LINE
  5
1206E
330
11E1E
100
AcDbEntity
  8
1
  6
Continuous
100
AcDbLine
 10
625.1320759999997
 20
51.4
 30
0.0
 11
625.632076
 21
51.9
 31
0.0
  0
LINE
  5
1206F
330
11E1E
100
AcDbEntity
  8
1
  6
Continuous
100
AcDbLine
 10
634.632076
 20
51.4
 30
0.0
 11
634.132076
 21
51.9
 31
0.0
  0
ARC
  5
12070
330
11E1E
100
AcDbEntity
  8
1
  6
Continuous
100
AcDbCircle
 10
640.382076
 20
50.4
 30
0.0
 40
0.5
100
AcDbArc
 50
0.0
 51
90.0
  0
LINE
  5
12071
330
11E1E
100
AcDbEntity
  8
1
  6
Continuous
100
AcDbLine
 10
640.882076
 20
49.5
 30
0.0
 11
640.882076
 21
50.4
 31
0.0
  0
LINE
  5
12072
330
11E1E
100
AcDbEntity
  8
1
  6
Continuous
100
AcDbLine
 10
625.1320759999997
 20
51.4
 30
0.0
 11
625.1320759999997
 21
50.89999999999999
 31
0.0
  0
LINE
  5
12073
330
11E1E
100
AcDbEntity
  8
1
  6
Continuous
100
AcDbLine
 10
634.632076
 20
51.4
 30
0.0
 11
634.632076
 21
50.89999999999999
 31
0.0
  0
CIRCLE
  5
12074
330
11E1E
100
AcDbEntity
  8
3
  6
DASHED
100
AcDbCircle
 10
629.8820759999999
 20
347.8999999999999
 30
0.0
 40
11.0
  0
LINE
  5
12075
330
11E1E
100
AcDbEntity
  8
4
  6
CENTER
100
AcDbLine
 10
643.7849700000001
 20
347.8999999999999
 30
0.0
 11
615.78497
 21
347.8999999999999
 31
0.0
  0
LINE
  5
12076
330
11E1E
100
AcDbEntity
  8
3
  6
DASHED
100
AcDbLine
 10
618.8820759999997
 20
341.9
 30
0.0
 11
618.8820759999997
 21
340.3
 31
0.0
  0
LINE
  5
12077
330
11E1E
100
AcDbEntity
  8
4
  6
CENTER
100
AcDbLine
 10
620.882076
 20
347.3999999999999
 30
0.0
 11
620.882076
 21
356.4
 31
0.0
  0
LINE
  5
12078
330
11E1E
100
AcDbEntity
  8
4
  6
CENTER
100
AcDbLine
 10
608.8820759999999
 20
345.8999999999999
 30
0.0
 11
608.8820759999999
 21
357.8999999999999
 31
0.0
  0
LINE
  5
12079
330
11E1E
100
AcDbEntity
  8
4
  6
CENTER
100
AcDbLine
 10
629.8820759999999
 20
361.8999999999999
 30
0.0
 11
629.8820759999999
 21
333.8999999999999
 31
0.0
  0
ARC
  5
1207A
330
11E1E
100
AcDbEntity
  8
3
  6
DASHED
100
AcDbCircle
 10
637.8820759999999
 20
344.8999999999998
 30
0.0
 40
3.0
100
AcDbArc
 50
298.9758569999999
 51
0.0
  0
LINE
  5
1207B
330
11E1E
100
AcDbEntity
  8
3
  6
DASHED
100
AcDbLine
 10
640.882076
 20
358.8999999999999
 30
0.0
 11
640.882076
 21
344.8999999999998
 31
0.0
  0
ARC
  5
1207C
330
11E1E
100
AcDbEntity
  8
1
  6
Continuous
100
AcDbCircle
 10
637.8820759999999
 20
358.8999999999999
 30
0.0
 40
3.0
100
AcDbArc
 50
32.230953
 51
90.0
  0
ARC
  5
1207D
330
11E1E
100
AcDbEntity
  8
3
  6
DASHED
100
AcDbCircle
 10
637.8820759999999
 20
358.8999999999999
 30
0.0
 40
3.0
100
AcDbArc
 50
0.0
 51
32.230953
  0
LINE
  5
1207E
330
11E1E
100
AcDbEntity
  8
4
  6
CENTER
100
AcDbLine
 10
671.8820759999998
 20
353.3999999999999
 30
0.0
 11
671.8820759999998
 21
341.3999999999999
 31
0.0
  0
CIRCLE
  5
1207F
330
11E1E
100
AcDbEntity
  8
1
  6
Continuous
100
AcDbCircle
 10
671.8820759999998
 20
347.3999999999999
 30
0.0
 40
3.0
  0
LINE
  5
12080
330
11E1E
100
AcDbEntity
  8
4
  6
CENTER
100
AcDbLine
 10
85.882076
 20
143.9
 30
0.0
 11
1070.959098
 21
143.9
 31
0.0
  0
LINE
  5
12081
330
11E1E
100
AcDbEntity
  8
1
  6
Continuous
100
AcDbLine
 10
90.882076
 20
155.4999999999998
 30
0.0
 11
529.8820759999999
 21
155.4999999999998
 31
0.0
  0
LINE
  5
12082
330
11E1E
100
AcDbEntity
  8
1
  6
Continuous
100
AcDbLine
 10
93.88207599999999
 20
133.9
 30
0.0
 11
637.8820759999999
 21
133.9
 31
0.0
  0
LINE
  5
12083
330
11E1E
100
AcDbEntity
  8
1
  6
Continuous
100
AcDbLine
 10
565.882076
 20
249.9
 30
0.0
 11
93.88207599999999
 21
249.9
 31
0.0
  0
LINE
  5
12084
330
11E1E
100
AcDbEntity
  8
1
  6
Continuous
100
AcDbLine
 10
640.882076
 20
241.9
 30
0.0
 11
90.882076
 21
241.9
 31
0.0
  0
LINE
  5
12085
330
11E1E
100
AcDbEntity
  8
1
  6
Continuous
100
AcDbLine
 10
90.882076
 20
136.8999999999997
 30
0.0
 11
90.882076
 21
155.4999999999998
 31
0.0
  0
LINE
  5
12086
330
11E1E
100
AcDbEntity
  8
1
  6
Continuous
100
AcDbLine
 10
90.882076
 20
246.9
 30
0.0
 11
90.882076
 21
241.9
 31
0.0
  0
ARC
  5
12087
330
11E1E
100
AcDbEntity
  8
1
  6
Continuous
100
AcDbCircle
 10
93.88207599999999
 20
246.9
 30
0.0
 40
3.0
100
AcDbArc
 50
90.0
 51
180.0
  0
LINE
  5
12088
330
11E1E
100
AcDbEntity
  8
4
  6
CENTER
100
AcDbLine
 10
112.8820759999999
 20
238.703417
 30
0.0
 11
112.8820759999999
 21
246.703417
 31
0.0
  0
LINE
  5
12089
330
11E1E
100
AcDbEntity
  8
4
  6
CENTER
100
AcDbLine
 10
127.882076
 20
238.703417
 30
0.0
 11
127.882076
 21
246.703417
 31
0.0
  0
ARC
  5
1208A
330
11E1E
100
AcDbEntity
  8
1
  6
Continuous
100
AcDbCircle
 10
93.88207599999999
 20
136.8999999999997
 30
0.0
 40
3.0
100
AcDbArc
 50
180.0
 51
270.0
  0
CIRCLE
  5
1208B
330
11E1E
100
AcDbEntity
  8
1
  6
Continuous
100
AcDbCircle
 10
127.882076
 20
143.9
 30
0.0
 40
2.0
  0
LINE
  5
1208C
330
11E1E
100
AcDbEntity
  8
4
  6
CENTER
100
AcDbLine
 10
112.8820759999999
 20
137.9
 30
0.0
 11
112.8820759999999
 21
149.9
 31
0.0
  0
CIRCLE
  5
1208D
330
11E1E
100
AcDbEntity
  8
1
  6
Continuous
100
AcDbCircle
 10
112.8820759999999
 20
143.9
 30
0.0
 40
3.0
  0
LINE
  5
1208E
330
11E1E
100
AcDbEntity
  8
4
  6
CENTER
100
AcDbLine
 10
127.882076
 20
147.9
 30
0.0
 11
127.882076
 21
139.9
 31
0.0
  0
LINE
  5
1208F
330
11E1E
100
AcDbEntity
  8
4
  6
CENTER
100
AcDbLine
 10
236.8820759999999
 20
238.703417
 30
0.0
 11
236.8820759999999
 21
246.703417
 31
0.0
  0
LINE
  5
12090
330
11E1E
100
AcDbEntity
  8
4
  6
CENTER
100
AcDbLine
 10
360.8820759999999
 20
238.703417
 30
0.0
 11
360.8820759999999
 21
246.703417
 31
0.0
  0
LINE
  5
12091
330
11E1E
100
AcDbEntity
  8
4
  6
CENTER
100
AcDbLine
 10
236.8820759999999
 20
137.9
 30
0.0
 11
236.8820759999999
 21
149.9
 31
0.0
  0
CIRCLE
  5
12092
330
11E1E
100
AcDbEntity
  8
1
  6
Continuous
100
AcDbCircle
 10
236.8820759999999
 20
143.9
 30
0.0
 40
3.0
  0
CIRCLE
  5
12093
330
11E1E
100
AcDbEntity
  8
1
  6
Continuous
100
AcDbCircle
 10
360.8820759999999
 20
143.9
 30
0.0
 40
3.0
  0
LINE
  5
12094
330
11E1E
100
AcDbEntity
  8
4
  6
CENTER
100
AcDbLine
 10
360.8820759999999
 20
137.9
 30
0.0
 11
360.8820759999999
 21
149.9
 31
0.0
  0
LINE
  5
12095
330
11E1E
100
AcDbEntity
  8
3
  6
DASHED
100
AcDbLine
 10
515.882076
 20
136.8999999999997
 30
0.0
 11
640.882076
 21
136.8999999999997
 31
0.0
  0
LINE
  5
12096
330
11E1E
100
AcDbEntity
  8
1
  6
Continuous
100
AcDbLine
 10
543.8820759999998
 20
155.4999999999998
 30
0.0
 11
618.8820759999997
 21
155.4999999999998
 31
0.0
  0
LINE
  5
12097
330
11E1E
100
AcDbEntity
  8
3
  6
DASHED
100
AcDbLine
 10
537.8820759999999
 20
135.3
 30
0.0
 11
640.419792
 21
135.3
 31
0.0
  0
LINE
  5
12098
330
11E1E
100
AcDbEntity
  8
3
  6
DASHED
100
AcDbLine
 10
615.882076
 20
249.9
 30
0.0
 11
565.882076
 21
249.9
 31
0.0
  0
LINE
  5
12099
330
11E1E
100
AcDbEntity
  8
4
  6
CENTER
100
AcDbLine
 10
536.882076
 20
158.319526
 30
0.0
 11
536.882076
 21
149.65481
 31
0.0
  0
LINE
  5
1209A
330
11E1E
100
AcDbEntity
  8
1
  6
Continuous
100
AcDbLine
 10
539.7644289999998
 20
153.5
 30
0.0
 11
543.8820759999998
 21
155.4999999999998
 31
0.0
  0
LINE
  5
1209B
330
11E1E
100
AcDbEntity
  8
1
  6
Continuous
100
AcDbLine
 10
543.8820759999998
 20
155.4999999999998
 30
0.0
 11
543.8820759999998
 21
153.5
 31
0.0
  0
LINE
  5
1209C
330
11E1E
100
AcDbEntity
  8
1
  6
Continuous
100
AcDbLine
 10
533.999723
 20
153.5
 30
0.0
 11
529.8820759999999
 21
155.4999999999998
 31
0.0
  0
LINE
  5
1209D
330
11E1E
100
AcDbEntity
  8
1
  6
Continuous
100
AcDbLine
 10
529.8820759999999
 20
155.4999999999998
 30
0.0
 11
529.8820759999999
 21
153.5
 31
0.0
  0
LINE
  5
1209E
330
11E1E
100
AcDbEntity
  8
4
  6
CENTER
100
AcDbLine
 10
526.8820759999998
 20
156.9
 30
0.0
 11
526.8820759999998
 21
128.9
 31
0.0
  0
LINE
  5
1209F
330
11E1E
100
AcDbEntity
  8
3
  6
DASHED
100
AcDbLine
 10
515.882076
 20
136.8999999999997
 30
0.0
 11
515.882076
 21
155.4999999999998
 31
0.0
  0
LINE
  5
120A0
330
11E1E
100
AcDbEntity
  8
1
  6
Continuous
100
AcDbLine
 10
537.382076
 20
251.3
 30
0.0
 11
516.382076
 21
251.3
 31
0.0
  0
LINE
  5
120A1
330
11E1E
100
AcDbEntity
  8
1
  6
Continuous
100
AcDbLine
 10
565.882076
 20
252.3
 30
0.0
 11
515.882076
 21
252.3
 31
0.0
  0
LINE
  5
120A2
330
11E1E
100
AcDbEntity
  8
4
  6
CENTER
100
AcDbLine
 10
484.8820759999998
 20
238.703417
 30
0.0
 11
484.8820759999998
 21
246.703417
 31
0.0
  0
LINE
  5
120A3
330
11E1E
100
AcDbEntity
  8
1
  6
Continuous
100
AcDbLine
 10
515.882076
 20
250.8
 30
0.0
 11
515.882076
 21
249.9
 31
0.0
  0
ARC
  5
120A4
330
11E1E
100
AcDbEntity
  8
1
  6
Continuous
100
AcDbCircle
 10
516.382076
 20
250.8
 30
0.0
 40
0.5
100
AcDbArc
 50
90.0
 51
180.0
  0
LINE
  5
120A5
330
11E1E
100
AcDbEntity
  8
1
  6
Continuous
100
AcDbLine
 10
515.882076
 20
253.9
 30
0.0
 11
515.882076
 21
252.3
 31
0.0
  0
LINE
  5
120A6
330
11E1E
100
AcDbEntity
  8
4
  6
CENTER
100
AcDbLine
 10
536.882076
 20
250.4528909999999
 30
0.0
 11
536.882076
 21
238.866696
 31
0.0
  0
LINE
  5
120A7
330
11E1E
100
AcDbEntity
  8
1
  6
Continuous
100
AcDbLine
 10
543.8820759999998
 20
249.9
 30
0.0
 11
543.8820759999998
 21
241.9
 31
0.0
  0
LINE
  5
120A8
330
11E1E
100
AcDbEntity
  8
1
  6
Continuous
100
AcDbLine
 10
529.8820759999999
 20
249.9
 30
0.0
 11
529.8820759999999
 21
241.9
 31
0.0
  0
LINE
  5
120A9
330
11E1E
100
AcDbEntity
  8
1
  6
Continuous
100
AcDbLine
 10
536.882076
 20
243.9
 30
0.0
 11
536.882076
 21
249.9
 31
0.0
  0
LINE
  5
120AA
330
11E1E
100
AcDbEntity
  8
1
  6
Continuous
100
AcDbLine
 10
522.132076
 20
251.8
 30
0.0
 11
531.6320759999999
 21
251.8
 31
0.0
  0
LINE
  5
120AB
330
11E1E
100
AcDbEntity
  8
1
  6
Continuous
100
AcDbLine
 10
531.6320759999999
 20
251.8
 30
0.0
 11
531.6320759999999
 21
251.3
 31
0.0
  0
LINE
  5
120AC
330
11E1E
100
AcDbEntity
  8
1
  6
Continuous
100
AcDbLine
 10
531.6320759999999
 20
251.8
 30
0.0
 11
531.132076
 21
252.3
 31
0.0
  0
LINE
  5
120AD
330
11E1E
100
AcDbEntity
  8
1
  6
Continuous
100
AcDbLine
 10
522.132076
 20
251.8
 30
0.0
 11
522.132076
 21
251.3
 31
0.0
  0
LINE
  5
120AE
330
11E1E
100
AcDbEntity
  8
1
  6
Continuous
100
AcDbLine
 10
522.132076
 20
251.8
 30
0.0
 11
522.632076
 21
252.3
 31
0.0
  0
ARC
  5
120AF
330
11E1E
100
AcDbEntity
  8
1
  6
Continuous
100
AcDbCircle
 10
537.382076
 20
250.8
 30
0.0
 40
0.5
100
AcDbArc
 50
0.0
 51
90.0
  0
LINE
  5
120B0
330
11E1E
100
AcDbEntity
  8
1
  6
Continuous
100
AcDbLine
 10
537.8820759999999
 20
252.3
 30
0.0
 11
537.8820759999999
 21
249.9
 31
0.0
  0
LINE
  5
120B1
330
11E1E
100
AcDbEntity
  8
1
  6
Continuous
100
AcDbLine
 10
543.8820759999998
 20
243.5
 30
0.0
 11
529.8820759999999
 21
243.5
 31
0.0
  0
LINE
  5
120B2
330
11E1E
100
AcDbEntity
  8
1
  6
Continuous
100
AcDbLine
 10
543.8820759999998
 20
243.9
 30
0.0
 11
529.8820759999999
 21
243.9
 31
0.0
  0
LINE
  5
120B3
330
11E1E
100
AcDbEntity
  8
1
  6
Continuous
100
AcDbLine
 10
530.5320759999998
 20
254.5999999999999
 30
0.0
 11
523.232076
 21
254.5999999999999
 31
0.0
  0
LINE
  5
120B4
330
11E1E
100
AcDbEntity
  8
4
  6
CENTER
100
AcDbLine
 10
526.8820759999998
 20
240.4802299999999
 30
0.0
 11
526.8820759999998
 21
258.3999999999999
 31
0.0
  0
LINE
  5
120B5
330
11E1E
100
AcDbEntity
  8
4
  6
CENTER
100
AcDbLine
 10
535.8820759999998
 20
249.187481
 30
0.0
 11
535.8820759999998
 21
257.187481
 31
0.0
  0
LINE
  5
120B6
330
11E1E
100
AcDbEntity
  8
1
  6
Continuous
100
AcDbLine
 10
530.5320759999998
 20
254.5999999999999
 30
0.0
 11
529.832076
 21
253.9
 31
0.0
  0
LINE
  5
120B7
330
11E1E
100
AcDbEntity
  8
1
  6
Continuous
100
AcDbLine
 10
523.232076
 20
254.5999999999999
 30
0.0
 11
523.9320759999999
 21
253.9
 31
0.0
  0
ARC
  5
120B8
330
11E1E
100
AcDbEntity
  8
1
  6
Continuous
100
AcDbCircle
 10
568.8820759999997
 20
248.9
 30
0.0
 40
3.0
100
AcDbArc
 50
180.0
 51
270.0
  0
LINE
  5
120B9
330
11E1E
100
AcDbEntity
  8
1
  6
Continuous
100
AcDbLine
 10
565.882076
 20
253.9
 30
0.0
 11
565.882076
 21
248.9
 31
0.0
  0
LINE
  5
120BA
330
11E1E
100
AcDbEntity
  8
4
  6
CENTER
100
AcDbLine
 10
547.8820759999998
 20
249.187481
 30
0.0
 11
547.8820759999998
 21
257.187481
 31
0.0
  0
ARC
  5
120BB
330
11E1E
100
AcDbEntity
  8
1
  6
Continuous
100
AcDbCircle
 10
518.8820759999998
 20
156.9
 30
0.0
 40
3.0
100
AcDbArc
 50
90.0
 51
180.0
  0
LINE
  5
120BC
330
11E1E
100
AcDbEntity
  8
1
  6
Continuous
100
AcDbLine
 10
515.882076
 20
155.4999999999998
 30
0.0
 11
515.882076
 21
156.9
 31
0.0
  0
LINE
  5
120BD
330
11E1E
100
AcDbEntity
  8
1
  6
Continuous
100
AcDbLine
 10
565.882076
 20
159.9
 30
0.0
 11
565.882076
 21
161.5
 31
0.0
  0
LINE
  5
120BE
330
11E1E
100
AcDbEntity
  8
4
  6
CENTER
100
AcDbLine
 10
540.882076
 20
142.9
 30
0.0
 11
512.8820759999999
 21
142.9
 31
0.0
  0
ARC
  5
120BF
330
11E1E
100
AcDbEntity
  8
3
  6
DASHED
100
AcDbCircle
 10
526.8820759999998
 20
142.9
 30
0.0
 40
11.0
100
AcDbArc
 50
305.096801
 51
234.9031990000001
  0
CIRCLE
  5
120C0
330
11E1E
100
AcDbEntity
  8
1
  6
Continuous
100
AcDbCircle
 10
484.8820759999998
 20
143.9
 30
0.0
 40
3.0
  0
LINE
  5
120C1
330
11E1E
100
AcDbEntity
  8
4
  6
CENTER
100
AcDbLine
 10
484.8820759999998
 20
137.9
 30
0.0
 11
484.8820759999998
 21
149.9
 31
0.0
  0
LINE
  5
120C2
330
11E1E
100
AcDbEntity
  8
3
  6
DASHED
100
AcDbLine
 10
537.8820759999999
 20
135.3
 30
0.0
 11
537.8820759999999
 21
136.8999999999997
 31
0.0
  0
ARC
  5
120C3
330
11E1E
100
AcDbEntity
  8
1
  6
Continuous
100
AcDbCircle
 10
526.8820759999998
 20
142.9
 30
0.0
 40
11.0
100
AcDbArc
 50
234.9031990000001
 51
305.096801
  0
LINE
  5
120C4
330
11E1E
100
AcDbEntity
  8
1
  6
Continuous
100
AcDbLine
 10
543.0585469999998
 20
153.5
 30
0.0
 11
543.8820759999998
 21
153.9
 31
0.0
  0
LINE
  5
120C5
330
11E1E
100
AcDbEntity
  8
1
  6
Continuous
100
AcDbLine
 10
530.7056059999998
 20
153.5
 30
0.0
 11
529.8820759999999
 21
153.9
 31
0.0
  0
LINE
  5
120C6
330
11E1E
100
AcDbEntity
  8
1
  6
Continuous
100
AcDbLine
 10
529.8820759999999
 20
153.5
 30
0.0
 11
543.8820759999998
 21
153.5
 31
0.0
  0
LINE
  5
120C7
330
11E1E
100
AcDbEntity
  8
4
  6
CENTER
100
AcDbLine
 10
535.8820759999998
 20
152.4
 30
0.0
 11
535.8820759999998
 21
144.4
 31
0.0
  0
LINE
  5
120C8
330
11E1E
100
AcDbEntity
  8
4
  6
CENTER
100
AcDbLine
 10
547.8820759999998
 20
142.4
 30
0.0
 11
547.8820759999998
 21
154.4
 31
0.0
  0
LINE
  5
120C9
330
11E1E
100
AcDbEntity
  8
1
  6
Continuous
100
AcDbLine
 10
618.8820759999997
 20
153.9
 30
0.0
 11
618.8820759999997
 21
155.4999999999998
 31
0.0
  0
ARC
  5
120CA
330
11E1E
100
AcDbEntity
  8
1
  6
Continuous
100
AcDbCircle
 10
629.8820759999999
 20
147.9
 30
0.0
 40
11.0
100
AcDbArc
 50
30.75150199999999
 51
146.9442689999999
  0
ARC
  5
120CB
330
11E1E
100
AcDbEntity
  8
3
  6
DASHED
100
AcDbCircle
 10
629.8820759999999
 20
147.9
 30
0.0
 40
11.0
100
AcDbArc
 50
146.9442689999999
 51
30.75150199999999
  0
LINE
  5
120CC
330
11E1E
100
AcDbEntity
  8
4
  6
CENTER
100
AcDbLine
 10
629.8820759999999
 20
138.1995399999998
 30
0.0
 11
629.8820759999999
 21
157.60046
 31
0.0
  0
LINE
  5
120CD
330
11E1E
100
AcDbEntity
  8
1
  6
Continuous
100
AcDbLine
 10
640.382076
 20
244.4999999999998
 30
0.0
 11
619.382076
 21
244.4999999999998
 31
0.0
  0
LINE
  5
120CE
330
11E1E
100
AcDbEntity
  8
1
  6
Continuous
100
AcDbLine
 10
640.882076
 20
243.5
 30
0.0
 11
618.8820759999997
 21
243.5
 31
0.0
  0
LINE
  5
120CF
330
11E1E
100
AcDbEntity
  8
1
  6
Continuous
100
AcDbLine
 10
618.8820759999997
 20
245.9
 30
0.0
 11
618.8820759999997
 21
241.9
 31
0.0
  0
LINE
  5
120D0
330
11E1E
100
AcDbEntity
  8
4
  6
CENTER
100
AcDbLine
 10
608.8820759999999
 20
238.703417
 30
0.0
 11
608.8820759999999
 21
246.703417
 31
0.0
  0
LINE
  5
120D1
330
11E1E
100
AcDbEntity
  8
4
  6
CENTER
100
AcDbLine
 10
620.882076
 20
238.703417
 30
0.0
 11
620.882076
 21
246.703417
 31
0.0
  0
ARC
  5
120D2
330
11E1E
100
AcDbEntity
  8
3
  6
DASHED
100
AcDbCircle
 10
615.882076
 20
246.9
 30
0.0
 40
3.0
100
AcDbArc
 50
0.0
 51
90.0
  0
ARC
  5
120D3
330
11E1E
100
AcDbEntity
  8
1
  6
Continuous
100
AcDbCircle
 10
619.382076
 20
245.0
 30
0.0
 40
0.5
100
AcDbArc
 50
180.0
 51
270.0
  0
LINE
  5
120D4
330
11E1E
100
AcDbEntity
  8
3
  6
DASHED
100
AcDbLine
 10
618.8820759999997
 20
246.9
 30
0.0
 11
618.8820759999997
 21
245.9
 31
0.0
  0
LINE
  5
120D5
330
11E1E
100
AcDbEntity
  8
1
  6
Continuous
100
AcDbLine
 10
634.632076
 20
244.0
 30
0.0
 11
634.632076
 21
244.4999999999998
 31
0.0
  0
LINE
  5
120D6
330
11E1E
100
AcDbEntity
  8
1
  6
Continuous
100
AcDbLine
 10
625.1320759999997
 20
244.0
 30
0.0
 11
625.1320759999997
 21
244.4999999999998
 31
0.0
  0
LINE
  5
120D7
330
11E1E
100
AcDbEntity
  8
1
  6
Continuous
100
AcDbLine
 10
640.882076
 20
245.9
 30
0.0
 11
640.882076
 21
245.0
 31
0.0
  0
ARC
  5
120D8
330
11E1E
100
AcDbEntity
  8
1
  6
Continuous
100
AcDbCircle
 10
640.382076
 20
245.0
 30
0.0
 40
0.5
100
AcDbArc
 50
270.0
 51
0.0
  0
LINE
  5
120D9
330
11E1E
100
AcDbEntity
  8
1
  6
Continuous
100
AcDbLine
 10
634.632076
 20
244.0
 30
0.0
 11
634.132076
 21
243.5
 31
0.0
  0
LINE
  5
120DA
330
11E1E
100
AcDbEntity
  8
1
  6
Continuous
100
AcDbLine
 10
625.1320759999997
 20
244.0
 30
0.0
 11
625.632076
 21
243.5
 31
0.0
  0
LINE
  5
120DB
330
11E1E
100
AcDbEntity
  8
1
  6
Continuous
100
AcDbLine
 10
625.1320759999997
 20
244.0
 30
0.0
 11
634.632076
 21
244.0
 31
0.0
  0
LINE
  5
120DC
330
11E1E
100
AcDbEntity
  8
1
  6
Continuous
100
AcDbLine
 10
633.532076
 20
241.1999999999999
 30
0.0
 11
626.232076
 21
241.1999999999999
 31
0.0
  0
LINE
  5
120DD
330
11E1E
100
AcDbEntity
  8
1
  6
Continuous
100
AcDbLine
 10
626.232076
 20
241.1999999999999
 30
0.0
 11
626.9320759999999
 21
241.9
 31
0.0
  0
LINE
  5
120DE
330
11E1E
100
AcDbEntity
  8
1
  6
Continuous
100
AcDbLine
 10
633.532076
 20
241.1999999999999
 30
0.0
 11
632.832076
 21
241.9
 31
0.0
  0
LINE
  5
120DF
330
11E1E
100
AcDbEntity
  8
1
  6
Continuous
100
AcDbLine
 10
640.882076
 20
243.5
 30
0.0
 11
640.882076
 21
241.9
 31
0.0
  0
LINE
  5
120E0
330
11E1E
100
AcDbEntity
  8
4
  6
CENTER
100
AcDbLine
 10
629.8820759999999
 20
255.3542069999998
 30
0.0
 11
629.8820759999999
 21
237.4
 31
0.0
  0
LINE
  5
120E1
330
11E1E
100
AcDbEntity
  8
4
  6
CENTER
100
AcDbLine
 10
671.8820759999998
 20
249.187481
 30
0.0
 11
671.8820759999998
 21
257.187481
 31
0.0
  0
LINE
  5
120E2
330
11E1E
100
AcDbEntity
  8
4
  6
CENTER
100
AcDbLine
 10
616.1179279999998
 20
147.9
 30
0.0
 11
643.8024429999998
 21
147.9
 31
0.0
  0
LINE
  5
120E3
330
11E1E
100
AcDbEntity
  8
1
  6
Continuous
100
AcDbLine
 10
618.8820759999997
 20
153.9
 30
0.0
 11
637.8820759999999
 21
153.9
 31
0.0
  0
CIRCLE
  5
120E4
330
11E1E
100
AcDbEntity
  8
1
  6
Continuous
100
AcDbCircle
 10
608.8820759999999
 20
143.9
 30
0.0
 40
3.0
  0
LINE
  5
120E5
330
11E1E
100
AcDbEntity
  8
4
  6
CENTER
100
AcDbLine
 10
608.8820759999999
 20
137.9
 30
0.0
 11
608.8820759999999
 21
149.9
 31
0.0
  0
LINE
  5
120E6
330
11E1E
100
AcDbEntity
  8
4
  6
CENTER
100
AcDbLine
 10
620.882076
 20
139.4
 30
0.0
 11
620.882076
 21
148.3999999999998
 31
0.0
  0
CIRCLE
  5
120E7
330
11E1E
100
AcDbEntity
  8
1
  6
Continuous
100
AcDbCircle
 10
620.882076
 20
143.9
 30
0.0
 40
2.0
  0
ARC
  5
120E8
330
11E1E
100
AcDbEntity
  8
1
  6
Continuous
100
AcDbCircle
 10
637.8820759999999
 20
136.8999999999997
 30
0.0
 40
3.0
100
AcDbArc
 50
270.0
 51
0.0
  0
ARC
  5
120E9
330
11E1E
100
AcDbEntity
  8
1
  6
Continuous
100
AcDbCircle
 10
637.8820759999999
 20
150.9
 30
0.0
 40
3.0
100
AcDbArc
 50
0.0
 51
90.0
  0
LINE
  5
120EA
330
11E1E
100
AcDbEntity
  8
1
  6
Continuous
100
AcDbLine
 10
640.882076
 20
136.8999999999997
 30
0.0
 11
640.882076
 21
150.9
 31
0.0
  0
CIRCLE
  5
120EB
330
11E1E
100
AcDbEntity
  8
1
  6
Continuous
100
AcDbCircle
 10
629.8820759999999
 20
147.9
 30
0.0
 40
3.649999999999999
  0
CIRCLE
  5
120EC
330
11E1E
100
AcDbEntity
  8
1
  6
Continuous
100
AcDbCircle
 10
671.8820759999998
 20
148.3999999999998
 30
0.0
 40
3.0
  0
CIRCLE
  5
120ED
330
11E1E
100
AcDbEntity
  8
1
  6
Continuous
100
AcDbCircle
 10
671.8820759999998
 20
148.3999999999998
 30
0.0
 40
4.299999999999998
  0
LINE
  5
120EE
330
11E1E
100
AcDbEntity
  8
4
  6
CENTER
100
AcDbLine
 10
671.8820759999998
 20
142.4
 30
0.0
 11
671.8820759999998
 21
154.4
 31
0.0
  0
LINE
  5
120EF
330
11E1E
100
AcDbEntity
  8
4
  6
CENTER
100
AcDbLine
 10
919.882076
 20
46.21251899999999
 30
0.0
 11
919.882076
 21
38.212519
 31
0.0
  0
LINE
  5
120F0
330
11E1E
100
AcDbEntity
  8
4
  6
CENTER
100
AcDbLine
 10
795.882076
 20
46.21251899999999
 30
0.0
 11
795.882076
 21
38.212519
 31
0.0
  0
CIRCLE
  5
120F1
330
11E1E
100
AcDbEntity
  8
1
  6
Continuous
100
AcDbCircle
 10
795.882076
 20
347.3999999999999
 30
0.0
 40
3.0
  0
LINE
  5
120F2
330
11E1E
100
AcDbEntity
  8
4
  6
CENTER
100
AcDbLine
 10
795.882076
 20
353.3999999999999
 30
0.0
 11
795.882076
 21
341.3999999999999
 31
0.0
  0
LINE
  5
120F3
330
11E1E
100
AcDbEntity
  8
4
  6
CENTER
100
AcDbLine
 10
919.882076
 20
353.3999999999999
 30
0.0
 11
919.882076
 21
341.3999999999999
 31
0.0
  0
CIRCLE
  5
120F4
330
11E1E
100
AcDbEntity
  8
1
  6
Continuous
100
AcDbCircle
 10
919.882076
 20
347.3999999999999
 30
0.0
 40
3.0
  0
LINE
  5
120F5
330
11E1E
100
AcDbEntity
  8
4
  6
CENTER
100
AcDbLine
 10
1043.882075999998
 20
46.21251899999999
 30
0.0
 11
1043.882075999998
 21
38.212519
 31
0.0
  0
LINE
  5
120F6
330
11E1E
100
AcDbEntity
  8
1
  6
Continuous
100
AcDbLine
 10
1065.882076
 20
41.5
 30
0.0
 11
1065.882076
 21
46.5
 31
0.0
  0
LINE
  5
120F7
330
11E1E
100
AcDbEntity
  8
4
  6
CENTER
100
AcDbLine
 10
1028.882075999999
 20
46.21251899999999
 30
0.0
 11
1028.882075999999
 21
38.212519
 31
0.0
  0
ARC
  5
120F8
330
11E1E
100
AcDbEntity
  8
1
  6
Continuous
100
AcDbCircle
 10
1062.882075999999
 20
46.5
 30
0.0
 40
3.0
100
AcDbArc
 50
0.0
 51
90.0
  0
CIRCLE
  5
120F9
330
11E1E
100
AcDbEntity
  8
1
  6
Continuous
100
AcDbCircle
 10
1043.882075999998
 20
347.3999999999999
 30
0.0
 40
3.0
  0
LINE
  5
120FA
330
11E1E
100
AcDbEntity
  8
4
  6
CENTER
100
AcDbLine
 10
1028.882075999999
 20
351.8999999999999
 30
0.0
 11
1028.882075999999
 21
342.8999999999998
 31
0.0
  0
CIRCLE
  5
120FB
330
11E1E
100
AcDbEntity
  8
1
  6
Continuous
100
AcDbCircle
 10
1028.882075999999
 20
347.3999999999999
 30
0.0
 40
2.0
  0
LINE
  5
120FC
330
11E1E
100
AcDbEntity
  8
1
  6
Continuous
100
AcDbLine
 10
1065.882076
 20
360.4999999999998
 30
0.0
 11
1065.882076
 21
334.2999999999999
 31
0.0
  0
LINE
  5
120FD
330
11E1E
100
AcDbEntity
  8
4
  6
CENTER
100
AcDbLine
 10
1043.882075999998
 20
353.3999999999999
 30
0.0
 11
1043.882075999998
 21
341.3999999999999
 31
0.0
  0
ARC
  5
120FE
330
11E1E
100
AcDbEntity
  8
1
  6
Continuous
100
AcDbCircle
 10
1122.864151999998
 20
158.4
 30
0.0
 40
0.5
100
AcDbArc
 50
90.0
 51
180.0
  0
LINE
  5
120FF
330
11E1E
100
AcDbEntity
  8
1
  6
Continuous
100
AcDbLine
 10
1131.764152
 20
159.9
 30
0.0
 11
1131.764152
 21
136.8999999999997
 31
0.0
  0
LINE
  5
12100
330
11E1E
100
AcDbEntity
  8
1
  6
Continuous
100
AcDbLine
 10
1130.164152
 20
159.9
 30
0.0
 11
1130.164152
 21
136.8999999999997
 31
0.0
  0
ARC
  5
12101
330
11E1E
100
AcDbEntity
  8
1
  6
Continuous
100
AcDbCircle
 10
1128.864152
 20
158.4
 30
0.0
 40
0.5
100
AcDbArc
 50
0.0
 51
90.0
  0
LINE
  5
12102
330
11E1E
100
AcDbEntity
  8
4
  6
CENTER
100
AcDbLine
 10
1117.12563
 20
147.9
 30
0.0
 11
1130.933503
 21
147.9
 31
0.0
  0
LINE
  5
12103
330
11E1E
100
AcDbEntity
  8
4
  6
CENTER
100
AcDbLine
 10
1134.35615
 20
142.9
 30
0.0
 11
1120.708139
 21
142.9
 31
0.0
  0
LINE
  5
12104
330
11E1E
100
AcDbEntity
  8
1
  6
Continuous
100
AcDbLine
 10
1130.164152
 20
136.8999999999997
 30
0.0
 11
1122.864151999998
 21
136.8999999999997
 31
0.0
  0
LINE
  5
12105
330
11E1E
100
AcDbEntity
  8
1
  6
Continuous
100
AcDbLine
 10
1130.164152
 20
135.3
 30
0.0
 11
1123.764152
 21
135.3
 31
0.0
  0
LINE
  5
12106
330
11E1E
100
AcDbEntity
  8
1
  6
Continuous
100
AcDbLine
 10
1128.864152
 20
158.9
 30
0.0
 11
1122.864151999998
 21
158.9
 31
0.0
  0
LINE
  5
12107
330
11E1E
100
AcDbEntity
  8
1
  6
Continuous
100
AcDbLine
 10
1122.664152
 20
131.9
 30
0.0
 11
1128.664152
 21
131.9
 31
0.0
  0
LINE
  5
12108
330
11E1E
100
AcDbEntity
  8
1
  6
Continuous
100
AcDbLine
 10
1129.164152
 20
137.0
 30
0.0
 11
1129.164152
 21
136.8999999999997
 31
0.0
  0
LINE
  5
12109
330
11E1E
100
AcDbEntity
  8
1
  6
Continuous
100
AcDbLine
 10
1129.364151999999
 20
158.4
 30
0.0
 11
1129.364151999999
 21
137.4
 31
0.0
  0
ARC
  5
1210A
330
11E1E
100
AcDbEntity
  8
1
  6
Continuous
100
AcDbCircle
 10
1130.164152
 20
136.8999999999997
 30
0.0
 40
1.6
100
AcDbArc
 50
270.0
 51
0.0
  0
LINE
  5
1210B
330
11E1E
100
AcDbEntity
  8
1
  6
Continuous
100
AcDbLine
 10
1129.664152
 20
138.15
 30
0.0
 11
1129.664152
 21
147.65
 31
0.0
  0
LINE
  5
1210C
330
11E1E
100
AcDbEntity
  8
1
  6
Continuous
100
AcDbLine
 10
1129.664152
 20
138.15
 30
0.0
 11
1129.364151999999
 21
138.15
 31
0.0
  0
LINE
  5
1210D
330
11E1E
100
AcDbEntity
  8
1
  6
Continuous
100
AcDbLine
 10
1129.664152
 20
138.15
 30
0.0
 11
1130.164152
 21
138.65
 31
0.0
  0
LINE
  5
1210E
330
11E1E
100
AcDbEntity
  8
1
  6
Continuous
100
AcDbLine
 10
1129.664152
 20
147.65
 30
0.0
 11
1129.364151999999
 21
147.65
 31
0.0
  0
LINE
  5
1210F
330
11E1E
100
AcDbEntity
  8
1
  6
Continuous
100
AcDbLine
 10
1129.664152
 20
147.65
 30
0.0
 11
1130.164152
 21
147.1499999999998
 31
0.0
  0
LINE
  5
12110
330
11E1E
100
AcDbEntity
  8
1
  6
Continuous
100
AcDbLine
 10
1132.464152
 20
146.55
 30
0.0
 11
1131.764152
 21
145.8499999999999
 31
0.0
  0
LINE
  5
12111
330
11E1E
100
AcDbEntity
  8
1
  6
Continuous
100
AcDbLine
 10
1132.464152
 20
139.25
 30
0.0
 11
1131.764152
 21
139.9499999999999
 31
0.0
  0
LINE
  5
12112
330
11E1E
100
AcDbEntity
  8
1
  6
Continuous
100
AcDbLine
 10
1132.464152
 20
146.55
 30
0.0
 11
1132.464152
 21
139.25
 31
0.0
  0
LINE
  5
12113
330
11E1E
100
AcDbEntity
  8
4
  6
CENTER
100
AcDbLine
 10
1127.277018999998
 20
148.3999999999998
 30
0.0
 11
1134.198421999999
 21
148.3999999999998
 31
0.0
  0
ARC
  5
12114
330
11E1E
100
AcDbEntity
  8
1
  6
Continuous
100
AcDbCircle
 10
1128.864152
 20
137.4
 30
0.0
 40
0.5
100
AcDbArc
 50
270.0
 51
0.0
  0
ARC
  5
12115
330
11E1E
100
AcDbEntity
  8
1
  6
Continuous
100
AcDbCircle
 10
1128.664152
 20
132.4
 30
0.0
 40
0.5
100
AcDbArc
 50
270.0
 51
0.0
  0
LINE
  5
12116
330
11E1E
100
AcDbEntity
  8
1
  6
Continuous
100
AcDbLine
 10
1129.164152
 20
135.3
 30
0.0
 11
1129.164152
 21
132.4
 31
0.0
  0
LINE
  5
12117
330
11E1E
100
AcDbEntity
  8
1
  6
Continuous
100
AcDbLine
 10
1122.164152
 20
153.3999999999998
 30
0.0
 11
1122.164152
 21
152.65
 31
0.0
  0
LINE
  5
12118
330
11E1E
100
AcDbEntity
  8
1
  6
Continuous
100
AcDbLine
 10
1121.364151999999
 20
153.9
 30
0.0
 11
1121.364151999999
 21
133.9
 31
0.0
  0
LINE
  5
12119
330
11E1E
100
AcDbEntity
  8
1
  6
Continuous
100
AcDbLine
 10
1119.764151999999
 20
153.9
 30
0.0
 11
1119.764151999999
 21
133.9
 31
0.0
  0
LINE
  5
1211A
330
11E1E
100
AcDbEntity
  8
1
  6
Continuous
100
AcDbLine
 10
1119.064151999999
 20
151.55
 30
0.0
 11
1119.064151999999
 21
144.25
 31
0.0
  0
LINE
  5
1211B
330
11E1E
100
AcDbEntity
  8
1
  6
Continuous
100
AcDbLine
 10
1121.864151999999
 20
143.1499999999998
 30
0.0
 11
1121.864151999999
 21
152.65
 31
0.0
  0
LINE
  5
1211C
330
11E1E
100
AcDbEntity
  8
1
  6
Continuous
100
AcDbLine
 10
1121.364151999999
 20
152.15
 30
0.0
 11
1121.364151999999
 21
143.65
 31
0.0
  0
LINE
  5
1211D
330
11E1E
100
AcDbEntity
  8
4
  6
CENTER
100
AcDbLine
 10
1117.12563
 20
143.9
 30
0.0
 11
1124.047033
 21
143.9
 31
0.0
  0
LINE
  5
1211E
330
11E1E
100
AcDbEntity
  8
1
  6
Continuous
100
AcDbLine
 10
1119.764151999999
 20
133.9
 30
0.0
 11
1121.364151999999
 21
133.9
 31
0.0
  0
LINE
  5
1211F
330
11E1E
100
AcDbEntity
  8
1
  6
Continuous
100
AcDbLine
 10
1119.064151999999
 20
144.25
 30
0.0
 11
1119.764151999999
 21
144.95
 31
0.0
  0
LINE
  5
12120
330
11E1E
100
AcDbEntity
  8
1
  6
Continuous
100
AcDbLine
 10
1121.864151999999
 20
143.1499999999998
 30
0.0
 11
1121.364151999999
 21
143.65
 31
0.0
  0
LINE
  5
12121
330
11E1E
100
AcDbEntity
  8
1
  6
Continuous
100
AcDbLine
 10
1121.864151999999
 20
143.1499999999998
 30
0.0
 11
1122.364152
 21
143.1499999999998
 31
0.0
  0
LINE
  5
12122
330
11E1E
100
AcDbEntity
  8
1
  6
Continuous
100
AcDbLine
 10
1119.764151999999
 20
153.9
 30
0.0
 11
1122.364152
 21
153.9
 31
0.0
  0
LINE
  5
12123
330
11E1E
100
AcDbEntity
  8
1
  6
Continuous
100
AcDbLine
 10
1121.364151999999
 20
155.4999999999998
 30
0.0
 11
1122.364152
 21
155.4999999999998
 31
0.0
  0
ARC
  5
12124
330
11E1E
100
AcDbEntity
  8
1
  6
Continuous
100
AcDbCircle
 10
1122.664152
 20
153.3999999999998
 30
0.0
 40
0.5
100
AcDbArc
 50
126.869898
 51
180.0
  0
ARC
  5
12125
330
11E1E
100
AcDbEntity
  8
1
  6
Continuous
100
AcDbCircle
 10
1121.364151999999
 20
153.9
 30
0.0
 40
1.6
100
AcDbArc
 50
90.0
 51
180.0
  0
LINE
  5
12126
330
11E1E
100
AcDbEntity
  8
1
  6
Continuous
100
AcDbLine
 10
1119.064151999999
 20
151.55
 30
0.0
 11
1119.764151999999
 21
150.8499999999999
 31
0.0
  0
LINE
  5
12127
330
11E1E
100
AcDbEntity
  8
1
  6
Continuous
100
AcDbLine
 10
1121.864151999999
 20
152.65
 30
0.0
 11
1121.364151999999
 21
152.15
 31
0.0
  0
LINE
  5
12128
330
11E1E
100
AcDbEntity
  8
1
  6
Continuous
100
AcDbLine
 10
1122.364152
 20
158.4
 30
0.0
 11
1122.364152
 21
137.4
 31
0.0
  0
LINE
  5
12129
330
11E1E
100
AcDbEntity
  8
1
  6
Continuous
100
AcDbLine
 10
1121.864151999999
 20
152.65
 30
0.0
 11
1122.364152
 21
152.65
 31
0.0
  0
LINE
  5
1212A
330
11E1E
100
AcDbEntity
  8
1
  6
Continuous
100
AcDbLine
 10
1123.764152
 20
135.3
 30
0.0
 11
1123.764152
 21
136.8999999999997
 31
0.0
  0
ARC
  5
1212B
330
11E1E
100
AcDbEntity
  8
1
  6
Continuous
100
AcDbCircle
 10
1122.864151999998
 20
137.4
 30
0.0
 40
0.5
100
AcDbArc
 50
180.0
 51
270.0
  0
ARC
  5
1212C
330
11E1E
100
AcDbEntity
  8
1
  6
Continuous
100
AcDbCircle
 10
1122.664152
 20
132.4
 30
0.0
 40
0.5
100
AcDbArc
 50
180.0
 51
270.0
  0
LINE
  5
1212D
330
11E1E
100
AcDbEntity
  8
1
  6
Continuous
100
AcDbLine
 10
1122.164152
 20
143.1499999999998
 30
0.0
 11
1122.164152
 21
132.4
 31
0.0
  0
LINE
  5
1212E
330
11E1E
100
AcDbEntity
  8
1
  6
Continuous
100
AcDbLine
 10
1130.164152
 20
161.5
 30
0.0
 11
1123.764152
 21
161.5
 31
0.0
  0
LINE
  5
1212F
330
11E1E
100
AcDbEntity
  8
1
  6
Continuous
100
AcDbLine
 10
1130.164152
 20
159.9
 30
0.0
 11
1123.764152
 21
159.9
 31
0.0
  0
ARC
  5
12130
330
11E1E
100
AcDbEntity
  8
1
  6
Continuous
100
AcDbCircle
 10
1130.164152
 20
159.9
 30
0.0
 40
1.6
100
AcDbArc
 50
0.0
 51
90.0
  0
LINE
  5
12131
330
11E1E
100
AcDbEntity
  8
1
  6
Continuous
100
AcDbLine
 10
1123.764152
 20
161.5
 30
0.0
 11
1123.764152
 21
159.9
 31
0.0
  0
LINE
  5
12132
330
11E1E
100
AcDbEntity
  8
4
  6
CENTER
100
AcDbLine
 10
795.882076
 20
249.187481
 30
0.0
 11
795.882076
 21
257.187481
 31
0.0
  0
LINE
  5
12133
330
11E1E
100
AcDbEntity
  8
4
  6
CENTER
100
AcDbLine
 10
919.882076
 20
249.187481
 30
0.0
 11
919.882076
 21
257.187481
 31
0.0
  0
CIRCLE
  5
12134
330
11E1E
100
AcDbEntity
  8
1
  6
Continuous
100
AcDbCircle
 10
795.882076
 20
148.3999999999998
 30
0.0
 40
3.0
  0
CIRCLE
  5
12135
330
11E1E
100
AcDbEntity
  8
1
  6
Continuous
100
AcDbCircle
 10
795.882076
 20
148.3999999999998
 30
0.0
 40
4.299999999999998
  0
LINE
  5
12136
330
11E1E
100
AcDbEntity
  8
4
  6
CENTER
100
AcDbLine
 10
795.882076
 20
142.4
 30
0.0
 11
795.882076
 21
154.4
 31
0.0
  0
CIRCLE
  5
12137
330
11E1E
100
AcDbEntity
  8
1
  6
Continuous
100
AcDbCircle
 10
919.882076
 20
148.3999999999998
 30
0.0
 40
3.0
  0
CIRCLE
  5
12138
330
11E1E
100
AcDbEntity
  8
1
  6
Continuous
100
AcDbCircle
 10
919.882076
 20
148.3999999999998
 30
0.0
 40
4.299999999999998
  0
LINE
  5
12139
330
11E1E
100
AcDbEntity
  8
4
  6
CENTER
100
AcDbLine
 10
919.882076
 20
142.4
 30
0.0
 11
919.882076
 21
154.4
 31
0.0
  0
LINE
  5
1213A
330
11E1E
100
AcDbEntity
  8
1
  6
Continuous
100
AcDbLine
 10
1065.882076
 20
135.3
 30
0.0
 11
1065.882076
 21
161.5
 31
0.0
  0
LINE
  5
1213B
330
11E1E
100
AcDbEntity
  8
4
  6
CENTER
100
AcDbLine
 10
1028.882075999999
 20
249.187481
 30
0.0
 11
1028.882075999999
 21
257.187481
 31
0.0
  0
ARC
  5
1213C
330
11E1E
100
AcDbEntity
  8
1
  6
Continuous
100
AcDbCircle
 10
1062.882075999999
 20
248.9
 30
0.0
 40
3.0
100
AcDbArc
 50
270.0
 51
0.0
  0
LINE
  5
1213D
330
11E1E
100
AcDbEntity
  8
1
  6
Continuous
100
AcDbLine
 10
1065.882076
 20
253.9
 30
0.0
 11
1065.882076
 21
248.9
 31
0.0
  0
LINE
  5
1213E
330
11E1E
100
AcDbEntity
  8
4
  6
CENTER
100
AcDbLine
 10
1043.882075999998
 20
249.187481
 30
0.0
 11
1043.882075999998
 21
257.187481
 31
0.0
  0
CIRCLE
  5
1213F
330
11E1E
100
AcDbEntity
  8
1
  6
Continuous
100
AcDbCircle
 10
1043.882075999998
 20
148.3999999999998
 30
0.0
 40
3.0
  0
CIRCLE
  5
12140
330
11E1E
100
AcDbEntity
  8
1
  6
Continuous
100
AcDbCircle
 10
1043.882075999998
 20
148.3999999999998
 30
0.0
 40
4.299999999999998
  0
CIRCLE
  5
12141
330
11E1E
100
AcDbEntity
  8
1
  6
Continuous
100
AcDbCircle
 10
1028.882075999999
 20
148.3999999999998
 30
0.0
 40
2.0
  0
LINE
  5
12142
330
11E1E
100
AcDbEntity
  8
4
  6
CENTER
100
AcDbLine
 10
1028.882075999999
 20
143.9
 30
0.0
 11
1028.882075999999
 21
152.9
 31
0.0
  0
LINE
  5
12143
330
11E1E
100
AcDbEntity
  8
4
  6
CENTER
100
AcDbLine
 10
1043.882075999998
 20
142.4
 30
0.0
 11
1043.882075999998
 21
154.4
 31
0.0
  0
LINE
  5
12144
330
11E1E
100
AcDbEntity
  8
5
  6
PHANTOM
100
AcDbLine
 10
620.6625320000001
 20
571.849816
 30
0.0
 11
954.8820759999996
 21
571.849816
 31
0.0
  0
LINE
  5
12145
330
11E1E
100
AcDbEntity
  8
5
  6
PHANTOM
100
AcDbLine
 10
637.8820759999999
 20
551.849816
 30
0.0
 11
1062.882075999999
 21
551.849816
 31
0.0
  0
LINE
  5
12146
330
11E1E
100
AcDbEntity
  8
5
  6
PHANTOM
100
AcDbLine
 10
618.8820759999997
 20
573.4498160000002
 30
0.0
 11
954.8820759999996
 21
573.4498160000002
 31
0.0
  0
LINE
  5
12147
330
11E1E
100
AcDbEntity
  8
5
  6
PHANTOM
100
AcDbLine
 10
515.882076
 20
554.849816
 30
0.0
 11
515.882076
 21
557.849816
 31
0.0
  0
ARC
  5
12148
330
11E1E
100
AcDbEntity
  8
5
  6
PHANTOM
100
AcDbCircle
 10
518.8820759999998
 20
554.849816
 30
0.0
 40
3.0
100
AcDbArc
 50
180.0
 51
270.0
  0
LINE
  5
12149
330
11E1E
100
AcDbEntity
  8
4
  6
CENTER
100
AcDbLine
 10
537.8820759999999
 20
555.849816
 30
0.0
 11
537.8820759999999
 21
567.849816
 31
0.0
  0
CIRCLE
  5
1214A
330
11E1E
100
AcDbEntity
  8
5
  6
PHANTOM
100
AcDbCircle
 10
537.8820759999999
 20
561.849816
 30
0.0
 40
3.0
  0
CIRCLE
  5
1214B
330
11E1E
100
AcDbEntity
  8
5
  6
PHANTOM
100
AcDbCircle
 10
537.8820759999999
 20
561.849816
 30
0.0
 40
4.299999999999998
  0
CIRCLE
  5
1214C
330
11E1E
100
AcDbEntity
  8
5
  6
PHANTOM
100
AcDbCircle
 10
552.882076
 20
561.849816
 30
0.0
 40
2.0
  0
LINE
  5
1214D
330
11E1E
100
AcDbEntity
  8
4
  6
CENTER
100
AcDbLine
 10
552.882076
 20
565.849816
 30
0.0
 11
552.882076
 21
557.849816
 31
0.0
  0
CIRCLE
  5
1214E
330
11E1E
100
AcDbEntity
  8
5
  6
PHANTOM
100
AcDbCircle
 10
661.882076
 20
561.849816
 30
0.0
 40
4.299999999999998
  0
CIRCLE
  5
1214F
330
11E1E
100
AcDbEntity
  8
5
  6
PHANTOM
100
AcDbCircle
 10
661.882076
 20
561.849816
 30
0.0
 40
3.0
  0
LINE
  5
12150
330
11E1E
100
AcDbEntity
  8
4
  6
CENTER
100
AcDbLine
 10
661.882076
 20
555.849816
 30
0.0
 11
661.882076
 21
567.849816
 31
0.0
  0
CIRCLE
  5
12151
330
11E1E
100
AcDbEntity
  8
5
  6
PHANTOM
100
AcDbCircle
 10
785.882076
 20
561.849816
 30
0.0
 40
3.0
  0
CIRCLE
  5
12152
330
11E1E
100
AcDbEntity
  8
5
  6
PHANTOM
100
AcDbCircle
 10
785.882076
 20
561.849816
 30
0.0
 40
4.299999999999998
  0
LINE
  5
12153
330
11E1E
100
AcDbEntity
  8
4
  6
CENTER
100
AcDbLine
 10
785.882076
 20
555.849816
 30
0.0
 11
785.882076
 21
567.849816
 31
0.0
  0
CIRCLE
  5
12154
330
11E1E
100
AcDbEntity
  8
5
  6
PHANTOM
100
AcDbCircle
 10
1054.882075999999
 20
565.849816
 30
0.0
 40
11.0
  0
LINE
  5
12155
330
11E1E
100
AcDbEntity
  8
4
  6
CENTER
100
AcDbLine
 10
1068.78497
 20
565.849816
 30
0.0
 11
1040.78497
 21
565.849816
 31
0.0
  0
CIRCLE
  5
12156
330
11E1E
100
AcDbEntity
  8
5
  6
PHANTOM
100
AcDbCircle
 10
909.882076
 20
561.849816
 30
0.0
 40
4.299999999999998
  0
LINE
  5
12157
330
11E1E
100
AcDbEntity
  8
4
  6
CENTER
100
AcDbLine
 10
909.882076
 20
555.849816
 30
0.0
 11
909.882076
 21
567.849816
 31
0.0
  0
CIRCLE
  5
12158
330
11E1E
100
AcDbEntity
  8
5
  6
PHANTOM
100
AcDbCircle
 10
909.882076
 20
561.849816
 30
0.0
 40
3.0
  0
LINE
  5
12159
330
11E1E
100
AcDbEntity
  8
5
  6
PHANTOM
100
AcDbLine
 10
968.882076
 20
573.4498160000002
 30
0.0
 11
1043.882075999998
 21
573.4498160000002
 31
0.0
  0
LINE
  5
1215A
330
11E1E
100
AcDbEntity
  8
5
  6
PHANTOM
100
AcDbLine
 10
968.882076
 20
571.849816
 30
0.0
 11
1045.662532
 21
571.849816
 31
0.0
  0
LINE
  5
1215B
330
11E1E
100
AcDbEntity
  8
5
  6
PHANTOM
100
AcDbLine
 10
954.8820759999996
 20
571.4498160000001
 30
0.0
 11
955.705606
 21
571.4498160000001
 31
0.0
  0
LINE
  5
1215C
330
11E1E
100
AcDbEntity
  8
5
  6
PHANTOM
100
AcDbLine
 10
954.8820759999996
 20
571.849816
 30
0.0
 11
954.8820759999996
 21
571.4498160000001
 31
0.0
  0
LINE
  5
1215D
330
11E1E
100
AcDbEntity
  8
5
  6
PHANTOM
100
AcDbLine
 10
961.882076
 20
568.4498160000003
 30
0.0
 11
954.8820759999996
 21
571.849816
 31
0.0
  0
LINE
  5
1215E
330
11E1E
100
AcDbEntity
  8
5
  6
PHANTOM
100
AcDbLine
 10
961.882076
 20
570.0498159999997
 30
0.0
 11
954.8820759999996
 21
573.4498160000002
 31
0.0
  0
LINE
  5
1215F
330
11E1E
100
AcDbEntity
  8
5
  6
PHANTOM
100
AcDbLine
 10
968.882076
 20
571.849816
 30
0.0
 11
968.882076
 21
571.4498160000001
 31
0.0
  0
LINE
  5
12160
330
11E1E
100
AcDbEntity
  8
5
  6
PHANTOM
100
AcDbLine
 10
961.882076
 20
568.4498160000003
 30
0.0
 11
968.882076
 21
571.849816
 31
0.0
  0
LINE
  5
12161
330
11E1E
100
AcDbEntity
  8
5
  6
PHANTOM
100
AcDbLine
 10
961.882076
 20
570.0498159999997
 30
0.0
 11
968.882076
 21
573.4498160000002
 31
0.0
  0
LINE
  5
12162
330
11E1E
100
AcDbEntity
  8
5
  6
PHANTOM
100
AcDbLine
 10
968.058547
 20
571.4498160000001
 30
0.0
 11
968.882076
 21
571.4498160000001
 31
0.0
  0
LINE
  5
12163
330
11E1E
100
AcDbEntity
  8
5
  6
PHANTOM
100
AcDbLine
 10
958.9997229999999
 20
571.4498160000001
 30
0.0
 11
964.764429
 21
571.4498160000001
 31
0.0
  0
LINE
  5
12164
330
11E1E
100
AcDbEntity
  8
5
  6
PHANTOM
100
AcDbLine
 10
1043.882075999998
 20
571.849816
 30
0.0
 11
1043.882075999998
 21
573.4498160000002
 31
0.0
  0
LINE
  5
12165
330
11E1E
100
AcDbEntity
  8
4
  6
CENTER
100
AcDbLine
 10
1054.882075999999
 20
551.849816
 30
0.0
 11
1054.882075999999
 21
579.849816
 31
0.0
  0
LINE
  5
12166
330
11E1E
100
AcDbEntity
  8
4
  6
CENTER
100
AcDbLine
 10
1045.882075999998
 20
566.349816
 30
0.0
 11
1045.882075999998
 21
557.349816
 31
0.0
  0
LINE
  5
12167
330
11E1E
100
AcDbEntity
  8
4
  6
CENTER
100
AcDbLine
 10
1033.882076
 20
567.849816
 30
0.0
 11
1033.882076
 21
555.849816
 31
0.0
  0
ARC
  5
12168
330
11E1E
100
AcDbEntity
  8
5
  6
PHANTOM
100
AcDbCircle
 10
1062.882075999999
 20
568.849816
 30
0.0
 40
3.0
100
AcDbArc
 50
0.0
 51
61.024143
  0
ARC
  5
12169
330
11E1E
100
AcDbEntity
  8
5
  6
PHANTOM
100
AcDbCircle
 10
1062.882075999999
 20
554.849816
 30
0.0
 40
3.0
100
AcDbArc
 50
270.0
 51
0.0
  0
CIRCLE
  5
1216A
330
11E1E
100
AcDbEntity
  8
5
  6
PHANTOM
100
AcDbCircle
 10
1033.882076
 20
561.849816
 30
0.0
 40
4.299999999999998
  0
CIRCLE
  5
1216B
330
11E1E
100
AcDbEntity
  8
5
  6
PHANTOM
100
AcDbCircle
 10
1033.882076
 20
561.849816
 30
0.0
 40
3.0
  0
ARC
  5
1216C
330
11E1E
100
AcDbEntity
  8
5
  6
PHANTOM
100
AcDbCircle
 10
1045.882075999998
 20
561.849816
 30
0.0
 40
2.0
100
AcDbArc
 50
144.471448
 51
263.45353
  0
LINE
  5
1216D
330
11E1E
100
AcDbEntity
  8
5
  6
PHANTOM
100
AcDbLine
 10
637.8820759999999
 20
133.9
 30
0.0
 11
1062.882075999999
 21
133.9
 31
0.0
  0
LINE
  5
1216E
330
11E1E
100
AcDbEntity
  8
5
  6
PHANTOM
100
AcDbLine
 10
529.8820759999999
 20
155.4999999999998
 30
0.0
 11
543.8820759999998
 21
155.4999999999998
 31
0.0
  0
CIRCLE
  5
1216F
330
11E1E
100
AcDbEntity
  8
5
  6
PHANTOM
100
AcDbCircle
 10
552.882076
 20
143.9
 30
0.0
 40
2.0
  0
LINE
  5
12170
330
11E1E
100
AcDbEntity
  8
4
  6
CENTER
100
AcDbLine
 10
537.8820759999999
 20
137.9
 30
0.0
 11
537.8820759999999
 21
149.9
 31
0.0
  0
CIRCLE
  5
12171
330
11E1E
100
AcDbEntity
  8
5
  6
PHANTOM
100
AcDbCircle
 10
537.8820759999999
 20
143.9
 30
0.0
 40
3.0
  0
LINE
  5
12172
330
11E1E
100
AcDbEntity
  8
4
  6
CENTER
100
AcDbLine
 10
552.882076
 20
147.9
 30
0.0
 11
552.882076
 21
139.9
 31
0.0
  0
ARC
  5
12173
330
11E1E
100
AcDbEntity
  8
5
  6
PHANTOM
100
AcDbCircle
 10
518.8820759999998
 20
136.8999999999997
 30
0.0
 40
3.0
100
AcDbArc
 50
180.0
 51
270.0
  0
CIRCLE
  5
12174
330
11E1E
100
AcDbEntity
  8
5
  6
PHANTOM
100
AcDbCircle
 10
785.882076
 20
143.9
 30
0.0
 40
3.0
  0
LINE
  5
12175
330
11E1E
100
AcDbEntity
  8
4
  6
CENTER
100
AcDbLine
 10
785.882076
 20
137.9
 30
0.0
 11
785.882076
 21
149.9
 31
0.0
  0
CIRCLE
  5
12176
330
11E1E
100
AcDbEntity
  8
5
  6
PHANTOM
100
AcDbCircle
 10
661.882076
 20
143.9
 30
0.0
 40
3.0
  0
LINE
  5
12177
330
11E1E
100
AcDbEntity
  8
4
  6
CENTER
100
AcDbLine
 10
661.882076
 20
137.9
 30
0.0
 11
661.882076
 21
149.9
 31
0.0
  0
LINE
  5
12178
330
11E1E
100
AcDbEntity
  8
4
  6
CENTER
100
AcDbLine
 10
1041.117928
 20
147.9
 30
0.0
 11
1068.802443
 21
147.9
 31
0.0
  0
LINE
  5
12179
330
11E1E
100
AcDbEntity
  8
5
  6
PHANTOM
100
AcDbLine
 10
1043.882075999998
 20
153.9
 30
0.0
 11
1062.882075999999
 21
153.9
 31
0.0
  0
CIRCLE
  5
1217A
330
11E1E
100
AcDbEntity
  8
5
  6
PHANTOM
100
AcDbCircle
 10
1054.882075999999
 20
147.9
 30
0.0
 40
3.649999999999999
  0
LINE
  5
1217B
330
11E1E
100
AcDbEntity
  8
4
  6
CENTER
100
AcDbLine
 10
1054.882075999999
 20
138.1995399999998
 30
0.0
 11
1054.882075999999
 21
157.60046
 31
0.0
  0
CIRCLE
  5
1217C
330
11E1E
100
AcDbEntity
  8
5
  6
PHANTOM
100
AcDbCircle
 10
1033.882076
 20
143.9
 30
0.0
 40
3.0
  0
LINE
  5
1217D
330
11E1E
100
AcDbEntity
  8
4
  6
CENTER
100
AcDbLine
 10
1033.882076
 20
137.9
 30
0.0
 11
1033.882076
 21
149.9
 31
0.0
  0
LINE
  5
1217E
330
11E1E
100
AcDbEntity
  8
4
  6
CENTER
100
AcDbLine
 10
1045.882075999998
 20
139.4
 30
0.0
 11
1045.882075999998
 21
148.3999999999998
 31
0.0
  0
CIRCLE
  5
1217F
330
11E1E
100
AcDbEntity
  8
5
  6
PHANTOM
100
AcDbCircle
 10
1045.882075999998
 20
143.9
 30
0.0
 40
2.0
  0
LINE
  5
12180
330
11E1E
100
AcDbEntity
  8
4
  6
CENTER
100
AcDbLine
 10
909.882076
 20
137.9
 30
0.0
 11
909.882076
 21
149.9
 31
0.0
  0
CIRCLE
  5
12181
330
11E1E
100
AcDbEntity
  8
5
  6
PHANTOM
100
AcDbCircle
 10
909.882076
 20
143.9
 30
0.0
 40
3.0
  0
LINE
  5
12182
330
11E1E
100
AcDbEntity
  8
5
  6
PHANTOM
100
AcDbLine
 10
968.882076
 20
155.4999999999998
 30
0.0
 11
1043.882075999998
 21
155.4999999999998
 31
0.0
  0
LINE
  5
12183
330
11E1E
100
AcDbEntity
  8
5
  6
PHANTOM
100
AcDbLine
 10
964.764429
 20
153.5
 30
0.0
 11
968.882076
 21
155.4999999999998
 31
0.0
  0
LINE
  5
12184
330
11E1E
100
AcDbEntity
  8
5
  6
PHANTOM
100
AcDbLine
 10
968.882076
 20
155.4999999999998
 30
0.0
 11
968.882076
 21
153.5
 31
0.0
  0
LINE
  5
12185
330
11E1E
100
AcDbEntity
  8
5
  6
PHANTOM
100
AcDbLine
 10
958.9997229999999
 20
153.5
 30
0.0
 11
954.8820759999996
 21
155.4999999999998
 31
0.0
  0
LINE
  5
12186
330
11E1E
100
AcDbEntity
  8
5
  6
PHANTOM
100
AcDbLine
 10
954.8820759999996
 20
155.4999999999998
 30
0.0
 11
954.8820759999996
 21
153.5
 31
0.0
  0
LINE
  5
12187
330
11E1E
100
AcDbEntity
  8
5
  6
PHANTOM
100
AcDbLine
 10
968.058547
 20
153.5
 30
0.0
 11
968.882076
 21
153.9
 31
0.0
  0
LINE
  5
12188
330
11E1E
100
AcDbEntity
  8
5
  6
PHANTOM
100
AcDbLine
 10
955.705606
 20
153.5
 30
0.0
 11
954.8820759999996
 21
153.9
 31
0.0
  0
LINE
  5
12189
330
11E1E
100
AcDbEntity
  8
5
  6
PHANTOM
100
AcDbLine
 10
954.8820759999996
 20
153.5
 30
0.0
 11
968.882076
 21
153.5
 31
0.0
  0
LINE
  5
1218A
330
11E1E
100
AcDbEntity
  8
5
  6
PHANTOM
100
AcDbLine
 10
1043.882075999998
 20
153.9
 30
0.0
 11
1043.882075999998
 21
155.4999999999998
 31
0.0
  0
ARC
  5
1218B
330
11E1E
100
AcDbEntity
  8
5
  6
PHANTOM
100
AcDbCircle
 10
1062.882075999999
 20
136.8999999999997
 30
0.0
 40
3.0
100
AcDbArc
 50
270.0
 51
0.0
  0
ARC
  5
1218C
330
11E1E
100
AcDbEntity
  8
5
  6
PHANTOM
100
AcDbCircle
 10
1062.882075999999
 20
150.9
 30
0.0
 40
3.0
100
AcDbArc
 50
0.0
 51
90.0
  0
CIRCLE
  5
1218D
330
11E1E
100
AcDbEntity
  8
5
  6
PHANTOM
100
AcDbCircle
 10
1054.882075999999
 20
147.9
 30
0.0
 40
11.0
  0
LINE
  5
1218E
330
11E1E
100
AcDbEntity
  8
5
  6
PHANTOM
100
AcDbLine
 10
618.8820759999997
 20
155.4999999999998
 30
0.0
 11
954.8820759999996
 21
155.4999999999998
 31
0.0
  0
ENDSEC
  0
SECTION
  2
OBJECTS
  0
DICTIONARY
  5
11E0C
330
0
100
AcDbDictionary
281
     1
  3
ACAD_CIP_PREVIOUS_PRODUCT_INFO
350
121EE
  3
ACAD_COLOR
350
121D0
  3
ACAD_DETAILVIEWSTYLE
350
121E9
  3
ACAD_GROUP
350
11E0D
  3
ACAD_LAYOUT
350
11E19
  3
ACAD_MATERIAL
350
1219E
  3
ACAD_MLEADERSTYLE
350
121E5
  3
ACAD_MLINESTYLE
350
11E16
  3
ACAD_PLOTSETTINGS
350
11E18
  3
ACAD_PLOTSTYLENAME
350
1219C
  3
ACAD_SCALELIST
350
121D3
  3
ACAD_SECTIONVIEWSTYLE
350
121E7
  3
ACAD_TABLESTYLE
350
121D1
  3
ACAD_VISUALSTYLE
350
121B7
  3
ACDB_RECOMPOSE_DATA
350
1220C
  3
AcDbVariableDictionary
350
121FF
  3
DWGPROPS
350
1220D
  0
DICTIONARY
  5
121EF
330
11E10
100
AcDbDictionary
280
     1
281
     1
  3
ADSK_XREC_LAYER_RECONCILED
360
121F0
  0
DICTIONARY
  5
121F1
330
11E26
100
AcDbDictionary
280
     1
281
     1
  3
ADSK_XREC_LAYER_RECONCILED
360
121F2
  0
DICTIONARY
  5
121F3
330
11E27
100
AcDbDictionary
280
     1
281
     1
  3
ADSK_XREC_LAYER_RECONCILED
360
121F4
  0
DICTIONARY
  5
121F5
330
11E28
100
AcDbDictionary
280
     1
281
     1
  3
ADSK_XREC_LAYER_RECONCILED
360
121F6
  0
DICTIONARY
  5
121F7
330
11E29
100
AcDbDictionary
280
     1
281
     1
  3
ADSK_XREC_LAYER_RECONCILED
360
121F8
  0
DICTIONARY
  5
121F9
330
11E2A
100
AcDbDictionary
280
     1
281
     1
  3
ADSK_XREC_LAYER_RECONCILED
360
121FA
  0
DICTIONARY
  5
121FB
330
11E2B
100
AcDbDictionary
280
     1
281
     1
  3
ADSK_XREC_LAYER_RECONCILED
360
121FC
  0
DICTIONARY
  5
121FD
330
11E2C
100
AcDbDictionary
280
     1
281
     1
  3
ADSK_XREC_LAYER_RECONCILED
360
121FE
  0
DICTIONARY
  5
12197
330
11E1E
100
AcDbDictionary
281
     1
  3
ACAD_LAYOUTSELFREF
350
12198
  0
DICTIONARY
  5
12195
330
11E1A
100
AcDbDictionary
281
     1
  3
ACAD_LAYOUTSELFREF
350
12196
  0
XRECORD
  5
121EE
102
{ACAD_REACTORS
330
11E0C
102
}
330
11E0C
100
AcDbXrecord
280
     1
300
ACDLT
300
2014
300
ACDLT_F_S
  0
DICTIONARY
  5
121D0
102
{ACAD_REACTORS
330
11E0C
102
}
330
11E0C
100
AcDbDictionary
281
     1
  0
DICTIONARY
  5
121E9
102
{ACAD_REACTORS
330
11E0C
102
}
330
11E0C
100
AcDbDictionary
281
     1
  3
Imperial24
350
121EA
  0
DICTIONARY
  5
11E0D
102
{ACAD_REACTORS
330
11E0C
102
}
330
11E0C
100
AcDbDictionary
281
     1
  0
DICTIONARY
  5
11E19
102
{ACAD_REACTORS
330
11E0C
102
}
330
11E0C
100
AcDbDictionary
281
     1
  3
Model
350
121EB
  3
レイアウト1
350
121EC
  0
DICTIONARY
  5
1219E
102
{ACAD_REACTORS
330
11E0C
102
}
330
11E0C
100
AcDbDictionary
281
     1
  3
ByBlock
350
121A7
  3
ByLayer
350
1219F
  3
Global
350
121AF
  0
DICTIONARY
  5
121E5
102
{ACAD_REACTORS
330
11E0C
102
}
330
11E0C
100
AcDbDictionary
281
     1
  3
Standard
350
121E6
  0
DICTIONARY
  5
11E16
102
{ACAD_REACTORS
330
11E0C
102
}
330
11E0C
100
AcDbDictionary
281
     1
  3
STANDARD
350
11E17
  0
DICTIONARY
  5
11E18
102
{ACAD_REACTORS
330
11E0C
102
}
330
11E0C
100
AcDbDictionary
281
     1
  0
ACDBDICTIONARYWDFLT
  5
1219C
102
{ACAD_REACTORS
330
11E0C
102
}
330
11E0C
100
AcDbDictionary
281
     1
  3
Normal
350
1219D
100
AcDbDictionaryWithDefault
340
1219D
  0
DICTIONARY
  5
121D3
102
{ACAD_REACTORS
330
11E0C
102
}
330
11E0C
100
AcDbDictionary
281
     1
  3
A0
350
121D4
  3
A1
350
121D5
  3
A2
350
121D6
  3
A3
350
121D7
  3
A4
350
121D8
  3
A5
350
121D9
  3
A6
350
121DA
  3
A7
350
121DB
  3
A8
350
121DC
  3
A9
350
121DD
  3
B0
350
121DE
  3
B1
350
121DF
  3
B2
350
121E0
  3
B3
350
121E1
  3
B4
350
121E2
  3
B5
350
121E3
  3
B6
350
121E4
  0
DICTIONARY
  5
121E7
102
{ACAD_REACTORS
330
11E0C
102
}
330
11E0C
100
AcDbDictionary
281
     1
  3
Imperial24
350
121E8
  0
DICTIONARY
  5
121D1
102
{ACAD_REACTORS
330
11E0C
102
}
330
11E0C
100
AcDbDictionary
281
     1
  3
Standard
350
121D2
  0
DICTIONARY
  5
121B7
102
{ACAD_REACTORS
330
11E0C
102
}
330
11E0C
100
AcDbDictionary
281
     1
  3
2dWireframe
350
121BD
  3
Basic
350
121BC
  3
Brighten
350
121C3
  3
ColorChange
350
121C7
  3
Conceptual
350
121C0
  3
Dim
350
121C2
  3
EdgeColorOff
350
121CF
  3
Facepattern
350
121C6
  3
Flat
350
121B8
  3
FlatWithEdges
350
121B9
  3
Gouraud
350
121BA
  3
GouraudWithEdges
350
121BB
  3
Hidden
350
121BF
  3
JitterOff
350
121CD
  3
Linepattern
350
121C5
  3
OverhangOff
350
121CE
  3
Realistic
350
121C1
  3
Shaded
350
121CC
  3
Shaded with edges
350
121CB
  3
Shades of Gray
350
121C8
  3
Sketchy
350
121C9
  3
Thicken
350
121C4
  3
Wireframe
350
121BE
  3
X-Ray
350
121CA
  0
XRECORD
  5
1220C
102
{ACAD_REACTORS
330
11E0C
102
}
330
11E0C
100
AcDbXrecord
280
     1
 90
        1
330
121D2
  0
DICTIONARY
  5
121FF
102
{ACAD_REACTORS
330
11E0C
102
}
330
11E0C
100
AcDbDictionary
281
     1
  3
CANNOSCALE
350
12204
  3
CMLEADERSTYLE
350
12201
  3
CTABLESTYLE
350
12200
  3
CVIEWDETAILSTYLE
350
12202
  3
CVIEWSECTIONSTYLE
350
12203
  3
DIMASSOC
350
12207
  3
INDEXCTL
350
12206
  3
SORTENTS
350
12205
  3
XCLIPFRAME
350
12208
  0
XRECORD
  5
1220D
102
{ACAD_REACTORS
330
11E0C
102
}
330
11E0C
100
AcDbXrecord
280
     1
  1
DWGPROPS COOKIE
  2

  3

  4

  6

  7

  8
Yoshitsune
  9

300
=
301
=
302
=
303
=
304
=
305
=
306
=
307
=
308
=
309
=
 40
0.0000127083333333
 41
2451233.437638542
 42
2457192.665349815
  1

 90
        0
  0
XRECORD
  5
121F0
102
{ACAD_REACTORS
330
121EF
102
}
330
121EF
100
AcDbXrecord
280
     1
290
     1
  0
XRECORD
  5
121F2
102
{ACAD_REACTORS
330
121F1
102
}
330
121F1
100
AcDbXrecord
280
     1
290
     1
  0
XRECORD
  5
121F4
102
{ACAD_REACTORS
330
121F3
102
}
330
121F3
100
AcDbXrecord
280
     1
290
     1
  0
XRECORD
  5
121F6
102
{ACAD_REACTORS
330
121F5
102
}
330
121F5
100
AcDbXrecord
280
     1
290
     1
  0
XRECORD
  5
121F8
102
{ACAD_REACTORS
330
121F7
102
}
330
121F7
100
AcDbXrecord
280
     1
290
     1
  0
XRECORD
  5
121FA
102
{ACAD_REACTORS
330
121F9
102
}
330
121F9
100
AcDbXrecord
280
     1
290
     1
  0
XRECORD
  5
121FC
102
{ACAD_REACTORS
330
121FB
102
}
330
121FB
100
AcDbXrecord
280
     1
290
     1
  0
XRECORD
  5
121FE
102
{ACAD_REACTORS
330
121FD
102
}
330
121FD
100
AcDbXrecord
280
     1
290
     1
  0
XRECORD
  5
12198
102
{ACAD_REACTORS
330
12197
102
}
330
12197
100
AcDbXrecord
280
     1
340
11E1E
  0
XRECORD
  5
12196
102
{ACAD_REACTORS
330
12195
102
}
330
12195
100
AcDbXrecord
280
     1
340
11E1A
  0
ACDBDETAILVIEWSTYLE
  5
121EA
102
{ACAD_XDICTIONARY
360
12245
102
}
102
{ACAD_REACTORS
330
121E9
102
}
330
121E9
100
AcDbModelDocViewStyle
 70
     0
  3
Imperial24
290
     0
100
AcDbDetailViewStyle
 70
     0
 71
     0
 90
        3
 71
     1
340
11E11
 40
0.24
340
0
 40
0.24
300

 40
0.36
280
     3
 71
     2
340
11E15
 90
       25
 71
     3
340
11E11
 40
0.24
 90
        1
 40
0.75
 90
        1
300
%<\AcVar ViewType \f "%tc1">% %<\AcVar ViewDetailId>%\PSCALE %<\AcVar ViewScale \f "%sn">%
 71
     4
340
11E15
 90
       25
340
11E15
 90
       25
280
     0
  0
LAYOUT
  5
121EB
102
{ACAD_XDICTIONARY
360
12247
102
}
102
{ACAD_REACTORS
330
11E19
102
}
330
11E19
100
AcDbPlotSettings
  1

  2
Canon LBP9100C
  4

  6

 40
0.0
 41
0.0
 42
0.0
 43
0.0
 44
0.0
 45
0.0
 46
0.0
 47
0.0
 48
0.0
 49
0.0
140
0.0
141
0.0
142
1.0
143
1.0
 70
  1712
 72
     0
 73
     0
 74
     0
  7

 75
     0
147
1.0
148
0.0
149
0.0
100
AcDbLayout
  1
Model
 70
     1
 71
     0
 10
0.0
 20
0.0
 11
12.0
 21
9.0
 12
0.0
 22
0.0
 32
0.0
 14
0.0
 24
0.0
 34
0.0
 15
0.0
 25
0.0
 35
0.0
146
0.0
 13
0.0
 23
0.0
 33
0.0
 16
1.0
 26
0.0
 36
0.0
 17
0.0
 27
1.0
 37
0.0
 76
     0
330
11E1E
331
12194
  0
LAYOUT
  5
121EC
102
{ACAD_XDICTIONARY
360
12249
102
}
102
{ACAD_REACTORS
330
11E19
102
}
330
11E19
100
AcDbPlotSettings
  1

  2
Canon LBP9100C
  4

  6

 40
0.0
 41
0.0
 42
0.0
 43
0.0
 44
0.0
 45
0.0
 46
0.0
 47
0.0
 48
0.0
 49
0.0
140
0.0
141
0.0
142
1.0
143
1.0
 70
   688
 72
     0
 73
     0
 74
     5
  7

 75
    16
147
1.0
148
0.0
149
0.0
100
AcDbLayout
  1
レイアウト1
 70
     0
 71
     1
 10
0.0
 20
0.0
 11
420.0
 21
297.0
 12
0.0
 22
0.0
 32
0.0
 14
1.000000000000000E+20
 24
1.000000000000000E+20
 34
1.000000000000000E+20
 15
-1.000000000000000E+20
 25
-1.000000000000000E+20
 35
-1.000000000000000E+20
146
0.0
 13
0.0
 23
0.0
 33
0.0
 16
1.0
 26
0.0
 36
0.0
 17
0.0
 27
1.0
 37
0.0
 76
     0
330
11E1A
  0
MATERIAL
  5
121A7
102
{ACAD_XDICTIONARY
360
121A8
102
}
102
{ACAD_REACTORS
330
1219E
102
}
330
1219E
100
AcDbMaterial
  1
ByBlock
 72
     0
 43
0.0208333333333333
 43
0.0
 43
0.0
 43
0.0
 43
0.0
 43
0.0208333333333333
 43
0.0
 43
0.0
 43
0.0
 43
0.0
 43
1.0
 43
0.0
 43
0.0
 43
0.0
 43
0.0
 43
1.0
 77
     0
 47
0.0208333333333333
 47
0.0
 47
0.0
 47
0.0
 47
0.0
 47
0.0208333333333333
 47
0.0
 47
0.0
 47
0.0
 47
0.0
 47
1.0
 47
0.0
 47
0.0
 47
0.0
 47
0.0
 47
1.0
171
     0
 49
0.0208333333333333
 49
0.0
 49
0.0
 49
0.0
 49
0.0
 49
0.0208333333333333
 49
0.0
 49
0.0
 49
0.0
 49
0.0
 49
1.0
 49
0.0
 49
0.0
 49
0.0
 49
0.0
 49
1.0
175
     0
142
0.0208333333333333
142
0.0
142
0.0
142
0.0
142
0.0
142
0.0208333333333333
142
0.0
142
0.0
142
0.0
142
0.0
142
1.0
142
0.0
142
0.0
142
0.0
142
0.0
142
1.0
179
     0
144
0.0208333333333333
144
0.0
144
0.0
144
0.0
144
0.0
144
0.0208333333333333
144
0.0
144
0.0
144
0.0
144
0.0
144
1.0
144
0.0
144
0.0
144
0.0
144
0.0
144
1.0
147
0.0208333333333333
147
0.0
147
0.0
147
0.0
147
0.0
147
0.0208333333333333
147
0.0
147
0.0
147
0.0
147
0.0
147
1.0
147
0.0
147
0.0
147
0.0
147
0.0
147
1.0
  0
MATERIAL
  5
1219F
102
{ACAD_XDICTIONARY
360
121A0
102
}
102
{ACAD_REACTORS
330
1219E
102
}
330
1219E
100
AcDbMaterial
  1
ByLayer
 72
     0
 43
0.0208333333333333
 43
0.0
 43
0.0
 43
0.0
 43
0.0
 43
0.0208333333333333
 43
0.0
 43
0.0
 43
0.0
 43
0.0
 43
1.0
 43
0.0
 43
0.0
 43
0.0
 43
0.0
 43
1.0
 77
     0
 47
0.0208333333333333
 47
0.0
 47
0.0
 47
0.0
 47
0.0
 47
0.0208333333333333
 47
0.0
 47
0.0
 47
0.0
 47
0.0
 47
1.0
 47
0.0
 47
0.0
 47
0.0
 47
0.0
 47
1.0
171
     0
 49
0.0208333333333333
 49
0.0
 49
0.0
 49
0.0
 49
0.0
 49
0.0208333333333333
 49
0.0
 49
0.0
 49
0.0
 49
0.0
 49
1.0
 49
0.0
 49
0.0
 49
0.0
 49
0.0
 49
1.0
175
     0
142
0.0208333333333333
142
0.0
142
0.0
142
0.0
142
0.0
142
0.0208333333333333
142
0.0
142
0.0
142
0.0
142
0.0
142
1.0
142
0.0
142
0.0
142
0.0
142
0.0
142
1.0
179
     0
144
0.0208333333333333
144
0.0
144
0.0
144
0.0
144
0.0
144
0.0208333333333333
144
0.0
144
0.0
144
0.0
144
0.0
144
1.0
144
0.0
144
0.0
144
0.0
144
0.0
144
1.0
147
0.0208333333333333
147
0.0
147
0.0
147
0.0
147
0.0
147
0.0208333333333333
147
0.0
147
0.0
147
0.0
147
0.0
147
1.0
147
0.0
147
0.0
147
0.0
147
0.0
147
1.0
  0
MATERIAL
  5
121AF
102
{ACAD_XDICTIONARY
360
121B0
102
}
102
{ACAD_REACTORS
330
1219E
102
}
330
1219E
100
AcDbMaterial
  1
Global
 72
     0
 43
0.0208333333333333
 43
0.0
 43
0.0
 43
0.0
 43
0.0
 43
0.0208333333333333
 43
0.0
 43
0.0
 43
0.0
 43
0.0
 43
1.0
 43
0.0
 43
0.0
 43
0.0
 43
0.0
 43
1.0
 77
     0
 47
0.0208333333333333
 47
0.0
 47
0.0
 47
0.0
 47
0.0
 47
0.0208333333333333
 47
0.0
 47
0.0
 47
0.0
 47
0.0
 47
1.0
 47
0.0
 47
0.0
 47
0.0
 47
0.0
 47
1.0
171
     0
 49
0.0208333333333333
 49
0.0
 49
0.0
 49
0.0
 49
0.0
 49
0.0208333333333333
 49
0.0
 49
0.0
 49
0.0
 49
0.0
 49
1.0
 49
0.0
 49
0.0
 49
0.0
 49
0.0
 49
1.0
175
     0
142
0.0208333333333333
142
0.0
142
0.0
142
0.0
142
0.0
142
0.0208333333333333
142
0.0
142
0.0
142
0.0
142
0.0
142
1.0
142
0.0
142
0.0
142
0.0
142
0.0
142
1.0
179
     0
144
0.0208333333333333
144
0.0
144
0.0
144
0.0
144
0.0
144
0.0208333333333333
144
0.0
144
0.0
144
0.0
144
0.0
144
1.0
144
0.0
144
0.0
144
0.0
144
0.0
144
1.0
147
0.0208333333333333
147
0.0
147
0.0
147
0.0
147
0.0
147
0.0208333333333333
147
0.0
147
0.0
147
0.0
147
0.0
147
1.0
147
0.0
147
0.0
147
0.0
147
0.0
147
1.0
  0
MLEADERSTYLE
  5
121E6
102
{ACAD_REACTORS
330
121E5
102
}
330
121E5
100
AcDbMLeaderStyle
170
     2
171
     1
172
     0
 90
        2
 40
0.0
 41
0.0
173
     1
 91
-1056964608
340
11E13
 92
       -2
290
     1
 42
0.09
291
     1
 43
0.36
  3
Standard
 44
0.18
300

342
11E11
174
     1
178
     6
175
     1
176
     0
 93
-1056964608
 45
0.18
292
     0
297
     0
 46
0.18
 94
-1056964608
 47
1.0
 49
1.0
140
1.0
293
     1
141
0.0
294
     1
177
     0
142
1.0
295
     0
296
     0
143
0.125
1001
ACAD_MLEADERVER
1070
     2
  0
MLINESTYLE
  5
11E17
102
{ACAD_REACTORS
330
11E16
102
}
330
11E16
100
AcDbMlineStyle
  2
STANDARD
 70
     0
  3

 62
   256
 51
90.0
 52
90.0
 71
     2
 49
0.5
 62
   256
  6
BYLAYER
 49
-0.5
 62
   256
  6
BYLAYER
  0
ACDBPLACEHOLDER
  5
1219D
102
{ACAD_REACTORS
330
1219C
102
}
330
1219C
  0
SCALE
  5
121D4
102
{ACAD_REACTORS
330
121D3
102
}
330
121D3
100
AcDbScale
 70
     0
300
1:1
140
1.0
141
1.0
290
     1
  0
SCALE
  5
121D5
102
{ACAD_REACTORS
330
121D3
102
}
330
121D3
100
AcDbScale
 70
     0
300
1/128" = 1'-0"
140
0.0078125
141
12.0
290
     0
  0
SCALE
  5
121D6
102
{ACAD_REACTORS
330
121D3
102
}
330
121D3
100
AcDbScale
 70
     0
300
1/64" = 1'-0"
140
0.015625
141
12.0
290
     0
  0
SCALE
  5
121D7
102
{ACAD_REACTORS
330
121D3
102
}
330
121D3
100
AcDbScale
 70
     0
300
1/32" = 1'-0"
140
0.03125
141
12.0
290
     0
  0
SCALE
  5
121D8
102
{ACAD_REACTORS
330
121D3
102
}
330
121D3
100
AcDbScale
 70
     0
300
1/16" = 1'-0"
140
0.0625
141
12.0
290
     0
  0
SCALE
  5
121D9
102
{ACAD_REACTORS
330
121D3
102
}
330
121D3
100
AcDbScale
 70
     0
300
3/32" = 1'-0"
140
0.09375
141
12.0
290
     0
  0
SCALE
  5
121DA
102
{ACAD_REACTORS
330
121D3
102
}
330
121D3
100
AcDbScale
 70
     0
300
1/8" = 1'-0"
140
0.125
141
12.0
290
     0
  0
SCALE
  5
121DB
102
{ACAD_REACTORS
330
121D3
102
}
330
121D3
100
AcDbScale
 70
     0
300
3/16" = 1'-0"
140
0.1875
141
12.0
290
     0
  0
SCALE
  5
121DC
102
{ACAD_REACTORS
330
121D3
102
}
330
121D3
100
AcDbScale
 70
     0
300
1/4" = 1'-0"
140
0.25
141
12.0
290
     0
  0
SCALE
  5
121DD
102
{ACAD_REACTORS
330
121D3
102
}
330
121D3
100
AcDbScale
 70
     0
300
3/8" = 1'-0"
140
0.375
141
12.0
290
     0
  0
SCALE
  5
121DE
102
{ACAD_REACTORS
330
121D3
102
}
330
121D3
100
AcDbScale
 70
     0
300
1/2" = 1'-0"
140
0.5
141
12.0
290
     0
  0
SCALE
  5
121DF
102
{ACAD_REACTORS
330
121D3
102
}
330
121D3
100
AcDbScale
 70
     0
300
3/4" = 1'-0"
140
0.75
141
12.0
290
     0
  0
SCALE
  5
121E0
102
{ACAD_REACTORS
330
121D3
102
}
330
121D3
100
AcDbScale
 70
     0
300
1" = 1'-0"
140
1.0
141
12.0
290
     0
  0
SCALE
  5
121E1
102
{ACAD_REACTORS
330
121D3
102
}
330
121D3
100
AcDbScale
 70
     0
300
1-1/2" = 1'-0"
140
1.5
141
12.0
290
     0
  0
SCALE
  5
121E2
102
{ACAD_REACTORS
330
121D3
102
}
330
121D3
100
AcDbScale
 70
     0
300
3" = 1'-0"
140
3.0
141
12.0
290
     0
  0
SCALE
  5
121E3
102
{ACAD_REACTORS
330
121D3
102
}
330
121D3
100
AcDbScale
 70
     0
300
6" = 1'-0"
140
6.0
141
12.0
290
     0
  0
SCALE
  5
121E4
102
{ACAD_REACTORS
330
121D3
102
}
330
121D3
100
AcDbScale
 70
     0
300
1'-0" = 1'-0"
140
12.0
141
12.0
290
     0
  0
ACDBSECTIONVIEWSTYLE
  5
121E8
102
{ACAD_XDICTIONARY
360
12243
102
}
102
{ACAD_REACTORS
330
121E7
102
}
330
121E7
100
AcDbModelDocViewStyle
 70
     0
  3
Imperial24
290
     0
100
AcDbSectionViewStyle
 70
     0
 71
     0
 90
       78
 71
     1
340
11E11
 40
0.24
340
0
340
0
 40
0.24
300
I, O, Q, S, X, Z
 40
0.48
 90
        3
 40
0.18
 90
        1
 71
     2
340
11E15
 90
       25
340
11E15
 90
       50
 40
0.24
 40
0.0
 40
0.24
 71
     3
340
11E11
 40
0.24
 90
        1
 40
0.75
 90
        1
300
%<\AcVar ViewType \f "%tc1">% %<\AcVar ViewSectionStartId>%-%<\AcVar ViewSectionEndId>%\PSCALE %<\AcVar ViewScale \f "%sn">%
 71
     4
300
ANSI31
 40
1.0
 90
        0
290
     0
290
     0
 90
        6
 40
0.0
 40
1.570796326794896
 40
0.2617993877991494
 40
1.308996938995747
 40
-0.2617993877991494
 40
1.832595714594046
  0
TABLESTYLE
  5
121D2
102
{ACAD_XDICTIONARY
360
1220A
102
}
102
{ACAD_REACTORS
330
121D1
102
}
330
121D1
100
AcDbTableStyle
  3
Standard
 70
     0
 71
     0
 40
0.06
 41
0.06
280
     0
281
     0
  7
STANDARD
140
0.18
170
     2
 62
     0
 63
     7
283
     0
274
    -2
284
     1
 64
     0
275
    -2
285
     1
 65
     0
276
    -2
286
     1
 66
     0
277
    -2
287
     1
 67
     0
278
    -2
288
     1
 68
     0
279
    -2
289
     1
 69
     0
  7
STANDARD
140
0.25
170
     5
 62
     0
 63
     7
283
     0
274
    -2
284
     1
 64
     0
275
    -2
285
     1
 65
     0
276
    -2
286
     1
 66
     0
277
    -2
287
     1
 67
     0
278
    -2
288
     1
 68
     0
279
    -2
289
     1
 69
     0
  7
STANDARD
140
0.18
170
     5
 62
     0
 63
     7
283
     0
274
    -2
284
     1
 64
     0
275
    -2
285
     1
 65
     0
276
    -2
286
     1
 66
     0
277
    -2
287
     1
 67
     0
278
    -2
288
     1
 68
     0
279
    -2
289
     1
 69
     0
  0
VISUALSTYLE
  5
121BD
102
{ACAD_XDICTIONARY
360
1221B
102
}
102
{ACAD_REACTORS
330
121B7
102
}
330
121B7
100
AcDbVisualStyle
  2
2dWireframe
 70
     4
 71
     0
 72
     2
 73
     0
 90
        0
 40
-0.6
 41
-30.0
 62
     5
 63
     7
 74
     1
 91
        4
 64
     7
 65
   257
 75
     1
175
     1
 42
1.0
 92
        0
 66
   257
 43
1.0
 76
     1
 77
     6
 78
     2
 67
     7
 79
     5
170
     0
171
     0
290
     0
174
     0
 93
        1
 44
0.0
173
     0
291
     0
 45
0.0
1001
ACAD
1000
AcDbSavedByObjectVersion
1070
     0
  0
VISUALSTYLE
  5
121BC
102
{ACAD_XDICTIONARY
360
12219
102
}
102
{ACAD_REACTORS
330
121B7
102
}
330
121B7
100
AcDbVisualStyle
  2
Basic
 70
     7
 71
     1
 72
     0
 73
     1
 90
        0
 40
-0.6
 41
-30.0
 62
     5
 63
     7
 74
     0
 91
        4
 64
     7
 65
   257
 75
     1
175
     1
 42
1.0
 92
        8
 66
     7
 43
1.0
 76
     1
 77
     6
 78
     2
 67
     7
 79
     5
170
     0
171
     0
290
     0
174
     0
 93
        1
 44
0.0
173
     0
291
     1
 45
0.0
1001
ACAD
1000
AcDbSavedByObjectVersion
1070
     0
  0
VISUALSTYLE
  5
121C3
102
{ACAD_XDICTIONARY
360
12227
102
}
102
{ACAD_REACTORS
330
121B7
102
}
330
121B7
100
AcDbVisualStyle
  2
Brighten
 70
    12
 71
     2
 72
     2
 73
     0
 90
        0
 40
-0.6
 41
-30.0
 62
     5
 63
     7
 74
     1
 91
        4
 64
     7
 65
   257
 75
     1
175
     1
 42
1.0
 92
        8
 66
     7
 43
1.0
 76
     1
 77
     6
 78
     2
 67
     7
 79
     5
170
     0
171
     0
290
     0
174
     0
 93
        1
 44
50.0
173
     0
291
     1
 45
0.0
1001
ACAD
1000
AcDbSavedByObjectVersion
1070
     0
  0
VISUALSTYLE
  5
121C7
102
{ACAD_XDICTIONARY
360
1222F
102
}
102
{ACAD_REACTORS
330
121B7
102
}
330
121B7
100
AcDbVisualStyle
  2
ColorChange
 70
    16
 71
     2
 72
     2
 73
     3
 90
        0
 40
-0.6
 41
-30.0
 62
     5
 63
     8
 74
     1
 91
        4
 64
     7
 65
   257
 75
     1
175
     1
 42
1.0
 92
        8
 66
     8
 43
1.0
 76
     1
 77
     6
 78
     2
 67
     7
 79
     5
170
     0
171
     0
290
     0
174
     0
 93
        1
 44
0.0
173
     0
291
     1
 45
0.0
1001
ACAD
1000
AcDbSavedByObjectVersion
1070
     0
  0
VISUALSTYLE
  5
121C0
102
{ACAD_XDICTIONARY
360
12221
102
}
102
{ACAD_REACTORS
330
121B7
102
}
330
121B7
100
AcDbVisualStyle
  2
Conceptual
 70
     9
 71
     3
 72
     2
 73
     0
 90
        0
 40
-0.6
 41
-30.0
 62
     5
 63
     7
 74
     2
 91
        2
 64
     7
 65
   257
 75
     1
175
     1
 42
179.0
 92
        8
 66
     7
 43
1.0
 76
     1
 77
     6
 78
     2
 67
     7
 79
     3
170
     0
171
     0
290
     0
174
     0
 93
        1
 44
0.0
173
     0
291
     0
 45
0.0
1001
ACAD
1000
AcDbSavedByObjectVersion
1070
     0
  0
VISUALSTYLE
  5
121C2
102
{ACAD_XDICTIONARY
360
12225
102
}
102
{ACAD_REACTORS
330
121B7
102
}
330
121B7
100
AcDbVisualStyle
  2
Dim
 70
    11
 71
     2
 72
     2
 73
     0
 90
        0
 40
-0.6
 41
-30.0
 62
     5
 63
     7
 74
     1
 91
        4
 64
     7
 65
   257
 75
     1
175
     1
 42
1.0
 92
        8
 66
     7
 43
1.0
 76
     1
 77
     6
 78
     2
 67
     7
 79
     5
170
     0
171
     0
290
     0
174
     0
 93
        1
 44
-50.0
173
     0
291
     1
 45
0.0
1001
ACAD
1000
AcDbSavedByObjectVersion
1070
     0
  0
VISUALSTYLE
  5
121CF
102
{ACAD_XDICTIONARY
360
1223F
102
}
102
{ACAD_REACTORS
330
121B7
102
}
330
121B7
100
AcDbVisualStyle
  2
EdgeColorOff
 70
    22
 71
     2
 72
     2
 73
     0
 90
        0
 40
-0.6
 41
-30.0
 62
     5
 63
     7
 74
     1
 91
        4
 64
     7
 65
   257
 75
     1
175
     1
 42
1.0
 92
        8
 66
     7
 43
1.0
 76
     1
 77
     6
 78
     2
 67
     7
 79
     5
170
     0
171
     0
290
     0
174
     0
 93
        1
 44
0.0
173
     0
291
     1
 45
0.0
1001
ACAD
1000
AcDbSavedByObjectVersion
1070
     0
  0
VISUALSTYLE
  5
121C6
102
{ACAD_XDICTIONARY
360
1222D
102
}
102
{ACAD_REACTORS
330
121B7
102
}
330
121B7
100
AcDbVisualStyle
  2
Facepattern
 70
    15
 71
     2
 72
     2
 73
     0
 90
        0
 40
-0.6
 41
-30.0
 62
     5
 63
     7
 74
     1
 91
        4
 64
     7
 65
   257
 75
     1
175
     1
 42
1.0
 92
        8
 66
     7
 43
1.0
 76
     1
 77
     6
 78
     2
 67
     7
 79
     5
170
     0
171
     0
290
     0
174
     0
 93
        1
 44
0.0
173
     0
291
     1
 45
0.0
1001
ACAD
1000
AcDbSavedByObjectVersion
1070
     0
  0
VISUALSTYLE
  5
121B8
102
{ACAD_XDICTIONARY
360
12211
102
}
102
{ACAD_REACTORS
330
121B7
102
}
330
121B7
100
AcDbVisualStyle
  2
Flat
 70
     0
 71
     2
 72
     1
 73
     1
 90
        2
 40
-0.6
 41
30.0
 62
     5
 63
     7
 74
     0
 91
        0
 64
     7
 65
   257
 75
     1
175
     1
 42
1.0
 92
        8
 66
     7
 43
1.0
 76
     1
 77
     6
 78
     2
 67
     7
 79
     5
170
     0
171
     0
290
     0
174
     0
 93
       13
 44
0.0
173
     0
291
     1
 45
0.0
1001
ACAD
1000
AcDbSavedByObjectVersion
1070
     0
  0
VISUALSTYLE
  5
121B9
102
{ACAD_XDICTIONARY
360
12213
102
}
102
{ACAD_REACTORS
330
121B7
102
}
330
121B7
100
AcDbVisualStyle
  2
FlatWithEdges
 70
     1
 71
     2
 72
     1
 73
     1
 90
        2
 40
-0.6
 41
30.0
 62
     5
 63
     7
 74
     1
 91
        0
 64
     7
 65
   257
 75
     1
175
     1
 42
1.0
 92
        0
 66
   257
 43
1.0
 76
     1
 77
     6
 78
     2
 67
     7
 79
     5
170
     0
171
     0
290
     0
174
     0
 93
       13
 44
0.0
173
     0
291
     1
 45
0.0
1001
ACAD
1000
AcDbSavedByObjectVersion
1070
     0
  0
VISUALSTYLE
  5
121BA
102
{ACAD_XDICTIONARY
360
12215
102
}
102
{ACAD_REACTORS
330
121B7
102
}
330
121B7
100
AcDbVisualStyle
  2
Gouraud
 70
     2
 71
     2
 72
     2
 73
     1
 90
        2
 40
-0.6
 41
30.0
 62
     5
 63
     7
 74
     0
 91
        0
 64
     7
 65
   257
 75
     1
175
     1
 42
1.0
 92
        0
 66
     7
 43
1.0
 76
     1
 77
     6
 78
     2
 67
     7
 79
     5
170
     0
171
     0
290
     0
174
     0
 93
       13
 44
0.0
173
     0
291
     1
 45
0.0
1001
ACAD
1000
AcDbSavedByObjectVersion
1070
     0
  0
VISUALSTYLE
  5
121BB
102
{ACAD_XDICTIONARY
360
12217
102
}
102
{ACAD_REACTORS
330
121B7
102
}
330
121B7
100
AcDbVisualStyle
  2
GouraudWithEdges
 70
     3
 71
     2
 72
     2
 73
     1
 90
        2
 40
-0.6
 41
30.0
 62
     5
 63
     7
 74
     1
 91
        0
 64
     7
 65
   257
 75
     1
175
     1
 42
1.0
 92
        0
 66
   257
 43
1.0
 76
     1
 77
     6
 78
     2
 67
     7
 79
     5
170
     0
171
     0
290
     0
174
     0
 93
       13
 44
0.0
173
     0
291
     1
 45
0.0
1001
ACAD
1000
AcDbSavedByObjectVersion
1070
     0
  0
VISUALSTYLE
  5
121BF
102
{ACAD_XDICTIONARY
360
1221F
102
}
102
{ACAD_REACTORS
330
121B7
102
}
330
121B7
100
AcDbVisualStyle
  2
Hidden
 70
     6
 71
     1
 72
     2
 73
     2
 90
        0
 40
-0.6
 41
-30.0
 62
     5
 63
     7
 74
     2
 91
        2
 64
     7
 65
   257
 75
     2
175
     1
 42
40.0
 92
        0
 66
   257
 43
1.0
 76
     1
 77
     6
 78
     2
 67
     7
 79
     3
170
     0
171
     0
290
     0
174
     0
 93
        1
 44
0.0
173
     0
291
     0
 45
0.0
1001
ACAD
1000
AcDbSavedByObjectVersion
1070
     0
  0
VISUALSTYLE
  5
121CD
102
{ACAD_XDICTIONARY
360
1223B
102
}
102
{ACAD_REACTORS
330
121B7
102
}
330
121B7
100
AcDbVisualStyle
  2
JitterOff
 70
    20
 71
     2
 72
     2
 73
     0
 90
        0
 40
-0.6
 41
-30.0
 62
     5
 63
     7
 74
     1
 91
        4
 64
     7
 65
   257
 75
     1
175
     1
 42
1.0
 92
       10
 66
     7
 43
1.0
 76
     1
 77
     6
 78
     2
 67
     7
 79
     5
170
     0
171
     0
290
     0
174
     0
 93
        1
 44
0.0
173
     0
291
     1
 45
0.0
1001
ACAD
1000
AcDbSavedByObjectVersion
1070
     0
  0
VISUALSTYLE
  5
121C5
102
{ACAD_XDICTIONARY
360
1222B
102
}
102
{ACAD_REACTORS
330
121B7
102
}
330
121B7
100
AcDbVisualStyle
  2
Linepattern
 70
    14
 71
     2
 72
     2
 73
     0
 90
        0
 40
-0.6
 41
-30.0
 62
     5
 63
     7
 74
     1
 91
        4
 64
     7
 65
   257
 75
     7
175
     7
 42
1.0
 92
        8
 66
     7
 43
1.0
 76
     1
 77
     6
 78
     2
 67
     7
 79
     5
170
     0
171
     0
290
     0
174
     0
 93
        1
 44
0.0
173
     0
291
     1
 45
0.0
1001
ACAD
1000
AcDbSavedByObjectVersion
1070
     0
  0
VISUALSTYLE
  5
121CE
102
{ACAD_XDICTIONARY
360
1223D
102
}
102
{ACAD_REACTORS
330
121B7
102
}
330
121B7
100
AcDbVisualStyle
  2
OverhangOff
 70
    21
 71
     2
 72
     2
 73
     0
 90
        0
 40
-0.6
 41
-30.0
 62
     5
 63
     7
 74
     1
 91
        4
 64
     7
 65
   257
 75
     1
175
     1
 42
1.0
 92
        9
 66
     7
 43
1.0
 76
     1
 77
     6
 78
     2
 67
     7
 79
     5
170
     0
171
     0
290
     0
174
     0
 93
        1
 44
0.0
173
     0
291
     1
 45
0.0
1001
ACAD
1000
AcDbSavedByObjectVersion
1070
     0
  0
VISUALSTYLE
  5
121C1
102
{ACAD_XDICTIONARY
360
12223
102
}
102
{ACAD_REACTORS
330
121B7
102
}
330
121B7
100
AcDbVisualStyle
  2
Realistic
 70
     8
 71
     2
 72
     3
 73
     0
 90
        2
 40
-0.6
 41
30.0
 62
     5
 63
     7
 74
     0
 91
        0
 64
     7
 65
   257
 75
     1
175
     1
 42
1.0
 92
        8
 66
   257
 43
1.0
 76
     1
 77
     6
 78
     2
 67
     7
 79
     3
170
     0
171
     0
290
     0
174
     0
 93
       13
 44
0.0
173
     0
291
     0
 45
0.0
1001
ACAD
1000
AcDbSavedByObjectVersion
1070
     0
  0
VISUALSTYLE
  5
121CC
102
{ACAD_XDICTIONARY
360
12239
102
}
102
{ACAD_REACTORS
330
121B7
102
}
330
121B7
100
AcDbVisualStyle
  2
Shaded
 70
    27
 71
     2
 72
     2
 73
     1
 90
        2
 40
-0.6
 41
30.0
 62
     5
 63
     7
 74
     0
 91
        4
 64
     7
 65
   257
 75
     1
175
     1
 42
1.0
 92
        8
 66
   257
 43
1.0
 76
     1
 77
     6
 78
     2
 67
     8
 79
     3
170
     0
171
     0
290
     0
174
     0
 93
        5
 44
0.0
173
     0
291
     0
 45
0.0
1001
ACAD
1000
AcDbSavedByObjectVersion
1070
     0
  0
VISUALSTYLE
  5
121CB
102
{ACAD_XDICTIONARY
360
12237
102
}
102
{ACAD_REACTORS
330
121B7
102
}
330
121B7
100
AcDbVisualStyle
  2
Shaded with edges
 70
    26
 71
     2
 72
     2
 73
     1
 90
        2
 40
-0.6
 41
30.0
 62
     5
 63
     7
 74
     1
 91
       10
 64
     7
 65
   257
 75
     2
175
     1
 42
1.0
 92
        8
 66
   257
 43
1.0
 76
     1
 77
     6
 78
     2
 67
     7
 79
     3
170
     0
171
     0
290
     0
174
     0
 93
        5
 44
0.0
173
     0
291
     0
 45
0.0
1001
ACAD
1000
AcDbSavedByObjectVersion
1070
     0
  0
VISUALSTYLE
  5
121C8
102
{ACAD_XDICTIONARY
360
12231
102
}
102
{ACAD_REACTORS
330
121B7
102
}
330
121B7
100
AcDbVisualStyle
  2
Shades of Gray
 70
    23
 71
     2
 72
     2
 73
     3
 90
        0
 40
-0.6
 41
-30.0
 62
     5
 63
     7
 74
     2
 91
        2
 64
     7
 65
     7
 75
     1
175
     1
 42
40.0
 92
        8
 66
     7
 43
1.0
 76
     1
 77
     6
 78
     2
 67
     7
 79
     3
170
     0
171
     0
290
     0
174
     0
 93
        1
 44
0.0
173
     0
291
     0
 45
0.0
1001
ACAD
1000
AcDbSavedByObjectVersion
1070
     0
  0
VISUALSTYLE
  5
121C9
102
{ACAD_XDICTIONARY
360
12233
102
}
102
{ACAD_REACTORS
330
121B7
102
}
330
121B7
100
AcDbVisualStyle
  2
Sketchy
 70
    24
 71
     1
 72
     2
 73
     2
 90
        0
 40
-0.6
 41
-30.0
 62
     5
 63
     7
 74
     2
 91
        2
 64
     7
 65
     7
 75
     1
175
     1
 42
40.0
 92
       11
 66
     7
 43
1.0
 76
     1
 77
     6
 78
     2
 67
     7
 79
     6
170
     0
171
     0
290
     0
174
     0
 93
        1
 44
0.0
173
     0
291
     0
 45
0.0
1001
ACAD
1000
AcDbSavedByObjectVersion
1070
     0
  0
VISUALSTYLE
  5
121C4
102
{ACAD_XDICTIONARY
360
12229
102
}
102
{ACAD_REACTORS
330
121B7
102
}
330
121B7
100
AcDbVisualStyle
  2
Thicken
 70
    13
 71
     2
 72
     2
 73
     0
 90
        0
 40
-0.6
 41
-30.0
 62
     5
 63
     7
 74
     1
 91
        4
 64
     7
 65
   257
 75
     1
175
     1
 42
1.0
 92
       12
 66
     7
 43
1.0
 76
     1
 77
     6
 78
     2
 67
     7
 79
     5
170
     0
171
     0
290
     0
174
     0
 93
        1
 44
0.0
173
     0
291
     1
 45
0.0
1001
ACAD
1000
AcDbSavedByObjectVersion
1070
     0
  0
VISUALSTYLE
  5
121BE
102
{ACAD_XDICTIONARY
360
1221D
102
}
102
{ACAD_REACTORS
330
121B7
102
}
330
121B7
100
AcDbVisualStyle
  2
Wireframe
 70
     5
 71
     0
 72
     2
 73
     0
 90
        0
 40
-0.6
 41
-30.0
 62
     5
 63
     7
 74
     1
 91
        4
 64
     7
 65
   257
 75
     1
175
     1
 42
1.0
 92
        0
 66
   257
 43
1.0
 76
     1
 77
     6
 78
     2
 67
     7
 79
     3
170
     0
171
     0
290
     0
174
     0
 93
        1
 44
0.0
173
     0
291
     0
 45
0.0
1001
ACAD
1000
AcDbSavedByObjectVersion
1070
     0
  0
VISUALSTYLE
  5
121CA
102
{ACAD_XDICTIONARY
360
12235
102
}
102
{ACAD_REACTORS
330
121B7
102
}
330
121B7
100
AcDbVisualStyle
  2
X-Ray
 70
    25
 71
     2
 72
     2
 73
     1
 90
        1
 40
0.5
 41
-30.0
 62
     5
 63
     7
 74
     1
 91
        0
 64
     7
 65
   257
 75
     1
175
     1
 42
1.0
 92
        8
 66
     7
 43
1.0
 76
     1
 77
     6
 78
     2
 67
     7
 79
     3
170
     0
171
     0
290
     0
174
     0
 93
       13
 44
0.0
173
     0
291
     0
 45
0.0
1001
ACAD
1000
AcDbSavedByObjectVersion
1070
     0
  0
DICTIONARYVAR
  5
12204
102
{ACAD_REACTORS
330
121FF
102
}
330
121FF
100
DictionaryVariables
280
     0
  1
1:1
  0
DICTIONARYVAR
  5
12201
102
{ACAD_REACTORS
330
121FF
102
}
330
121FF
100
DictionaryVariables
280
     0
  1
STANDARD
  0
DICTIONARYVAR
  5
12200
102
{ACAD_REACTORS
330
121FF
102
}
330
121FF
100
DictionaryVariables
280
     0
  1
STANDARD
  0
DICTIONARYVAR
  5
12202
102
{ACAD_REACTORS
330
121FF
102
}
330
121FF
100
DictionaryVariables
280
     0
  1
Imperial24
  0
DICTIONARYVAR
  5
12203
102
{ACAD_REACTORS
330
121FF
102
}
330
121FF
100
DictionaryVariables
280
     0
  1
Imperial24
  0
DICTIONARYVAR
  5
12207
102
{ACAD_REACTORS
330
121FF
102
}
330
121FF
100
DictionaryVariables
280
     0
  1
1
  0
DICTIONARYVAR
  5
12206
102
{ACAD_REACTORS
330
121FF
102
}
330
121FF
100
DictionaryVariables
280
     0
  1
0
  0
DICTIONARYVAR
  5
12205
102
{ACAD_REACTORS
330
121FF
102
}
330
121FF
100
DictionaryVariables
280
     0
  1
127
  0
DICTIONARYVAR
  5
12208
102
{ACAD_REACTORS
330
121FF
102
}
330
121FF
100
DictionaryVariables
280
     0
  1
2
  0
DICTIONARY
  5
12245
330
121EA
100
AcDbDictionary
280
     1
281
     1
  3
ACAD_XREC_ROUNDTRIP
360
12246
  0
DICTIONARY
  5
12247
330
121EB
100
AcDbDictionary
280
     1
281
     1
  3
ACAD_XREC_ROUNDTRIP
360
12248
  0
DICTIONARY
  5
12249
330
121EC
100
AcDbDictionary
280
     1
281
     1
  3
ACAD_XREC_ROUNDTRIP
360
1224A
  0
DICTIONARY
  5
121A8
330
121A7
100
AcDbDictionary
280
     1
281
     1
  3
ACAD_XREC_ROUNDTRIP
360
1220F
  3
BUMPTILE
360
121AA
  3
DIFFUSETILE
360
121A9
  3
OPACITYTILE
360
121AD
  3
REFLECTIONTILE
360
121AC
  3
REFRACTIONTILE
360
121AE
  3
SPECULARTILE
360
121AB
  0
DICTIONARY
  5
121A0
330
1219F
100
AcDbDictionary
280
     1
281
     1
  3
ACAD_XREC_ROUNDTRIP
360
1220E
  3
BUMPTILE
360
121A2
  3
DIFFUSETILE
360
121A1
  3
OPACITYTILE
360
121A5
  3
REFLECTIONTILE
360
121A4
  3
REFRACTIONTILE
360
121A6
  3
SPECULARTILE
360
121A3
  0
DICTIONARY
  5
121B0
330
121AF
100
AcDbDictionary
280
     1
281
     1
  3
ACAD_XREC_ROUNDTRIP
360
12210
  3
BUMPTILE
360
121B2
  3
DIFFUSETILE
360
121B1
  3
OPACITYTILE
360
121B5
  3
REFLECTIONTILE
360
121B4
  3
REFRACTIONTILE
360
121B6
  3
SPECULARTILE
360
121B3
  0
DICTIONARY
  5
12243
330
121E8
100
AcDbDictionary
280
     1
281
     1
  3
ACAD_XREC_ROUNDTRIP
360
12244
  0
DICTIONARY
  5
1220A
330
121D2
100
AcDbDictionary
280
     1
281
     1
  3
ACAD_ROUNDTRIP_2008_TABLESTYLE_CELLSTYLEMAP
360
1220B
  3
ACAD_XREC_ROUNDTRIP
360
12241
  0
DICTIONARY
  5
1221B
330
121BD
100
AcDbDictionary
280
     1
281
     1
  3
ACAD_XREC_ROUNDTRIP
360
1221C
  0
DICTIONARY
  5
12219
330
121BC
100
AcDbDictionary
280
     1
281
     1
  3
ACAD_XREC_ROUNDTRIP
360
1221A
  0
DICTIONARY
  5
12227
330
121C3
100
AcDbDictionary
280
     1
281
     1
  3
ACAD_XREC_ROUNDTRIP
360
12228
  0
DICTIONARY
  5
1222F
330
121C7
100
AcDbDictionary
280
     1
281
     1
  3
ACAD_XREC_ROUNDTRIP
360
12230
  0
DICTIONARY
  5
12221
330
121C0
100
AcDbDictionary
280
     1
281
     1
  3
ACAD_XREC_ROUNDTRIP
360
12222
  0
DICTIONARY
  5
12225
330
121C2
100
AcDbDictionary
280
     1
281
     1
  3
ACAD_XREC_ROUNDTRIP
360
12226
  0
DICTIONARY
  5
1223F
330
121CF
100
AcDbDictionary
280
     1
281
     1
  3
ACAD_XREC_ROUNDTRIP
360
12240
  0
DICTIONARY
  5
1222D
330
121C6
100
AcDbDictionary
280
     1
281
     1
  3
ACAD_XREC_ROUNDTRIP
360
1222E
  0
DICTIONARY
  5
12211
330
121B8
100
AcDbDictionary
280
     1
281
     1
  3
ACAD_XREC_ROUNDTRIP
360
12212
  0
DICTIONARY
  5
12213
330
121B9
100
AcDbDictionary
280
     1
281
     1
  3
ACAD_XREC_ROUNDTRIP
360
12214
  0
DICTIONARY
  5
12215
330
121BA
100
AcDbDictionary
280
     1
281
     1
  3
ACAD_XREC_ROUNDTRIP
360
12216
  0
DICTIONARY
  5
12217
330
121BB
100
AcDbDictionary
280
     1
281
     1
  3
ACAD_XREC_ROUNDTRIP
360
12218
  0
DICTIONARY
  5
1221F
330
121BF
100
AcDbDictionary
280
     1
281
     1
  3
ACAD_XREC_ROUNDTRIP
360
12220
  0
DICTIONARY
  5
1223B
330
121CD
100
AcDbDictionary
280
     1
281
     1
  3
ACAD_XREC_ROUNDTRIP
360
1223C
  0
DICTIONARY
  5
1222B
330
121C5
100
AcDbDictionary
280
     1
281
     1
  3
ACAD_XREC_ROUNDTRIP
360
1222C
  0
DICTIONARY
  5
1223D
330
121CE
100
AcDbDictionary
280
     1
281
     1
  3
ACAD_XREC_ROUNDTRIP
360
1223E
  0
DICTIONARY
  5
12223
330
121C1
100
AcDbDictionary
280
     1
281
     1
  3
ACAD_XREC_ROUNDTRIP
360
12224
  0
DICTIONARY
  5
12239
330
121CC
100
AcDbDictionary
280
     1
281
     1
  3
ACAD_XREC_ROUNDTRIP
360
1223A
  0
DICTIONARY
  5
12237
330
121CB
100
AcDbDictionary
280
     1
281
     1
  3
ACAD_XREC_ROUNDTRIP
360
12238
  0
DICTIONARY
  5
12231
330
121C8
100
AcDbDictionary
280
     1
281
     1
  3
ACAD_XREC_ROUNDTRIP
360
12232
  0
DICTIONARY
  5
12233
330
121C9
100
AcDbDictionary
280
     1
281
     1
  3
ACAD_XREC_ROUNDTRIP
360
12234
  0
DICTIONARY
  5
12229
330
121C4
100
AcDbDictionary
280
     1
281
     1
  3
ACAD_XREC_ROUNDTRIP
360
1222A
  0
DICTIONARY
  5
1221D
330
121BE
100
AcDbDictionary
280
     1
281
     1
  3
ACAD_XREC_ROUNDTRIP
360
1221E
  0
DICTIONARY
  5
12235
330
121CA
100
AcDbDictionary
280
     1
281
     1
  3
ACAD_XREC_ROUNDTRIP
360
12236
  0
XRECORD
  5
12246
102
{ACAD_REACTORS
330
12245
102
}
330
12245
100
AcDbXrecord
280
     1
102
DISPLAYNAME
  1
Imperial24
102
FLAGS
 90
        0
  0
XRECORD
  5
12248
102
{ACAD_REACTORS
330
12247
102
}
330
12247
100
AcDbXrecord
280
     1
102
SHADEPLOT
 70
     0
102
SHADEPLOTRESLEVEL
 70
     2
102
SHADEPLOTCUSTOMDPI
 70
   300
  0
XRECORD
  5
1224A
102
{ACAD_REACTORS
330
12249
102
}
330
12249
100
AcDbXrecord
280
     1
102
SHADEPLOT
 70
     0
102
SHADEPLOTRESLEVEL
 70
     2
102
SHADEPLOTCUSTOMDPI
 70
   300
  0
XRECORD
  5
1220F
102
{ACAD_REACTORS
330
121A8
102
}
330
121A8
100
AcDbXrecord
280
     1
102
MATERIAL
148
0.0
149
0.0
149
0.0
 93
        0
 94
      127
282
     0
 72
     0
 77
     0
171
     0
175
     0
179
     0
273
     0
  0
XRECORD
  5
121AA
102
{ACAD_REACTORS
330
121A8
102
}
330
121A8
100
AcDbXrecord
280
     1
270
     1
271
     1
  0
XRECORD
  5
121A9
102
{ACAD_REACTORS
330
121A8
102
}
330
121A8
100
AcDbXrecord
280
     1
270
     1
271
     1
  0
XRECORD
  5
121AD
102
{ACAD_REACTORS
330
121A8
102
}
330
121A8
100
AcDbXrecord
280
     1
270
     1
271
     1
  0
XRECORD
  5
121AC
102
{ACAD_REACTORS
330
121A8
102
}
330
121A8
100
AcDbXrecord
280
     1
270
     1
271
     1
  0
XRECORD
  5
121AE
102
{ACAD_REACTORS
330
121A8
102
}
330
121A8
100
AcDbXrecord
280
     1
270
     1
271
     1
  0
XRECORD
  5
121AB
102
{ACAD_REACTORS
330
121A8
102
}
330
121A8
100
AcDbXrecord
280
     1
270
     1
271
     1
  0
XRECORD
  5
1220E
102
{ACAD_REACTORS
330
121A0
102
}
330
121A0
100
AcDbXrecord
280
     1
102
MATERIAL
148
0.0
149
0.0
149
0.0
 93
        0
 94
      127
282
     0
 72
     0
 77
     0
171
     0
175
     0
179
     0
273
     0
  0
XRECORD
  5
121A2
102
{ACAD_REACTORS
330
121A0
102
}
330
121A0
100
AcDbXrecord
280
     1
270
     1
271
     1
  0
XRECORD
  5
121A1
102
{ACAD_REACTORS
330
121A0
102
}
330
121A0
100
AcDbXrecord
280
     1
270
     1
271
     1
  0
XRECORD
  5
121A5
102
{ACAD_REACTORS
330
121A0
102
}
330
121A0
100
AcDbXrecord
280
     1
270
     1
271
     1
  0
XRECORD
  5
121A4
102
{ACAD_REACTORS
330
121A0
102
}
330
121A0
100
AcDbXrecord
280
     1
270
     1
271
     1
  0
XRECORD
  5
121A6
102
{ACAD_REACTORS
330
121A0
102
}
330
121A0
100
AcDbXrecord
280
     1
270
     1
271
     1
  0
XRECORD
  5
121A3
102
{ACAD_REACTORS
330
121A0
102
}
330
121A0
100
AcDbXrecord
280
     1
270
     1
271
     1
  0
XRECORD
  5
12210
102
{ACAD_REACTORS
330
121B0
102
}
330
121B0
100
AcDbXrecord
280
     1
102
MATERIAL
148
0.0
149
0.0
149
0.0
 93
        0
 94
      127
282
     0
 72
     0
 77
     0
171
     0
175
     0
179
     0
273
     0
  0
XRECORD
  5
121B2
102
{ACAD_REACTORS
330
121B0
102
}
330
121B0
100
AcDbXrecord
280
     1
270
     1
271
     1
  0
XRECORD
  5
121B1
102
{ACAD_REACTORS
330
121B0
102
}
330
121B0
100
AcDbXrecord
280
     1
270
     1
271
     1
  0
XRECORD
  5
121B5
102
{ACAD_REACTORS
330
121B0
102
}
330
121B0
100
AcDbXrecord
280
     1
270
     1
271
     1
  0
XRECORD
  5
121B4
102
{ACAD_REACTORS
330
121B0
102
}
330
121B0
100
AcDbXrecord
280
     1
270
     1
271
     1
  0
XRECORD
  5
121B6
102
{ACAD_REACTORS
330
121B0
102
}
330
121B0
100
AcDbXrecord
280
     1
270
     1
271
     1
  0
XRECORD
  5
121B3
102
{ACAD_REACTORS
330
121B0
102
}
330
121B0
100
AcDbXrecord
280
     1
270
     1
271
     1
  0
XRECORD
  5
12244
102
{ACAD_REACTORS
330
12243
102
}
330
12243
100
AcDbXrecord
280
     1
102
DISPLAYNAME
  1
Imperial24
102
FLAGS
 90
        0
  0
CELLSTYLEMAP
  5
1220B
102
{ACAD_REACTORS
330
1220A
102
}
330
1220A
100
AcDbCellStyleMap
 90
        3
300
CELLSTYLE
  1
TABLEFORMAT_BEGIN
 90
        5
170
     1
 91
        0
 92
    32768
 62
   257
 93
        1
300
CONTENTFORMAT
  1
CONTENTFORMAT_BEGIN
 90
        0
 91
        0
 92
      512
 93
        0
300

 40
0.0
140
1.0
 94
        5
 62
     0
340
11E11
144
0.25
309
CONTENTFORMAT_END
171
     0
 94
        0
309
TABLEFORMAT_END
  1
CELLSTYLE_BEGIN
 90
        1
 91
        1
300
_TITLE
309
CELLSTYLE_END
300
CELLSTYLE
  1
TABLEFORMAT_BEGIN
 90
        5
170
     1
 91
        0
 92
        0
 62
   257
 93
        1
300
CONTENTFORMAT
  1
CONTENTFORMAT_BEGIN
 90
        0
 91
        0
 92
      512
 93
        0
300

 40
0.0
140
1.0
 94
        5
 62
     0
340
11E11
144
0.18
309
CONTENTFORMAT_END
171
     0
 94
        0
309
TABLEFORMAT_END
  1
CELLSTYLE_BEGIN
 90
        2
 91
        1
300
_HEADER
309
CELLSTYLE_END
300
CELLSTYLE
  1
TABLEFORMAT_BEGIN
 90
        5
170
     1
 91
        0
 92
        0
 62
   257
 93
        1
300
CONTENTFORMAT
  1
CONTENTFORMAT_BEGIN
 90
        0
 91
        0
 92
      512
 93
        0
300

 40
0.0
140
1.0
 94
        2
 62
     0
340
11E11
144
0.18
309
CONTENTFORMAT_END
171
     0
 94
        0
309
TABLEFORMAT_END
  1
CELLSTYLE_BEGIN
 90
        3
 91
        2
300
_DATA
309
CELLSTYLE_END
  0
XRECORD
  5
12241
102
{ACAD_REACTORS
330
1220A
102
}
330
1220A
100
AcDbXrecord
280
     1
102
ACAD_ROUNDTRIP_PRE2007_TABLESTYLE
 90
      512
 91
        0
  1

 92
      512
 93
        0
  2

 94
      512
 95
        0
  3

  0
XRECORD
  5
1221C
102
{ACAD_REACTORS
330
1221B
102
}
330
1221B
100
AcDbXrecord
280
     1
102
RTVSPost2010Prop28
280
     1
102
RTVSPost2010PropOp28
 70
     1
102
RTVSPost2010Prop29
280
     1
102
RTVSPost2010PropOp29
 70
     1
102
RTVSPost2010Prop30
280
     0
102
RTVSPost2010PropOp30
 70
     1
102
RTVSPost2010Prop31
280
     0
102
RTVSPost2010PropOp31
 70
     1
102
RTVSPost2010Prop32
280
     0
102
RTVSPost2010PropOp32
 70
     1
102
RTVSPost2010Prop33
280
     0
102
RTVSPost2010PropOp33
 70
     1
102
RTVSPost2010Prop34
280
     0
102
RTVSPost2010PropOp34
 70
     1
102
RTVSPost2010Prop35
280
     0
102
RTVSPost2010PropOp35
 70
     1
102
RTVSPost2010Prop36
280
     0
102
RTVSPost2010PropOp36
 70
     1
102
RTVSPost2010Prop37
 90
       50
102
RTVSPost2010PropOp37
 70
     1
102
RTVSPost2010Prop38
140
0.0
102
RTVSPost2010PropOp38
 70
     1
102
RTVSPost2010Prop39
140
1.0
102
RTVSPost2010PropOp39
 70
     1
102
RTVSPost2010Prop40
 90
        0
102
RTVSPost2010PropOp40
 70
     1
102
RTVSPost2010Prop41ColorIndex
 90
       18
102
RTVSPost2010Prop41ColorRGB
 90
        0
102
RTVSPost2010PropOp41
 70
     1
102
RTVSPost2010Prop42
 90
       50
102
RTVSPost2010PropOp42
 70
     1
102
RTVSPost2010Prop43
 90
        3
102
RTVSPost2010PropOp43
 70
     1
102
RTVSPost2010Prop44ColorIndex
 90
        5
102
RTVSPost2010Prop44ColorRGB
 90
      255
102
RTVSPost2010PropOp44
 70
     1
102
RTVSPost2010Prop45
280
     0
102
RTVSPost2010PropOp45
 70
     1
102
RTVSPost2010Prop46
 90
       50
102
RTVSPost2010PropOp46
 70
     1
102
RTVSPost2010Prop47
 90
       50
102
RTVSPost2010PropOp47
 70
     1
102
RTVSPost2010Prop48
 90
       50
102
RTVSPost2010PropOp48
 70
     1
102
RTVSPost2010Prop49
280
     0
102
RTVSPost2010PropOp49
 70
     1
102
RTVSPost2010Prop50
 90
       50
102
RTVSPost2010PropOp50
 70
     1
102
RTVSPost2010Prop51ColorIndex
 90
      256
102
RTVSPost2010Prop51ColorRGB
 90
-16777216
102
RTVSPost2010PropOp51
 70
     0
102
RTVSPost2010Prop52
140
1.0
102
RTVSPost2010PropOp52
 70
     0
102
RTVSPost2010Prop53
 90
        2
102
RTVSPost2010PropOp53
 70
     1
102
RTVSPost2010Prop54
  1
strokes_ogs.tif
102
RTVSPost2010PropOp54
 70
     1
102
RTVSPost2010Prop55
280
     0
102
RTVSPost2010PropOp55
 70
     1
102
RTVSPost2010Prop56
140
1.0
102
RTVSPost2010PropOp56
 70
     1
102
RTVSPost2010Prop57
140
1.0
102
RTVSPost2010PropOp57
 70
     1
102
RTVSPropertyOp0
 70
     1
102
RTVSPropertyOp1
 70
     1
102
RTVSPropertyOp2
 70
     1
102
RTVSPropertyOp3
 70
     1
102
RTVSPropertyOp4
 70
     1
102
RTVSPropertyOp5
 70
     1
102
RTVSPropertyOp6
 70
     1
102
RTVSPropertyOp7
 70
     1
102
RTVSPropertyOp8
 70
     1
102
RTVSPropertyOp9
 70
     1
102
RTVSPropertyOp10
 70
     1
102
RTVSPropertyOp11
 70
     1
102
RTVSPropertyOp12
 70
     1
102
RTVSPropertyOp13
 70
     1
102
RTVSPropertyOp14
 70
     1
102
RTVSPropertyOp15
 70
     1
102
RTVSPropertyOp16
 70
     1
102
RTVSPropertyOp17
 70
     1
102
RTVSPropertyOp18
 70
     1
102
RTVSPropertyOp19
 70
     1
102
RTVSPropertyOp20
 70
     1
102
RTVSPropertyOp21
 70
     1
102
RTVSPropertyOp22
 70
     1
102
RTVSPropertyOp23
 70
     1
102
RTVSPropertyOp24
 70
     1
102
RTVSPropertyOp25
 70
     1
102
RTVSPropertyOp26
 70
     1
102
RTVSPropertyOp27
 70
     1
102
RTVSPropertyOp28
 70
     1
102
RTVSPropertyOp29
 70
     1
102
RTVSPropertyOp30
 70
     1
102
RTVSPropertyOp31
 70
     1
102
RTVSPropertyOp32
 70
     1
102
RTVSPropertyOp33
 70
     1
102
RTVSPropertyOp34
 70
     1
102
RTVSPropertyOp35
 70
     1
102
RTVSPropertyOp36
 70
     1
102
RTVSPropertyOp37
 70
     1
102
RTVSPropertyOp38
 70
     1
102
RTVSPropertyOp39
 70
     1
102
RTVSPropertyOp40
 70
     1
102
RTVSPropertyOp41
 70
     1
102
RTVSPropertyOp42
 70
     1
102
RTVSPropertyOp43
 70
     1
102
RTVSPropertyOp44
 70
     1
102
RTVSPropertyOp45
 70
     1
102
RTVSPropertyOp46
 70
     1
102
RTVSPropertyOp47
 70
     1
102
RTVSPropertyOp48
 70
     1
102
RTVSPropertyOp49
 70
     1
102
RTVSPropertyOp50
 70
     1
102
RTVSPropertyOp51
 70
     0
102
RTVSPropertyOp52
 70
     0
102
RTVSPropertyOp53
 70
     1
102
RTVSPropertyOp54
 70
     1
102
RTVSPropertyOp55
 70
     1
102
RTVSPropertyOp56
 70
     1
102
RTVSPropertyOp57
 70
     1
102
RTVSPropertyOp58
 70
     1
102
RTVSPropertyOp59
 70
     1
102
RTVSPropertyOp60
 70
     1
102
RTVSPropertyOp61
 70
     1
102
RTVSPropertyOp62
 70
     1
  0
XRECORD
  5
1221A
102
{ACAD_REACTORS
330
12219
102
}
330
12219
100
AcDbXrecord
280
     1
102
RTVSPost2010Prop28
280
     0
102
RTVSPost2010PropOp28
 70
     1
102
RTVSPost2010Prop29
280
     1
102
RTVSPost2010PropOp29
 70
     1
102
RTVSPost2010Prop30
280
     1
102
RTVSPost2010PropOp30
 70
     1
102
RTVSPost2010Prop31
280
     0
102
RTVSPost2010PropOp31
 70
     1
102
RTVSPost2010Prop32
280
     0
102
RTVSPost2010PropOp32
 70
     1
102
RTVSPost2010Prop33
280
     0
102
RTVSPost2010PropOp33
 70
     1
102
RTVSPost2010Prop34
280
     0
102
RTVSPost2010PropOp34
 70
     1
102
RTVSPost2010Prop35
280
     0
102
RTVSPost2010PropOp35
 70
     1
102
RTVSPost2010Prop36
280
     0
102
RTVSPost2010PropOp36
 70
     1
102
RTVSPost2010Prop37
 90
       50
102
RTVSPost2010PropOp37
 70
     1
102
RTVSPost2010Prop38
140
0.0
102
RTVSPost2010PropOp38
 70
     1
102
RTVSPost2010Prop39
140
1.0
102
RTVSPost2010PropOp39
 70
     1
102
RTVSPost2010Prop40
 90
        0
102
RTVSPost2010PropOp40
 70
     1
102
RTVSPost2010Prop41ColorIndex
 90
       18
102
RTVSPost2010Prop41ColorRGB
 90
        0
102
RTVSPost2010PropOp41
 70
     1
102
RTVSPost2010Prop42
 90
       50
102
RTVSPost2010PropOp42
 70
     1
102
RTVSPost2010Prop43
 90
        3
102
RTVSPost2010PropOp43
 70
     1
102
RTVSPost2010Prop44ColorIndex
 90
        5
102
RTVSPost2010Prop44ColorRGB
 90
      255
102
RTVSPost2010PropOp44
 70
     1
102
RTVSPost2010Prop45
280
     0
102
RTVSPost2010PropOp45
 70
     1
102
RTVSPost2010Prop46
 90
       50
102
RTVSPost2010PropOp46
 70
     1
102
RTVSPost2010Prop47
 90
       50
102
RTVSPost2010PropOp47
 70
     1
102
RTVSPost2010Prop48
 90
       50
102
RTVSPost2010PropOp48
 70
     1
102
RTVSPost2010Prop49
280
     0
102
RTVSPost2010PropOp49
 70
     1
102
RTVSPost2010Prop50
 90
       50
102
RTVSPost2010PropOp50
 70
     1
102
RTVSPost2010Prop51ColorIndex
 90
      256
102
RTVSPost2010Prop51ColorRGB
 90
-16777216
102
RTVSPost2010PropOp51
 70
     0
102
RTVSPost2010Prop52
140
1.0
102
RTVSPost2010PropOp52
 70
     0
102
RTVSPost2010Prop53
 90
        2
102
RTVSPost2010PropOp53
 70
     1
102
RTVSPost2010Prop54
  1
strokes_ogs.tif
102
RTVSPost2010PropOp54
 70
     1
102
RTVSPost2010Prop55
280
     0
102
RTVSPost2010PropOp55
 70
     1
102
RTVSPost2010Prop56
140
1.0
102
RTVSPost2010PropOp56
 70
     1
102
RTVSPost2010Prop57
140
1.0
102
RTVSPost2010PropOp57
 70
     1
102
RTVSPropertyOp0
 70
     1
102
RTVSPropertyOp1
 70
     1
102
RTVSPropertyOp2
 70
     1
102
RTVSPropertyOp3
 70
     1
102
RTVSPropertyOp4
 70
     1
102
RTVSPropertyOp5
 70
     1
102
RTVSPropertyOp6
 70
     1
102
RTVSPropertyOp7
 70
     1
102
RTVSPropertyOp8
 70
     1
102
RTVSPropertyOp9
 70
     1
102
RTVSPropertyOp10
 70
     1
102
RTVSPropertyOp11
 70
     1
102
RTVSPropertyOp12
 70
     1
102
RTVSPropertyOp13
 70
     1
102
RTVSPropertyOp14
 70
     1
102
RTVSPropertyOp15
 70
     1
102
RTVSPropertyOp16
 70
     1
102
RTVSPropertyOp17
 70
     1
102
RTVSPropertyOp18
 70
     1
102
RTVSPropertyOp19
 70
     1
102
RTVSPropertyOp20
 70
     1
102
RTVSPropertyOp21
 70
     1
102
RTVSPropertyOp22
 70
     1
102
RTVSPropertyOp23
 70
     1
102
RTVSPropertyOp24
 70
     1
102
RTVSPropertyOp25
 70
     1
102
RTVSPropertyOp26
 70
     1
102
RTVSPropertyOp27
 70
     1
102
RTVSPropertyOp28
 70
     1
102
RTVSPropertyOp29
 70
     1
102
RTVSPropertyOp30
 70
     1
102
RTVSPropertyOp31
 70
     1
102
RTVSPropertyOp32
 70
     1
102
RTVSPropertyOp33
 70
     1
102
RTVSPropertyOp34
 70
     1
102
RTVSPropertyOp35
 70
     1
102
RTVSPropertyOp36
 70
     1
102
RTVSPropertyOp37
 70
     1
102
RTVSPropertyOp38
 70
     1
102
RTVSPropertyOp39
 70
     1
102
RTVSPropertyOp40
 70
     1
102
RTVSPropertyOp41
 70
     1
102
RTVSPropertyOp42
 70
     1
102
RTVSPropertyOp43
 70
     1
102
RTVSPropertyOp44
 70
     1
102
RTVSPropertyOp45
 70
     1
102
RTVSPropertyOp46
 70
     1
102
RTVSPropertyOp47
 70
     1
102
RTVSPropertyOp48
 70
     1
102
RTVSPropertyOp49
 70
     1
102
RTVSPropertyOp50
 70
     1
102
RTVSPropertyOp51
 70
     0
102
RTVSPropertyOp52
 70
     0
102
RTVSPropertyOp53
 70
     1
102
RTVSPropertyOp54
 70
     1
102
RTVSPropertyOp55
 70
     1
102
RTVSPropertyOp56
 70
     1
102
RTVSPropertyOp57
 70
     1
102
RTVSPropertyOp58
 70
     1
102
RTVSPropertyOp59
 70
     1
102
RTVSPropertyOp60
 70
     1
102
RTVSPropertyOp61
 70
     1
102
RTVSPropertyOp62
 70
     1
  0
XRECORD
  5
12228
102
{ACAD_REACTORS
330
12227
102
}
330
12227
100
AcDbXrecord
280
     1
102
RTVSPost2010Prop28
280
     0
102
RTVSPost2010PropOp28
 70
     1
102
RTVSPost2010Prop29
280
     1
102
RTVSPost2010PropOp29
 70
     1
102
RTVSPost2010Prop30
280
     1
102
RTVSPost2010PropOp30
 70
     1
102
RTVSPost2010Prop31
280
     0
102
RTVSPost2010PropOp31
 70
     1
102
RTVSPost2010Prop32
280
     0
102
RTVSPost2010PropOp32
 70
     1
102
RTVSPost2010Prop33
280
     0
102
RTVSPost2010PropOp33
 70
     1
102
RTVSPost2010Prop34
280
     0
102
RTVSPost2010PropOp34
 70
     1
102
RTVSPost2010Prop35
280
     0
102
RTVSPost2010PropOp35
 70
     1
102
RTVSPost2010Prop36
280
     0
102
RTVSPost2010PropOp36
 70
     1
102
RTVSPost2010Prop37
 90
       50
102
RTVSPost2010PropOp37
 70
     1
102
RTVSPost2010Prop38
140
0.0
102
RTVSPost2010PropOp38
 70
     1
102
RTVSPost2010Prop39
140
1.0
102
RTVSPost2010PropOp39
 70
     1
102
RTVSPost2010Prop40
 90
        0
102
RTVSPost2010PropOp40
 70
     1
102
RTVSPost2010Prop41ColorIndex
 90
       18
102
RTVSPost2010Prop41ColorRGB
 90
        0
102
RTVSPost2010PropOp41
 70
     1
102
RTVSPost2010Prop42
 90
       50
102
RTVSPost2010PropOp42
 70
     1
102
RTVSPost2010Prop43
 90
        3
102
RTVSPost2010PropOp43
 70
     1
102
RTVSPost2010Prop44ColorIndex
 90
        5
102
RTVSPost2010Prop44ColorRGB
 90
      255
102
RTVSPost2010PropOp44
 70
     1
102
RTVSPost2010Prop45
280
     0
102
RTVSPost2010PropOp45
 70
     1
102
RTVSPost2010Prop46
 90
       50
102
RTVSPost2010PropOp46
 70
     1
102
RTVSPost2010Prop47
 90
       50
102
RTVSPost2010PropOp47
 70
     1
102
RTVSPost2010Prop48
 90
       50
102
RTVSPost2010PropOp48
 70
     1
102
RTVSPost2010Prop49
280
     0
102
RTVSPost2010PropOp49
 70
     1
102
RTVSPost2010Prop50
 90
       50
102
RTVSPost2010PropOp50
 70
     1
102
RTVSPost2010Prop51ColorIndex
 90
      256
102
RTVSPost2010Prop51ColorRGB
 90
-16777216
102
RTVSPost2010PropOp51
 70
     0
102
RTVSPost2010Prop52
140
1.0
102
RTVSPost2010PropOp52
 70
     0
102
RTVSPost2010Prop53
 90
        2
102
RTVSPost2010PropOp53
 70
     1
102
RTVSPost2010Prop54
  1
strokes_ogs.tif
102
RTVSPost2010PropOp54
 70
     1
102
RTVSPost2010Prop55
280
     0
102
RTVSPost2010PropOp55
 70
     1
102
RTVSPost2010Prop56
140
1.0
102
RTVSPost2010PropOp56
 70
     1
102
RTVSPost2010Prop57
140
1.0
102
RTVSPost2010PropOp57
 70
     1
102
RTVSPropertyOp0
 70
     1
102
RTVSPropertyOp1
 70
     1
102
RTVSPropertyOp2
 70
     1
102
RTVSPropertyOp3
 70
     1
102
RTVSPropertyOp4
 70
     1
102
RTVSPropertyOp5
 70
     1
102
RTVSPropertyOp6
 70
     1
102
RTVSPropertyOp7
 70
     1
102
RTVSPropertyOp8
 70
     1
102
RTVSPropertyOp9
 70
     1
102
RTVSPropertyOp10
 70
     1
102
RTVSPropertyOp11
 70
     1
102
RTVSPropertyOp12
 70
     1
102
RTVSPropertyOp13
 70
     1
102
RTVSPropertyOp14
 70
     1
102
RTVSPropertyOp15
 70
     1
102
RTVSPropertyOp16
 70
     1
102
RTVSPropertyOp17
 70
     1
102
RTVSPropertyOp18
 70
     1
102
RTVSPropertyOp19
 70
     1
102
RTVSPropertyOp20
 70
     1
102
RTVSPropertyOp21
 70
     1
102
RTVSPropertyOp22
 70
     1
102
RTVSPropertyOp23
 70
     1
102
RTVSPropertyOp24
 70
     1
102
RTVSPropertyOp25
 70
     1
102
RTVSPropertyOp26
 70
     1
102
RTVSPropertyOp27
 70
     1
102
RTVSPropertyOp28
 70
     1
102
RTVSPropertyOp29
 70
     1
102
RTVSPropertyOp30
 70
     1
102
RTVSPropertyOp31
 70
     1
102
RTVSPropertyOp32
 70
     1
102
RTVSPropertyOp33
 70
     1
102
RTVSPropertyOp34
 70
     1
102
RTVSPropertyOp35
 70
     1
102
RTVSPropertyOp36
 70
     1
102
RTVSPropertyOp37
 70
     1
102
RTVSPropertyOp38
 70
     1
102
RTVSPropertyOp39
 70
     1
102
RTVSPropertyOp40
 70
     1
102
RTVSPropertyOp41
 70
     1
102
RTVSPropertyOp42
 70
     1
102
RTVSPropertyOp43
 70
     1
102
RTVSPropertyOp44
 70
     1
102
RTVSPropertyOp45
 70
     1
102
RTVSPropertyOp46
 70
     1
102
RTVSPropertyOp47
 70
     1
102
RTVSPropertyOp48
 70
     1
102
RTVSPropertyOp49
 70
     1
102
RTVSPropertyOp50
 70
     1
102
RTVSPropertyOp51
 70
     0
102
RTVSPropertyOp52
 70
     0
102
RTVSPropertyOp53
 70
     1
102
RTVSPropertyOp54
 70
     1
102
RTVSPropertyOp55
 70
     1
102
RTVSPropertyOp56
 70
     1
102
RTVSPropertyOp57
 70
     1
102
RTVSPropertyOp58
 70
     1
102
RTVSPropertyOp59
 70
     1
102
RTVSPropertyOp60
 70
     1
102
RTVSPropertyOp61
 70
     1
102
RTVSPropertyOp62
 70
     1
  0
XRECORD
  5
12230
102
{ACAD_REACTORS
330
1222F
102
}
330
1222F
100
AcDbXrecord
280
     1
102
RTVSPost2010Prop28
280
     0
102
RTVSPost2010PropOp28
 70
     1
102
RTVSPost2010Prop29
280
     1
102
RTVSPost2010PropOp29
 70
     1
102
RTVSPost2010Prop30
280
     1
102
RTVSPost2010PropOp30
 70
     1
102
RTVSPost2010Prop31
280
     0
102
RTVSPost2010PropOp31
 70
     1
102
RTVSPost2010Prop32
280
     0
102
RTVSPost2010PropOp32
 70
     1
102
RTVSPost2010Prop33
280
     0
102
RTVSPost2010PropOp33
 70
     1
102
RTVSPost2010Prop34
280
     0
102
RTVSPost2010PropOp34
 70
     1
102
RTVSPost2010Prop35
280
     0
102
RTVSPost2010PropOp35
 70
     1
102
RTVSPost2010Prop36
280
     0
102
RTVSPost2010PropOp36
 70
     1
102
RTVSPost2010Prop37
 90
       50
102
RTVSPost2010PropOp37
 70
     1
102
RTVSPost2010Prop38
140
0.0
102
RTVSPost2010PropOp38
 70
     1
102
RTVSPost2010Prop39
140
1.0
102
RTVSPost2010PropOp39
 70
     1
102
RTVSPost2010Prop40
 90
        0
102
RTVSPost2010PropOp40
 70
     1
102
RTVSPost2010Prop41ColorIndex
 90
       18
102
RTVSPost2010Prop41ColorRGB
 90
        0
102
RTVSPost2010PropOp41
 70
     1
102
RTVSPost2010Prop42
 90
       50
102
RTVSPost2010PropOp42
 70
     1
102
RTVSPost2010Prop43
 90
        3
102
RTVSPost2010PropOp43
 70
     1
102
RTVSPost2010Prop44ColorIndex
 90
        5
102
RTVSPost2010Prop44ColorRGB
 90
      255
102
RTVSPost2010PropOp44
 70
     1
102
RTVSPost2010Prop45
280
     0
102
RTVSPost2010PropOp45
 70
     1
102
RTVSPost2010Prop46
 90
       50
102
RTVSPost2010PropOp46
 70
     1
102
RTVSPost2010Prop47
 90
       50
102
RTVSPost2010PropOp47
 70
     1
102
RTVSPost2010Prop48
 90
       50
102
RTVSPost2010PropOp48
 70
     1
102
RTVSPost2010Prop49
280
     0
102
RTVSPost2010PropOp49
 70
     1
102
RTVSPost2010Prop50
 90
       50
102
RTVSPost2010PropOp50
 70
     1
102
RTVSPost2010Prop51ColorIndex
 90
      256
102
RTVSPost2010Prop51ColorRGB
 90
-16777216
102
RTVSPost2010PropOp51
 70
     0
102
RTVSPost2010Prop52
140
1.0
102
RTVSPost2010PropOp52
 70
     0
102
RTVSPost2010Prop53
 90
        2
102
RTVSPost2010PropOp53
 70
     1
102
RTVSPost2010Prop54
  1
strokes_ogs.tif
102
RTVSPost2010PropOp54
 70
     1
102
RTVSPost2010Prop55
280
     0
102
RTVSPost2010PropOp55
 70
     1
102
RTVSPost2010Prop56
140
1.0
102
RTVSPost2010PropOp56
 70
     1
102
RTVSPost2010Prop57
140
1.0
102
RTVSPost2010PropOp57
 70
     1
102
RTVSPropertyOp0
 70
     1
102
RTVSPropertyOp1
 70
     1
102
RTVSPropertyOp2
 70
     1
102
RTVSPropertyOp3
 70
     1
102
RTVSPropertyOp4
 70
     1
102
RTVSPropertyOp5
 70
     1
102
RTVSPropertyOp6
 70
     1
102
RTVSPropertyOp7
 70
     1
102
RTVSPropertyOp8
 70
     1
102
RTVSPropertyOp9
 70
     1
102
RTVSPropertyOp10
 70
     1
102
RTVSPropertyOp11
 70
     1
102
RTVSPropertyOp12
 70
     1
102
RTVSPropertyOp13
 70
     1
102
RTVSPropertyOp14
 70
     1
102
RTVSPropertyOp15
 70
     1
102
RTVSPropertyOp16
 70
     1
102
RTVSPropertyOp17
 70
     1
102
RTVSPropertyOp18
 70
     1
102
RTVSPropertyOp19
 70
     1
102
RTVSPropertyOp20
 70
     1
102
RTVSPropertyOp21
 70
     1
102
RTVSPropertyOp22
 70
     1
102
RTVSPropertyOp23
 70
     1
102
RTVSPropertyOp24
 70
     1
102
RTVSPropertyOp25
 70
     1
102
RTVSPropertyOp26
 70
     1
102
RTVSPropertyOp27
 70
     1
102
RTVSPropertyOp28
 70
     1
102
RTVSPropertyOp29
 70
     1
102
RTVSPropertyOp30
 70
     1
102
RTVSPropertyOp31
 70
     1
102
RTVSPropertyOp32
 70
     1
102
RTVSPropertyOp33
 70
     1
102
RTVSPropertyOp34
 70
     1
102
RTVSPropertyOp35
 70
     1
102
RTVSPropertyOp36
 70
     1
102
RTVSPropertyOp37
 70
     1
102
RTVSPropertyOp38
 70
     1
102
RTVSPropertyOp39
 70
     1
102
RTVSPropertyOp40
 70
     1
102
RTVSPropertyOp41
 70
     1
102
RTVSPropertyOp42
 70
     1
102
RTVSPropertyOp43
 70
     1
102
RTVSPropertyOp44
 70
     1
102
RTVSPropertyOp45
 70
     1
102
RTVSPropertyOp46
 70
     1
102
RTVSPropertyOp47
 70
     1
102
RTVSPropertyOp48
 70
     1
102
RTVSPropertyOp49
 70
     1
102
RTVSPropertyOp50
 70
     1
102
RTVSPropertyOp51
 70
     0
102
RTVSPropertyOp52
 70
     0
102
RTVSPropertyOp53
 70
     1
102
RTVSPropertyOp54
 70
     1
102
RTVSPropertyOp55
 70
     1
102
RTVSPropertyOp56
 70
     1
102
RTVSPropertyOp57
 70
     1
102
RTVSPropertyOp58
 70
     1
102
RTVSPropertyOp59
 70
     1
102
RTVSPropertyOp60
 70
     1
102
RTVSPropertyOp61
 70
     1
102
RTVSPropertyOp62
 70
     1
  0
XRECORD
  5
12222
102
{ACAD_REACTORS
330
12221
102
}
330
12221
100
AcDbXrecord
280
     1
102
RTVSPost2010Prop28
280
     0
102
RTVSPost2010PropOp28
 70
     1
102
RTVSPost2010Prop29
280
     1
102
RTVSPost2010PropOp29
 70
     1
102
RTVSPost2010Prop30
280
     1
102
RTVSPost2010PropOp30
 70
     1
102
RTVSPost2010Prop31
280
     0
102
RTVSPost2010PropOp31
 70
     1
102
RTVSPost2010Prop32
280
     0
102
RTVSPost2010PropOp32
 70
     1
102
RTVSPost2010Prop33
280
     0
102
RTVSPost2010PropOp33
 70
     1
102
RTVSPost2010Prop34
280
     0
102
RTVSPost2010PropOp34
 70
     1
102
RTVSPost2010Prop35
280
     0
102
RTVSPost2010PropOp35
 70
     1
102
RTVSPost2010Prop36
280
     0
102
RTVSPost2010PropOp36
 70
     1
102
RTVSPost2010Prop37
 90
       50
102
RTVSPost2010PropOp37
 70
     1
102
RTVSPost2010Prop38
140
0.0
102
RTVSPost2010PropOp38
 70
     1
102
RTVSPost2010Prop39
140
1.0
102
RTVSPost2010PropOp39
 70
     1
102
RTVSPost2010Prop40
 90
        0
102
RTVSPost2010PropOp40
 70
     1
102
RTVSPost2010Prop41ColorIndex
 90
       18
102
RTVSPost2010Prop41ColorRGB
 90
        0
102
RTVSPost2010PropOp41
 70
     1
102
RTVSPost2010Prop42
 90
       50
102
RTVSPost2010PropOp42
 70
     1
102
RTVSPost2010Prop43
 90
        3
102
RTVSPost2010PropOp43
 70
     1
102
RTVSPost2010Prop44ColorIndex
 90
        5
102
RTVSPost2010Prop44ColorRGB
 90
      255
102
RTVSPost2010PropOp44
 70
     1
102
RTVSPost2010Prop45
280
     0
102
RTVSPost2010PropOp45
 70
     1
102
RTVSPost2010Prop46
 90
       50
102
RTVSPost2010PropOp46
 70
     1
102
RTVSPost2010Prop47
 90
       50
102
RTVSPost2010PropOp47
 70
     1
102
RTVSPost2010Prop48
 90
       50
102
RTVSPost2010PropOp48
 70
     1
102
RTVSPost2010Prop49
280
     0
102
RTVSPost2010PropOp49
 70
     1
102
RTVSPost2010Prop50
 90
       50
102
RTVSPost2010PropOp50
 70
     1
102
RTVSPost2010Prop51ColorIndex
 90
      256
102
RTVSPost2010Prop51ColorRGB
 90
-16777216
102
RTVSPost2010PropOp51
 70
     0
102
RTVSPost2010Prop52
140
1.0
102
RTVSPost2010PropOp52
 70
     0
102
RTVSPost2010Prop53
 90
        2
102
RTVSPost2010PropOp53
 70
     1
102
RTVSPost2010Prop54
  1
strokes_ogs.tif
102
RTVSPost2010PropOp54
 70
     1
102
RTVSPost2010Prop55
280
     0
102
RTVSPost2010PropOp55
 70
     1
102
RTVSPost2010Prop56
140
1.0
102
RTVSPost2010PropOp56
 70
     1
102
RTVSPost2010Prop57
140
1.0
102
RTVSPost2010PropOp57
 70
     1
102
RTVSPropertyOp0
 70
     1
102
RTVSPropertyOp1
 70
     1
102
RTVSPropertyOp2
 70
     1
102
RTVSPropertyOp3
 70
     1
102
RTVSPropertyOp4
 70
     1
102
RTVSPropertyOp5
 70
     1
102
RTVSPropertyOp6
 70
     1
102
RTVSPropertyOp7
 70
     1
102
RTVSPropertyOp8
 70
     1
102
RTVSPropertyOp9
 70
     1
102
RTVSPropertyOp10
 70
     1
102
RTVSPropertyOp11
 70
     1
102
RTVSPropertyOp12
 70
     1
102
RTVSPropertyOp13
 70
     1
102
RTVSPropertyOp14
 70
     1
102
RTVSPropertyOp15
 70
     1
102
RTVSPropertyOp16
 70
     1
102
RTVSPropertyOp17
 70
     1
102
RTVSPropertyOp18
 70
     1
102
RTVSPropertyOp19
 70
     1
102
RTVSPropertyOp20
 70
     1
102
RTVSPropertyOp21
 70
     1
102
RTVSPropertyOp22
 70
     1
102
RTVSPropertyOp23
 70
     1
102
RTVSPropertyOp24
 70
     1
102
RTVSPropertyOp25
 70
     1
102
RTVSPropertyOp26
 70
     1
102
RTVSPropertyOp27
 70
     1
102
RTVSPropertyOp28
 70
     1
102
RTVSPropertyOp29
 70
     1
102
RTVSPropertyOp30
 70
     1
102
RTVSPropertyOp31
 70
     1
102
RTVSPropertyOp32
 70
     1
102
RTVSPropertyOp33
 70
     1
102
RTVSPropertyOp34
 70
     1
102
RTVSPropertyOp35
 70
     1
102
RTVSPropertyOp36
 70
     1
102
RTVSPropertyOp37
 70
     1
102
RTVSPropertyOp38
 70
     1
102
RTVSPropertyOp39
 70
     1
102
RTVSPropertyOp40
 70
     1
102
RTVSPropertyOp41
 70
     1
102
RTVSPropertyOp42
 70
     1
102
RTVSPropertyOp43
 70
     1
102
RTVSPropertyOp44
 70
     1
102
RTVSPropertyOp45
 70
     1
102
RTVSPropertyOp46
 70
     1
102
RTVSPropertyOp47
 70
     1
102
RTVSPropertyOp48
 70
     1
102
RTVSPropertyOp49
 70
     1
102
RTVSPropertyOp50
 70
     1
102
RTVSPropertyOp51
 70
     0
102
RTVSPropertyOp52
 70
     0
102
RTVSPropertyOp53
 70
     1
102
RTVSPropertyOp54
 70
     1
102
RTVSPropertyOp55
 70
     1
102
RTVSPropertyOp56
 70
     1
102
RTVSPropertyOp57
 70
     1
102
RTVSPropertyOp58
 70
     1
102
RTVSPropertyOp59
 70
     1
102
RTVSPropertyOp60
 70
     1
102
RTVSPropertyOp61
 70
     1
102
RTVSPropertyOp62
 70
     1
  0
XRECORD
  5
12226
102
{ACAD_REACTORS
330
12225
102
}
330
12225
100
AcDbXrecord
280
     1
102
RTVSPost2010Prop28
280
     0
102
RTVSPost2010PropOp28
 70
     1
102
RTVSPost2010Prop29
280
     1
102
RTVSPost2010PropOp29
 70
     1
102
RTVSPost2010Prop30
280
     1
102
RTVSPost2010PropOp30
 70
     1
102
RTVSPost2010Prop31
280
     0
102
RTVSPost2010PropOp31
 70
     1
102
RTVSPost2010Prop32
280
     0
102
RTVSPost2010PropOp32
 70
     1
102
RTVSPost2010Prop33
280
     0
102
RTVSPost2010PropOp33
 70
     1
102
RTVSPost2010Prop34
280
     0
102
RTVSPost2010PropOp34
 70
     1
102
RTVSPost2010Prop35
280
     0
102
RTVSPost2010PropOp35
 70
     1
102
RTVSPost2010Prop36
280
     0
102
RTVSPost2010PropOp36
 70
     1
102
RTVSPost2010Prop37
 90
       50
102
RTVSPost2010PropOp37
 70
     1
102
RTVSPost2010Prop38
140
0.0
102
RTVSPost2010PropOp38
 70
     1
102
RTVSPost2010Prop39
140
1.0
102
RTVSPost2010PropOp39
 70
     1
102
RTVSPost2010Prop40
 90
        0
102
RTVSPost2010PropOp40
 70
     1
102
RTVSPost2010Prop41ColorIndex
 90
       18
102
RTVSPost2010Prop41ColorRGB
 90
        0
102
RTVSPost2010PropOp41
 70
     1
102
RTVSPost2010Prop42
 90
       50
102
RTVSPost2010PropOp42
 70
     1
102
RTVSPost2010Prop43
 90
        3
102
RTVSPost2010PropOp43
 70
     1
102
RTVSPost2010Prop44ColorIndex
 90
        5
102
RTVSPost2010Prop44ColorRGB
 90
      255
102
RTVSPost2010PropOp44
 70
     1
102
RTVSPost2010Prop45
280
     0
102
RTVSPost2010PropOp45
 70
     1
102
RTVSPost2010Prop46
 90
       50
102
RTVSPost2010PropOp46
 70
     1
102
RTVSPost2010Prop47
 90
       50
102
RTVSPost2010PropOp47
 70
     1
102
RTVSPost2010Prop48
 90
       50
102
RTVSPost2010PropOp48
 70
     1
102
RTVSPost2010Prop49
280
     0
102
RTVSPost2010PropOp49
 70
     1
102
RTVSPost2010Prop50
 90
       50
102
RTVSPost2010PropOp50
 70
     1
102
RTVSPost2010Prop51ColorIndex
 90
      256
102
RTVSPost2010Prop51ColorRGB
 90
-16777216
102
RTVSPost2010PropOp51
 70
     0
102
RTVSPost2010Prop52
140
1.0
102
RTVSPost2010PropOp52
 70
     0
102
RTVSPost2010Prop53
 90
        2
102
RTVSPost2010PropOp53
 70
     1
102
RTVSPost2010Prop54
  1
strokes_ogs.tif
102
RTVSPost2010PropOp54
 70
     1
102
RTVSPost2010Prop55
280
     0
102
RTVSPost2010PropOp55
 70
     1
102
RTVSPost2010Prop56
140
1.0
102
RTVSPost2010PropOp56
 70
     1
102
RTVSPost2010Prop57
140
1.0
102
RTVSPost2010PropOp57
 70
     1
102
RTVSPropertyOp0
 70
     1
102
RTVSPropertyOp1
 70
     1
102
RTVSPropertyOp2
 70
     1
102
RTVSPropertyOp3
 70
     1
102
RTVSPropertyOp4
 70
     1
102
RTVSPropertyOp5
 70
     1
102
RTVSPropertyOp6
 70
     1
102
RTVSPropertyOp7
 70
     1
102
RTVSPropertyOp8
 70
     1
102
RTVSPropertyOp9
 70
     1
102
RTVSPropertyOp10
 70
     1
102
RTVSPropertyOp11
 70
     1
102
RTVSPropertyOp12
 70
     1
102
RTVSPropertyOp13
 70
     1
102
RTVSPropertyOp14
 70
     1
102
RTVSPropertyOp15
 70
     1
102
RTVSPropertyOp16
 70
     1
102
RTVSPropertyOp17
 70
     1
102
RTVSPropertyOp18
 70
     1
102
RTVSPropertyOp19
 70
     1
102
RTVSPropertyOp20
 70
     1
102
RTVSPropertyOp21
 70
     1
102
RTVSPropertyOp22
 70
     1
102
RTVSPropertyOp23
 70
     1
102
RTVSPropertyOp24
 70
     1
102
RTVSPropertyOp25
 70
     1
102
RTVSPropertyOp26
 70
     1
102
RTVSPropertyOp27
 70
     1
102
RTVSPropertyOp28
 70
     1
102
RTVSPropertyOp29
 70
     1
102
RTVSPropertyOp30
 70
     1
102
RTVSPropertyOp31
 70
     1
102
RTVSPropertyOp32
 70
     1
102
RTVSPropertyOp33
 70
     1
102
RTVSPropertyOp34
 70
     1
102
RTVSPropertyOp35
 70
     1
102
RTVSPropertyOp36
 70
     1
102
RTVSPropertyOp37
 70
     1
102
RTVSPropertyOp38
 70
     1
102
RTVSPropertyOp39
 70
     1
102
RTVSPropertyOp40
 70
     1
102
RTVSPropertyOp41
 70
     1
102
RTVSPropertyOp42
 70
     1
102
RTVSPropertyOp43
 70
     1
102
RTVSPropertyOp44
 70
     1
102
RTVSPropertyOp45
 70
     1
102
RTVSPropertyOp46
 70
     1
102
RTVSPropertyOp47
 70
     1
102
RTVSPropertyOp48
 70
     1
102
RTVSPropertyOp49
 70
     1
102
RTVSPropertyOp50
 70
     1
102
RTVSPropertyOp51
 70
     0
102
RTVSPropertyOp52
 70
     0
102
RTVSPropertyOp53
 70
     1
102
RTVSPropertyOp54
 70
     1
102
RTVSPropertyOp55
 70
     1
102
RTVSPropertyOp56
 70
     1
102
RTVSPropertyOp57
 70
     1
102
RTVSPropertyOp58
 70
     1
102
RTVSPropertyOp59
 70
     1
102
RTVSPropertyOp60
 70
     1
102
RTVSPropertyOp61
 70
     1
102
RTVSPropertyOp62
 70
     1
  0
XRECORD
  5
12240
102
{ACAD_REACTORS
330
1223F
102
}
330
1223F
100
AcDbXrecord
280
     1
102
RTVSPost2010Prop28
280
     0
102
RTVSPost2010PropOp28
 70
     1
102
RTVSPost2010Prop29
280
     1
102
RTVSPost2010PropOp29
 70
     1
102
RTVSPost2010Prop30
280
     1
102
RTVSPost2010PropOp30
 70
     1
102
RTVSPost2010Prop31
280
     0
102
RTVSPost2010PropOp31
 70
     1
102
RTVSPost2010Prop32
280
     0
102
RTVSPost2010PropOp32
 70
     1
102
RTVSPost2010Prop33
280
     0
102
RTVSPost2010PropOp33
 70
     1
102
RTVSPost2010Prop34
280
     0
102
RTVSPost2010PropOp34
 70
     1
102
RTVSPost2010Prop35
280
     0
102
RTVSPost2010PropOp35
 70
     1
102
RTVSPost2010Prop36
280
     0
102
RTVSPost2010PropOp36
 70
     1
102
RTVSPost2010Prop37
 90
       50
102
RTVSPost2010PropOp37
 70
     0
102
RTVSPost2010Prop38
140
0.0
102
RTVSPost2010PropOp38
 70
     0
102
RTVSPost2010Prop39
140
1.0
102
RTVSPost2010PropOp39
 70
     0
102
RTVSPost2010Prop40
 90
        0
102
RTVSPost2010PropOp40
 70
     0
102
RTVSPost2010Prop41ColorIndex
 90
       18
102
RTVSPost2010Prop41ColorRGB
 90
        0
102
RTVSPost2010PropOp41
 70
     0
102
RTVSPost2010Prop42
 90
       50
102
RTVSPost2010PropOp42
 70
     0
102
RTVSPost2010Prop43
 90
        3
102
RTVSPost2010PropOp43
 70
     0
102
RTVSPost2010Prop44ColorIndex
 90
        5
102
RTVSPost2010Prop44ColorRGB
 90
      255
102
RTVSPost2010PropOp44
 70
     0
102
RTVSPost2010Prop45
280
     0
102
RTVSPost2010PropOp45
 70
     1
102
RTVSPost2010Prop46
 90
       50
102
RTVSPost2010PropOp46
 70
     0
102
RTVSPost2010Prop47
 90
       50
102
RTVSPost2010PropOp47
 70
     0
102
RTVSPost2010Prop48
 90
       50
102
RTVSPost2010PropOp48
 70
     0
102
RTVSPost2010Prop49
280
     0
102
RTVSPost2010PropOp49
 70
     1
102
RTVSPost2010Prop50
 90
       50
102
RTVSPost2010PropOp50
 70
     0
102
RTVSPost2010Prop51ColorIndex
 90
      256
102
RTVSPost2010Prop51ColorRGB
 90
-16777216
102
RTVSPost2010PropOp51
 70
     0
102
RTVSPost2010Prop52
140
1.0
102
RTVSPost2010PropOp52
 70
     0
102
RTVSPost2010Prop53
 90
        2
102
RTVSPost2010PropOp53
 70
     0
102
RTVSPost2010Prop54
  1
strokes_ogs.tif
102
RTVSPost2010PropOp54
 70
     0
102
RTVSPost2010Prop55
280
     0
102
RTVSPost2010PropOp55
 70
     1
102
RTVSPost2010Prop56
140
1.0
102
RTVSPost2010PropOp56
 70
     0
102
RTVSPost2010Prop57
140
1.0
102
RTVSPost2010PropOp57
 70
     0
102
RTVSPropertyOp0
 70
     0
102
RTVSPropertyOp1
 70
     0
102
RTVSPropertyOp2
 70
     0
102
RTVSPropertyOp3
 70
     0
102
RTVSPropertyOp4
 70
     0
102
RTVSPropertyOp5
 70
     0
102
RTVSPropertyOp6
 70
     0
102
RTVSPropertyOp7
 70
     0
102
RTVSPropertyOp8
 70
     0
102
RTVSPropertyOp9
 70
     0
102
RTVSPropertyOp10
 70
     0
102
RTVSPropertyOp11
 70
     0
102
RTVSPropertyOp12
 70
     0
102
RTVSPropertyOp13
 70
     0
102
RTVSPropertyOp14
 70
     2
102
RTVSPropertyOp15
 70
     0
102
RTVSPropertyOp16
 70
     0
102
RTVSPropertyOp17
 70
     0
102
RTVSPropertyOp18
 70
     0
102
RTVSPropertyOp19
 70
     0
102
RTVSPropertyOp20
 70
     0
102
RTVSPropertyOp21
 70
     0
102
RTVSPropertyOp22
 70
     0
102
RTVSPropertyOp23
 70
     0
102
RTVSPropertyOp24
 70
     0
102
RTVSPropertyOp25
 70
     0
102
RTVSPropertyOp26
 70
     0
102
RTVSPropertyOp27
 70
     0
102
RTVSPropertyOp28
 70
     1
102
RTVSPropertyOp29
 70
     1
102
RTVSPropertyOp30
 70
     1
102
RTVSPropertyOp31
 70
     1
102
RTVSPropertyOp32
 70
     1
102
RTVSPropertyOp33
 70
     1
102
RTVSPropertyOp34
 70
     1
102
RTVSPropertyOp35
 70
     1
102
RTVSPropertyOp36
 70
     1
102
RTVSPropertyOp37
 70
     0
102
RTVSPropertyOp38
 70
     0
102
RTVSPropertyOp39
 70
     0
102
RTVSPropertyOp40
 70
     0
102
RTVSPropertyOp41
 70
     0
102
RTVSPropertyOp42
 70
     0
102
RTVSPropertyOp43
 70
     0
102
RTVSPropertyOp44
 70
     0
102
RTVSPropertyOp45
 70
     1
102
RTVSPropertyOp46
 70
     0
102
RTVSPropertyOp47
 70
     0
102
RTVSPropertyOp48
 70
     0
102
RTVSPropertyOp49
 70
     1
102
RTVSPropertyOp50
 70
     0
102
RTVSPropertyOp51
 70
     0
102
RTVSPropertyOp52
 70
     0
102
RTVSPropertyOp53
 70
     0
102
RTVSPropertyOp54
 70
     0
102
RTVSPropertyOp55
 70
     1
102
RTVSPropertyOp56
 70
     0
102
RTVSPropertyOp57
 70
     0
102
RTVSPropertyOp58
 70
     0
102
RTVSPropertyOp59
 70
     0
102
RTVSPropertyOp60
 70
     0
102
RTVSPropertyOp61
 70
     0
102
RTVSPropertyOp62
 70
     0
  0
XRECORD
  5
1222E
102
{ACAD_REACTORS
330
1222D
102
}
330
1222D
100
AcDbXrecord
280
     1
102
RTVSPost2010Prop28
280
     0
102
RTVSPost2010PropOp28
 70
     1
102
RTVSPost2010Prop29
280
     1
102
RTVSPost2010PropOp29
 70
     1
102
RTVSPost2010Prop30
280
     1
102
RTVSPost2010PropOp30
 70
     1
102
RTVSPost2010Prop31
280
     0
102
RTVSPost2010PropOp31
 70
     1
102
RTVSPost2010Prop32
280
     0
102
RTVSPost2010PropOp32
 70
     1
102
RTVSPost2010Prop33
280
     0
102
RTVSPost2010PropOp33
 70
     1
102
RTVSPost2010Prop34
280
     0
102
RTVSPost2010PropOp34
 70
     1
102
RTVSPost2010Prop35
280
     0
102
RTVSPost2010PropOp35
 70
     1
102
RTVSPost2010Prop36
280
     0
102
RTVSPost2010PropOp36
 70
     1
102
RTVSPost2010Prop37
 90
       50
102
RTVSPost2010PropOp37
 70
     1
102
RTVSPost2010Prop38
140
0.0
102
RTVSPost2010PropOp38
 70
     1
102
RTVSPost2010Prop39
140
1.0
102
RTVSPost2010PropOp39
 70
     1
102
RTVSPost2010Prop40
 90
        0
102
RTVSPost2010PropOp40
 70
     1
102
RTVSPost2010Prop41ColorIndex
 90
       18
102
RTVSPost2010Prop41ColorRGB
 90
        0
102
RTVSPost2010PropOp41
 70
     1
102
RTVSPost2010Prop42
 90
       50
102
RTVSPost2010PropOp42
 70
     1
102
RTVSPost2010Prop43
 90
        3
102
RTVSPost2010PropOp43
 70
     1
102
RTVSPost2010Prop44ColorIndex
 90
        5
102
RTVSPost2010Prop44ColorRGB
 90
      255
102
RTVSPost2010PropOp44
 70
     1
102
RTVSPost2010Prop45
280
     0
102
RTVSPost2010PropOp45
 70
     1
102
RTVSPost2010Prop46
 90
       50
102
RTVSPost2010PropOp46
 70
     1
102
RTVSPost2010Prop47
 90
       50
102
RTVSPost2010PropOp47
 70
     1
102
RTVSPost2010Prop48
 90
       50
102
RTVSPost2010PropOp48
 70
     1
102
RTVSPost2010Prop49
280
     0
102
RTVSPost2010PropOp49
 70
     1
102
RTVSPost2010Prop50
 90
       50
102
RTVSPost2010PropOp50
 70
     1
102
RTVSPost2010Prop51ColorIndex
 90
      256
102
RTVSPost2010Prop51ColorRGB
 90
-16777216
102
RTVSPost2010PropOp51
 70
     0
102
RTVSPost2010Prop52
140
1.0
102
RTVSPost2010PropOp52
 70
     0
102
RTVSPost2010Prop53
 90
        2
102
RTVSPost2010PropOp53
 70
     1
102
RTVSPost2010Prop54
  1
strokes_ogs.tif
102
RTVSPost2010PropOp54
 70
     1
102
RTVSPost2010Prop55
280
     0
102
RTVSPost2010PropOp55
 70
     1
102
RTVSPost2010Prop56
140
1.0
102
RTVSPost2010PropOp56
 70
     1
102
RTVSPost2010Prop57
140
1.0
102
RTVSPost2010PropOp57
 70
     1
102
RTVSPropertyOp0
 70
     1
102
RTVSPropertyOp1
 70
     1
102
RTVSPropertyOp2
 70
     1
102
RTVSPropertyOp3
 70
     1
102
RTVSPropertyOp4
 70
     1
102
RTVSPropertyOp5
 70
     1
102
RTVSPropertyOp6
 70
     1
102
RTVSPropertyOp7
 70
     1
102
RTVSPropertyOp8
 70
     1
102
RTVSPropertyOp9
 70
     1
102
RTVSPropertyOp10
 70
     1
102
RTVSPropertyOp11
 70
     1
102
RTVSPropertyOp12
 70
     1
102
RTVSPropertyOp13
 70
     1
102
RTVSPropertyOp14
 70
     1
102
RTVSPropertyOp15
 70
     1
102
RTVSPropertyOp16
 70
     1
102
RTVSPropertyOp17
 70
     1
102
RTVSPropertyOp18
 70
     1
102
RTVSPropertyOp19
 70
     1
102
RTVSPropertyOp20
 70
     1
102
RTVSPropertyOp21
 70
     1
102
RTVSPropertyOp22
 70
     1
102
RTVSPropertyOp23
 70
     1
102
RTVSPropertyOp24
 70
     1
102
RTVSPropertyOp25
 70
     1
102
RTVSPropertyOp26
 70
     1
102
RTVSPropertyOp27
 70
     1
102
RTVSPropertyOp28
 70
     1
102
RTVSPropertyOp29
 70
     1
102
RTVSPropertyOp30
 70
     1
102
RTVSPropertyOp31
 70
     1
102
RTVSPropertyOp32
 70
     1
102
RTVSPropertyOp33
 70
     1
102
RTVSPropertyOp34
 70
     1
102
RTVSPropertyOp35
 70
     1
102
RTVSPropertyOp36
 70
     1
102
RTVSPropertyOp37
 70
     1
102
RTVSPropertyOp38
 70
     1
102
RTVSPropertyOp39
 70
     1
102
RTVSPropertyOp40
 70
     1
102
RTVSPropertyOp41
 70
     1
102
RTVSPropertyOp42
 70
     1
102
RTVSPropertyOp43
 70
     1
102
RTVSPropertyOp44
 70
     1
102
RTVSPropertyOp45
 70
     1
102
RTVSPropertyOp46
 70
     1
102
RTVSPropertyOp47
 70
     1
102
RTVSPropertyOp48
 70
     1
102
RTVSPropertyOp49
 70
     1
102
RTVSPropertyOp50
 70
     1
102
RTVSPropertyOp51
 70
     0
102
RTVSPropertyOp52
 70
     0
102
RTVSPropertyOp53
 70
     1
102
RTVSPropertyOp54
 70
     1
102
RTVSPropertyOp55
 70
     1
102
RTVSPropertyOp56
 70
     1
102
RTVSPropertyOp57
 70
     1
102
RTVSPropertyOp58
 70
     1
102
RTVSPropertyOp59
 70
     1
102
RTVSPropertyOp60
 70
     1
102
RTVSPropertyOp61
 70
     1
102
RTVSPropertyOp62
 70
     1
  0
XRECORD
  5
12212
102
{ACAD_REACTORS
330
12211
102
}
330
12211
100
AcDbXrecord
280
     1
102
RTVSPost2010Prop28
280
     0
102
RTVSPost2010PropOp28
 70
     1
102
RTVSPost2010Prop29
280
     1
102
RTVSPost2010PropOp29
 70
     1
102
RTVSPost2010Prop30
280
     1
102
RTVSPost2010PropOp30
 70
     1
102
RTVSPost2010Prop31
280
     0
102
RTVSPost2010PropOp31
 70
     1
102
RTVSPost2010Prop32
280
     0
102
RTVSPost2010PropOp32
 70
     1
102
RTVSPost2010Prop33
280
     0
102
RTVSPost2010PropOp33
 70
     1
102
RTVSPost2010Prop34
280
     0
102
RTVSPost2010PropOp34
 70
     1
102
RTVSPost2010Prop35
280
     0
102
RTVSPost2010PropOp35
 70
     1
102
RTVSPost2010Prop36
280
     0
102
RTVSPost2010PropOp36
 70
     1
102
RTVSPost2010Prop37
 90
       50
102
RTVSPost2010PropOp37
 70
     1
102
RTVSPost2010Prop38
140
0.0
102
RTVSPost2010PropOp38
 70
     1
102
RTVSPost2010Prop39
140
1.0
102
RTVSPost2010PropOp39
 70
     1
102
RTVSPost2010Prop40
 90
        0
102
RTVSPost2010PropOp40
 70
     1
102
RTVSPost2010Prop41ColorIndex
 90
       18
102
RTVSPost2010Prop41ColorRGB
 90
        0
102
RTVSPost2010PropOp41
 70
     1
102
RTVSPost2010Prop42
 90
       50
102
RTVSPost2010PropOp42
 70
     1
102
RTVSPost2010Prop43
 90
        3
102
RTVSPost2010PropOp43
 70
     1
102
RTVSPost2010Prop44ColorIndex
 90
        5
102
RTVSPost2010Prop44ColorRGB
 90
      255
102
RTVSPost2010PropOp44
 70
     1
102
RTVSPost2010Prop45
280
     0
102
RTVSPost2010PropOp45
 70
     1
102
RTVSPost2010Prop46
 90
       50
102
RTVSPost2010PropOp46
 70
     1
102
RTVSPost2010Prop47
 90
       50
102
RTVSPost2010PropOp47
 70
     1
102
RTVSPost2010Prop48
 90
       50
102
RTVSPost2010PropOp48
 70
     1
102
RTVSPost2010Prop49
280
     0
102
RTVSPost2010PropOp49
 70
     1
102
RTVSPost2010Prop50
 90
       50
102
RTVSPost2010PropOp50
 70
     1
102
RTVSPost2010Prop51ColorIndex
 90
      256
102
RTVSPost2010Prop51ColorRGB
 90
-16777216
102
RTVSPost2010PropOp51
 70
     0
102
RTVSPost2010Prop52
140
1.0
102
RTVSPost2010PropOp52
 70
     0
102
RTVSPost2010Prop53
 90
        2
102
RTVSPost2010PropOp53
 70
     1
102
RTVSPost2010Prop54
  1
strokes_ogs.tif
102
RTVSPost2010PropOp54
 70
     1
102
RTVSPost2010Prop55
280
     0
102
RTVSPost2010PropOp55
 70
     1
102
RTVSPost2010Prop56
140
1.0
102
RTVSPost2010PropOp56
 70
     1
102
RTVSPost2010Prop57
140
1.0
102
RTVSPost2010PropOp57
 70
     1
102
RTVSPropertyOp0
 70
     1
102
RTVSPropertyOp1
 70
     1
102
RTVSPropertyOp2
 70
     1
102
RTVSPropertyOp3
 70
     1
102
RTVSPropertyOp4
 70
     1
102
RTVSPropertyOp5
 70
     1
102
RTVSPropertyOp6
 70
     1
102
RTVSPropertyOp7
 70
     1
102
RTVSPropertyOp8
 70
     1
102
RTVSPropertyOp9
 70
     1
102
RTVSPropertyOp10
 70
     1
102
RTVSPropertyOp11
 70
     1
102
RTVSPropertyOp12
 70
     1
102
RTVSPropertyOp13
 70
     1
102
RTVSPropertyOp14
 70
     1
102
RTVSPropertyOp15
 70
     1
102
RTVSPropertyOp16
 70
     1
102
RTVSPropertyOp17
 70
     1
102
RTVSPropertyOp18
 70
     1
102
RTVSPropertyOp19
 70
     1
102
RTVSPropertyOp20
 70
     1
102
RTVSPropertyOp21
 70
     1
102
RTVSPropertyOp22
 70
     1
102
RTVSPropertyOp23
 70
     1
102
RTVSPropertyOp24
 70
     1
102
RTVSPropertyOp25
 70
     1
102
RTVSPropertyOp26
 70
     1
102
RTVSPropertyOp27
 70
     1
102
RTVSPropertyOp28
 70
     1
102
RTVSPropertyOp29
 70
     1
102
RTVSPropertyOp30
 70
     1
102
RTVSPropertyOp31
 70
     1
102
RTVSPropertyOp32
 70
     1
102
RTVSPropertyOp33
 70
     1
102
RTVSPropertyOp34
 70
     1
102
RTVSPropertyOp35
 70
     1
102
RTVSPropertyOp36
 70
     1
102
RTVSPropertyOp37
 70
     1
102
RTVSPropertyOp38
 70
     1
102
RTVSPropertyOp39
 70
     1
102
RTVSPropertyOp40
 70
     1
102
RTVSPropertyOp41
 70
     1
102
RTVSPropertyOp42
 70
     1
102
RTVSPropertyOp43
 70
     1
102
RTVSPropertyOp44
 70
     1
102
RTVSPropertyOp45
 70
     1
102
RTVSPropertyOp46
 70
     1
102
RTVSPropertyOp47
 70
     1
102
RTVSPropertyOp48
 70
     1
102
RTVSPropertyOp49
 70
     1
102
RTVSPropertyOp50
 70
     1
102
RTVSPropertyOp51
 70
     0
102
RTVSPropertyOp52
 70
     0
102
RTVSPropertyOp53
 70
     1
102
RTVSPropertyOp54
 70
     1
102
RTVSPropertyOp55
 70
     1
102
RTVSPropertyOp56
 70
     1
102
RTVSPropertyOp57
 70
     1
102
RTVSPropertyOp58
 70
     1
102
RTVSPropertyOp59
 70
     1
102
RTVSPropertyOp60
 70
     1
102
RTVSPropertyOp61
 70
     1
102
RTVSPropertyOp62
 70
     1
  0
XRECORD
  5
12214
102
{ACAD_REACTORS
330
12213
102
}
330
12213
100
AcDbXrecord
280
     1
102
RTVSPost2010Prop28
280
     0
102
RTVSPost2010PropOp28
 70
     1
102
RTVSPost2010Prop29
280
     1
102
RTVSPost2010PropOp29
 70
     1
102
RTVSPost2010Prop30
280
     1
102
RTVSPost2010PropOp30
 70
     1
102
RTVSPost2010Prop31
280
     0
102
RTVSPost2010PropOp31
 70
     1
102
RTVSPost2010Prop32
280
     0
102
RTVSPost2010PropOp32
 70
     1
102
RTVSPost2010Prop33
280
     0
102
RTVSPost2010PropOp33
 70
     1
102
RTVSPost2010Prop34
280
     0
102
RTVSPost2010PropOp34
 70
     1
102
RTVSPost2010Prop35
280
     0
102
RTVSPost2010PropOp35
 70
     1
102
RTVSPost2010Prop36
280
     0
102
RTVSPost2010PropOp36
 70
     1
102
RTVSPost2010Prop37
 90
       50
102
RTVSPost2010PropOp37
 70
     1
102
RTVSPost2010Prop38
140
0.0
102
RTVSPost2010PropOp38
 70
     1
102
RTVSPost2010Prop39
140
1.0
102
RTVSPost2010PropOp39
 70
     1
102
RTVSPost2010Prop40
 90
        0
102
RTVSPost2010PropOp40
 70
     1
102
RTVSPost2010Prop41ColorIndex
 90
       18
102
RTVSPost2010Prop41ColorRGB
 90
        0
102
RTVSPost2010PropOp41
 70
     1
102
RTVSPost2010Prop42
 90
       50
102
RTVSPost2010PropOp42
 70
     1
102
RTVSPost2010Prop43
 90
        3
102
RTVSPost2010PropOp43
 70
     1
102
RTVSPost2010Prop44ColorIndex
 90
        5
102
RTVSPost2010Prop44ColorRGB
 90
      255
102
RTVSPost2010PropOp44
 70
     1
102
RTVSPost2010Prop45
280
     0
102
RTVSPost2010PropOp45
 70
     1
102
RTVSPost2010Prop46
 90
       50
102
RTVSPost2010PropOp46
 70
     1
102
RTVSPost2010Prop47
 90
       50
102
RTVSPost2010PropOp47
 70
     1
102
RTVSPost2010Prop48
 90
       50
102
RTVSPost2010PropOp48
 70
     1
102
RTVSPost2010Prop49
280
     0
102
RTVSPost2010PropOp49
 70
     1
102
RTVSPost2010Prop50
 90
       50
102
RTVSPost2010PropOp50
 70
     1
102
RTVSPost2010Prop51ColorIndex
 90
      256
102
RTVSPost2010Prop51ColorRGB
 90
-16777216
102
RTVSPost2010PropOp51
 70
     0
102
RTVSPost2010Prop52
140
1.0
102
RTVSPost2010PropOp52
 70
     0
102
RTVSPost2010Prop53
 90
        2
102
RTVSPost2010PropOp53
 70
     1
102
RTVSPost2010Prop54
  1
strokes_ogs.tif
102
RTVSPost2010PropOp54
 70
     1
102
RTVSPost2010Prop55
280
     0
102
RTVSPost2010PropOp55
 70
     1
102
RTVSPost2010Prop56
140
1.0
102
RTVSPost2010PropOp56
 70
     1
102
RTVSPost2010Prop57
140
1.0
102
RTVSPost2010PropOp57
 70
     1
102
RTVSPropertyOp0
 70
     1
102
RTVSPropertyOp1
 70
     1
102
RTVSPropertyOp2
 70
     1
102
RTVSPropertyOp3
 70
     1
102
RTVSPropertyOp4
 70
     1
102
RTVSPropertyOp5
 70
     1
102
RTVSPropertyOp6
 70
     1
102
RTVSPropertyOp7
 70
     1
102
RTVSPropertyOp8
 70
     1
102
RTVSPropertyOp9
 70
     1
102
RTVSPropertyOp10
 70
     1
102
RTVSPropertyOp11
 70
     1
102
RTVSPropertyOp12
 70
     1
102
RTVSPropertyOp13
 70
     1
102
RTVSPropertyOp14
 70
     1
102
RTVSPropertyOp15
 70
     1
102
RTVSPropertyOp16
 70
     1
102
RTVSPropertyOp17
 70
     1
102
RTVSPropertyOp18
 70
     1
102
RTVSPropertyOp19
 70
     1
102
RTVSPropertyOp20
 70
     1
102
RTVSPropertyOp21
 70
     1
102
RTVSPropertyOp22
 70
     1
102
RTVSPropertyOp23
 70
     1
102
RTVSPropertyOp24
 70
     1
102
RTVSPropertyOp25
 70
     1
102
RTVSPropertyOp26
 70
     1
102
RTVSPropertyOp27
 70
     1
102
RTVSPropertyOp28
 70
     1
102
RTVSPropertyOp29
 70
     1
102
RTVSPropertyOp30
 70
     1
102
RTVSPropertyOp31
 70
     1
102
RTVSPropertyOp32
 70
     1
102
RTVSPropertyOp33
 70
     1
102
RTVSPropertyOp34
 70
     1
102
RTVSPropertyOp35
 70
     1
102
RTVSPropertyOp36
 70
     1
102
RTVSPropertyOp37
 70
     1
102
RTVSPropertyOp38
 70
     1
102
RTVSPropertyOp39
 70
     1
102
RTVSPropertyOp40
 70
     1
102
RTVSPropertyOp41
 70
     1
102
RTVSPropertyOp42
 70
     1
102
RTVSPropertyOp43
 70
     1
102
RTVSPropertyOp44
 70
     1
102
RTVSPropertyOp45
 70
     1
102
RTVSPropertyOp46
 70
     1
102
RTVSPropertyOp47
 70
     1
102
RTVSPropertyOp48
 70
     1
102
RTVSPropertyOp49
 70
     1
102
RTVSPropertyOp50
 70
     1
102
RTVSPropertyOp51
 70
     0
102
RTVSPropertyOp52
 70
     0
102
RTVSPropertyOp53
 70
     1
102
RTVSPropertyOp54
 70
     1
102
RTVSPropertyOp55
 70
     1
102
RTVSPropertyOp56
 70
     1
102
RTVSPropertyOp57
 70
     1
102
RTVSPropertyOp58
 70
     1
102
RTVSPropertyOp59
 70
     1
102
RTVSPropertyOp60
 70
     1
102
RTVSPropertyOp61
 70
     1
102
RTVSPropertyOp62
 70
     1
  0
XRECORD
  5
12216
102
{ACAD_REACTORS
330
12215
102
}
330
12215
100
AcDbXrecord
280
     1
102
RTVSPost2010Prop28
280
     0
102
RTVSPost2010PropOp28
 70
     1
102
RTVSPost2010Prop29
280
     1
102
RTVSPost2010PropOp29
 70
     1
102
RTVSPost2010Prop30
280
     1
102
RTVSPost2010PropOp30
 70
     1
102
RTVSPost2010Prop31
280
     0
102
RTVSPost2010PropOp31
 70
     1
102
RTVSPost2010Prop32
280
     0
102
RTVSPost2010PropOp32
 70
     1
102
RTVSPost2010Prop33
280
     0
102
RTVSPost2010PropOp33
 70
     1
102
RTVSPost2010Prop34
280
     0
102
RTVSPost2010PropOp34
 70
     1
102
RTVSPost2010Prop35
280
     0
102
RTVSPost2010PropOp35
 70
     1
102
RTVSPost2010Prop36
280
     0
102
RTVSPost2010PropOp36
 70
     1
102
RTVSPost2010Prop37
 90
       50
102
RTVSPost2010PropOp37
 70
     1
102
RTVSPost2010Prop38
140
0.0
102
RTVSPost2010PropOp38
 70
     1
102
RTVSPost2010Prop39
140
1.0
102
RTVSPost2010PropOp39
 70
     1
102
RTVSPost2010Prop40
 90
        0
102
RTVSPost2010PropOp40
 70
     1
102
RTVSPost2010Prop41ColorIndex
 90
       18
102
RTVSPost2010Prop41ColorRGB
 90
        0
102
RTVSPost2010PropOp41
 70
     1
102
RTVSPost2010Prop42
 90
       50
102
RTVSPost2010PropOp42
 70
     1
102
RTVSPost2010Prop43
 90
        3
102
RTVSPost2010PropOp43
 70
     1
102
RTVSPost2010Prop44ColorIndex
 90
        5
102
RTVSPost2010Prop44ColorRGB
 90
      255
102
RTVSPost2010PropOp44
 70
     1
102
RTVSPost2010Prop45
280
     0
102
RTVSPost2010PropOp45
 70
     1
102
RTVSPost2010Prop46
 90
       50
102
RTVSPost2010PropOp46
 70
     1
102
RTVSPost2010Prop47
 90
       50
102
RTVSPost2010PropOp47
 70
     1
102
RTVSPost2010Prop48
 90
       50
102
RTVSPost2010PropOp48
 70
     1
102
RTVSPost2010Prop49
280
     0
102
RTVSPost2010PropOp49
 70
     1
102
RTVSPost2010Prop50
 90
       50
102
RTVSPost2010PropOp50
 70
     1
102
RTVSPost2010Prop51ColorIndex
 90
      256
102
RTVSPost2010Prop51ColorRGB
 90
-16777216
102
RTVSPost2010PropOp51
 70
     0
102
RTVSPost2010Prop52
140
1.0
102
RTVSPost2010PropOp52
 70
     0
102
RTVSPost2010Prop53
 90
        2
102
RTVSPost2010PropOp53
 70
     1
102
RTVSPost2010Prop54
  1
strokes_ogs.tif
102
RTVSPost2010PropOp54
 70
     1
102
RTVSPost2010Prop55
280
     0
102
RTVSPost2010PropOp55
 70
     1
102
RTVSPost2010Prop56
140
1.0
102
RTVSPost2010PropOp56
 70
     1
102
RTVSPost2010Prop57
140
1.0
102
RTVSPost2010PropOp57
 70
     1
102
RTVSPropertyOp0
 70
     1
102
RTVSPropertyOp1
 70
     1
102
RTVSPropertyOp2
 70
     1
102
RTVSPropertyOp3
 70
     1
102
RTVSPropertyOp4
 70
     1
102
RTVSPropertyOp5
 70
     1
102
RTVSPropertyOp6
 70
     1
102
RTVSPropertyOp7
 70
     1
102
RTVSPropertyOp8
 70
     1
102
RTVSPropertyOp9
 70
     1
102
RTVSPropertyOp10
 70
     1
102
RTVSPropertyOp11
 70
     1
102
RTVSPropertyOp12
 70
     1
102
RTVSPropertyOp13
 70
     1
102
RTVSPropertyOp14
 70
     1
102
RTVSPropertyOp15
 70
     1
102
RTVSPropertyOp16
 70
     1
102
RTVSPropertyOp17
 70
     1
102
RTVSPropertyOp18
 70
     1
102
RTVSPropertyOp19
 70
     1
102
RTVSPropertyOp20
 70
     1
102
RTVSPropertyOp21
 70
     1
102
RTVSPropertyOp22
 70
     1
102
RTVSPropertyOp23
 70
     1
102
RTVSPropertyOp24
 70
     1
102
RTVSPropertyOp25
 70
     1
102
RTVSPropertyOp26
 70
     1
102
RTVSPropertyOp27
 70
     1
102
RTVSPropertyOp28
 70
     1
102
RTVSPropertyOp29
 70
     1
102
RTVSPropertyOp30
 70
     1
102
RTVSPropertyOp31
 70
     1
102
RTVSPropertyOp32
 70
     1
102
RTVSPropertyOp33
 70
     1
102
RTVSPropertyOp34
 70
     1
102
RTVSPropertyOp35
 70
     1
102
RTVSPropertyOp36
 70
     1
102
RTVSPropertyOp37
 70
     1
102
RTVSPropertyOp38
 70
     1
102
RTVSPropertyOp39
 70
     1
102
RTVSPropertyOp40
 70
     1
102
RTVSPropertyOp41
 70
     1
102
RTVSPropertyOp42
 70
     1
102
RTVSPropertyOp43
 70
     1
102
RTVSPropertyOp44
 70
     1
102
RTVSPropertyOp45
 70
     1
102
RTVSPropertyOp46
 70
     1
102
RTVSPropertyOp47
 70
     1
102
RTVSPropertyOp48
 70
     1
102
RTVSPropertyOp49
 70
     1
102
RTVSPropertyOp50
 70
     1
102
RTVSPropertyOp51
 70
     0
102
RTVSPropertyOp52
 70
     0
102
RTVSPropertyOp53
 70
     1
102
RTVSPropertyOp54
 70
     1
102
RTVSPropertyOp55
 70
     1
102
RTVSPropertyOp56
 70
     1
102
RTVSPropertyOp57
 70
     1
102
RTVSPropertyOp58
 70
     1
102
RTVSPropertyOp59
 70
     1
102
RTVSPropertyOp60
 70
     1
102
RTVSPropertyOp61
 70
     1
102
RTVSPropertyOp62
 70
     1
  0
XRECORD
  5
12218
102
{ACAD_REACTORS
330
12217
102
}
330
12217
100
AcDbXrecord
280
     1
102
RTVSPost2010Prop28
280
     0
102
RTVSPost2010PropOp28
 70
     1
102
RTVSPost2010Prop29
280
     1
102
RTVSPost2010PropOp29
 70
     1
102
RTVSPost2010Prop30
280
     1
102
RTVSPost2010PropOp30
 70
     1
102
RTVSPost2010Prop31
280
     0
102
RTVSPost2010PropOp31
 70
     1
102
RTVSPost2010Prop32
280
     0
102
RTVSPost2010PropOp32
 70
     1
102
RTVSPost2010Prop33
280
     0
102
RTVSPost2010PropOp33
 70
     1
102
RTVSPost2010Prop34
280
     0
102
RTVSPost2010PropOp34
 70
     1
102
RTVSPost2010Prop35
280
     0
102
RTVSPost2010PropOp35
 70
     1
102
RTVSPost2010Prop36
280
     0
102
RTVSPost2010PropOp36
 70
     1
102
RTVSPost2010Prop37
 90
       50
102
RTVSPost2010PropOp37
 70
     1
102
RTVSPost2010Prop38
140
0.0
102
RTVSPost2010PropOp38
 70
     1
102
RTVSPost2010Prop39
140
1.0
102
RTVSPost2010PropOp39
 70
     1
102
RTVSPost2010Prop40
 90
        0
102
RTVSPost2010PropOp40
 70
     1
102
RTVSPost2010Prop41ColorIndex
 90
       18
102
RTVSPost2010Prop41ColorRGB
 90
        0
102
RTVSPost2010PropOp41
 70
     1
102
RTVSPost2010Prop42
 90
       50
102
RTVSPost2010PropOp42
 70
     1
102
RTVSPost2010Prop43
 90
        3
102
RTVSPost2010PropOp43
 70
     1
102
RTVSPost2010Prop44ColorIndex
 90
        5
102
RTVSPost2010Prop44ColorRGB
 90
      255
102
RTVSPost2010PropOp44
 70
     1
102
RTVSPost2010Prop45
280
     0
102
RTVSPost2010PropOp45
 70
     1
102
RTVSPost2010Prop46
 90
       50
102
RTVSPost2010PropOp46
 70
     1
102
RTVSPost2010Prop47
 90
       50
102
RTVSPost2010PropOp47
 70
     1
102
RTVSPost2010Prop48
 90
       50
102
RTVSPost2010PropOp48
 70
     1
102
RTVSPost2010Prop49
280
     0
102
RTVSPost2010PropOp49
 70
     1
102
RTVSPost2010Prop50
 90
       50
102
RTVSPost2010PropOp50
 70
     1
102
RTVSPost2010Prop51ColorIndex
 90
      256
102
RTVSPost2010Prop51ColorRGB
 90
-16777216
102
RTVSPost2010PropOp51
 70
     0
102
RTVSPost2010Prop52
140
1.0
102
RTVSPost2010PropOp52
 70
     0
102
RTVSPost2010Prop53
 90
        2
102
RTVSPost2010PropOp53
 70
     1
102
RTVSPost2010Prop54
  1
strokes_ogs.tif
102
RTVSPost2010PropOp54
 70
     1
102
RTVSPost2010Prop55
280
     0
102
RTVSPost2010PropOp55
 70
     1
102
RTVSPost2010Prop56
140
1.0
102
RTVSPost2010PropOp56
 70
     1
102
RTVSPost2010Prop57
140
1.0
102
RTVSPost2010PropOp57
 70
     1
102
RTVSPropertyOp0
 70
     1
102
RTVSPropertyOp1
 70
     1
102
RTVSPropertyOp2
 70
     1
102
RTVSPropertyOp3
 70
     1
102
RTVSPropertyOp4
 70
     1
102
RTVSPropertyOp5
 70
     1
102
RTVSPropertyOp6
 70
     1
102
RTVSPropertyOp7
 70
     1
102
RTVSPropertyOp8
 70
     1
102
RTVSPropertyOp9
 70
     1
102
RTVSPropertyOp10
 70
     1
102
RTVSPropertyOp11
 70
     1
102
RTVSPropertyOp12
 70
     1
102
RTVSPropertyOp13
 70
     1
102
RTVSPropertyOp14
 70
     1
102
RTVSPropertyOp15
 70
     1
102
RTVSPropertyOp16
 70
     1
102
RTVSPropertyOp17
 70
     1
102
RTVSPropertyOp18
 70
     1
102
RTVSPropertyOp19
 70
     1
102
RTVSPropertyOp20
 70
     1
102
RTVSPropertyOp21
 70
     1
102
RTVSPropertyOp22
 70
     1
102
RTVSPropertyOp23
 70
     1
102
RTVSPropertyOp24
 70
     1
102
RTVSPropertyOp25
 70
     1
102
RTVSPropertyOp26
 70
     1
102
RTVSPropertyOp27
 70
     1
102
RTVSPropertyOp28
 70
     1
102
RTVSPropertyOp29
 70
     1
102
RTVSPropertyOp30
 70
     1
102
RTVSPropertyOp31
 70
     1
102
RTVSPropertyOp32
 70
     1
102
RTVSPropertyOp33
 70
     1
102
RTVSPropertyOp34
 70
     1
102
RTVSPropertyOp35
 70
     1
102
RTVSPropertyOp36
 70
     1
102
RTVSPropertyOp37
 70
     1
102
RTVSPropertyOp38
 70
     1
102
RTVSPropertyOp39
 70
     1
102
RTVSPropertyOp40
 70
     1
102
RTVSPropertyOp41
 70
     1
102
RTVSPropertyOp42
 70
     1
102
RTVSPropertyOp43
 70
     1
102
RTVSPropertyOp44
 70
     1
102
RTVSPropertyOp45
 70
     1
102
RTVSPropertyOp46
 70
     1
102
RTVSPropertyOp47
 70
     1
102
RTVSPropertyOp48
 70
     1
102
RTVSPropertyOp49
 70
     1
102
RTVSPropertyOp50
 70
     1
102
RTVSPropertyOp51
 70
     0
102
RTVSPropertyOp52
 70
     0
102
RTVSPropertyOp53
 70
     1
102
RTVSPropertyOp54
 70
     1
102
RTVSPropertyOp55
 70
     1
102
RTVSPropertyOp56
 70
     1
102
RTVSPropertyOp57
 70
     1
102
RTVSPropertyOp58
 70
     1
102
RTVSPropertyOp59
 70
     1
102
RTVSPropertyOp60
 70
     1
102
RTVSPropertyOp61
 70
     1
102
RTVSPropertyOp62
 70
     1
  0
XRECORD
  5
12220
102
{ACAD_REACTORS
330
1221F
102
}
330
1221F
100
AcDbXrecord
280
     1
102
RTVSPost2010Prop28
280
     0
102
RTVSPost2010PropOp28
 70
     1
102
RTVSPost2010Prop29
280
     1
102
RTVSPost2010PropOp29
 70
     1
102
RTVSPost2010Prop30
280
     1
102
RTVSPost2010PropOp30
 70
     1
102
RTVSPost2010Prop31
280
     0
102
RTVSPost2010PropOp31
 70
     1
102
RTVSPost2010Prop32
280
     0
102
RTVSPost2010PropOp32
 70
     1
102
RTVSPost2010Prop33
280
     0
102
RTVSPost2010PropOp33
 70
     1
102
RTVSPost2010Prop34
280
     0
102
RTVSPost2010PropOp34
 70
     1
102
RTVSPost2010Prop35
280
     0
102
RTVSPost2010PropOp35
 70
     1
102
RTVSPost2010Prop36
280
     0
102
RTVSPost2010PropOp36
 70
     1
102
RTVSPost2010Prop37
 90
       50
102
RTVSPost2010PropOp37
 70
     1
102
RTVSPost2010Prop38
140
0.0
102
RTVSPost2010PropOp38
 70
     1
102
RTVSPost2010Prop39
140
1.0
102
RTVSPost2010PropOp39
 70
     1
102
RTVSPost2010Prop40
 90
        0
102
RTVSPost2010PropOp40
 70
     1
102
RTVSPost2010Prop41ColorIndex
 90
       18
102
RTVSPost2010Prop41ColorRGB
 90
        0
102
RTVSPost2010PropOp41
 70
     1
102
RTVSPost2010Prop42
 90
       50
102
RTVSPost2010PropOp42
 70
     1
102
RTVSPost2010Prop43
 90
        3
102
RTVSPost2010PropOp43
 70
     1
102
RTVSPost2010Prop44ColorIndex
 90
        5
102
RTVSPost2010Prop44ColorRGB
 90
      255
102
RTVSPost2010PropOp44
 70
     1
102
RTVSPost2010Prop45
280
     0
102
RTVSPost2010PropOp45
 70
     1
102
RTVSPost2010Prop46
 90
       50
102
RTVSPost2010PropOp46
 70
     1
102
RTVSPost2010Prop47
 90
       50
102
RTVSPost2010PropOp47
 70
     1
102
RTVSPost2010Prop48
 90
       50
102
RTVSPost2010PropOp48
 70
     1
102
RTVSPost2010Prop49
280
     0
102
RTVSPost2010PropOp49
 70
     1
102
RTVSPost2010Prop50
 90
       50
102
RTVSPost2010PropOp50
 70
     1
102
RTVSPost2010Prop51ColorIndex
 90
      256
102
RTVSPost2010Prop51ColorRGB
 90
-16777216
102
RTVSPost2010PropOp51
 70
     0
102
RTVSPost2010Prop52
140
1.0
102
RTVSPost2010PropOp52
 70
     0
102
RTVSPost2010Prop53
 90
        2
102
RTVSPost2010PropOp53
 70
     1
102
RTVSPost2010Prop54
  1
strokes_ogs.tif
102
RTVSPost2010PropOp54
 70
     1
102
RTVSPost2010Prop55
280
     0
102
RTVSPost2010PropOp55
 70
     1
102
RTVSPost2010Prop56
140
1.0
102
RTVSPost2010PropOp56
 70
     1
102
RTVSPost2010Prop57
140
1.0
102
RTVSPost2010PropOp57
 70
     1
102
RTVSPropertyOp0
 70
     1
102
RTVSPropertyOp1
 70
     1
102
RTVSPropertyOp2
 70
     1
102
RTVSPropertyOp3
 70
     1
102
RTVSPropertyOp4
 70
     1
102
RTVSPropertyOp5
 70
     1
102
RTVSPropertyOp6
 70
     1
102
RTVSPropertyOp7
 70
     1
102
RTVSPropertyOp8
 70
     1
102
RTVSPropertyOp9
 70
     1
102
RTVSPropertyOp10
 70
     1
102
RTVSPropertyOp11
 70
     1
102
RTVSPropertyOp12
 70
     1
102
RTVSPropertyOp13
 70
     1
102
RTVSPropertyOp14
 70
     1
102
RTVSPropertyOp15
 70
     1
102
RTVSPropertyOp16
 70
     1
102
RTVSPropertyOp17
 70
     1
102
RTVSPropertyOp18
 70
     1
102
RTVSPropertyOp19
 70
     1
102
RTVSPropertyOp20
 70
     1
102
RTVSPropertyOp21
 70
     1
102
RTVSPropertyOp22
 70
     1
102
RTVSPropertyOp23
 70
     1
102
RTVSPropertyOp24
 70
     1
102
RTVSPropertyOp25
 70
     1
102
RTVSPropertyOp26
 70
     1
102
RTVSPropertyOp27
 70
     1
102
RTVSPropertyOp28
 70
     1
102
RTVSPropertyOp29
 70
     1
102
RTVSPropertyOp30
 70
     1
102
RTVSPropertyOp31
 70
     1
102
RTVSPropertyOp32
 70
     1
102
RTVSPropertyOp33
 70
     1
102
RTVSPropertyOp34
 70
     1
102
RTVSPropertyOp35
 70
     1
102
RTVSPropertyOp36
 70
     1
102
RTVSPropertyOp37
 70
     1
102
RTVSPropertyOp38
 70
     1
102
RTVSPropertyOp39
 70
     1
102
RTVSPropertyOp40
 70
     1
102
RTVSPropertyOp41
 70
     1
102
RTVSPropertyOp42
 70
     1
102
RTVSPropertyOp43
 70
     1
102
RTVSPropertyOp44
 70
     1
102
RTVSPropertyOp45
 70
     1
102
RTVSPropertyOp46
 70
     1
102
RTVSPropertyOp47
 70
     1
102
RTVSPropertyOp48
 70
     1
102
RTVSPropertyOp49
 70
     1
102
RTVSPropertyOp50
 70
     1
102
RTVSPropertyOp51
 70
     0
102
RTVSPropertyOp52
 70
     0
102
RTVSPropertyOp53
 70
     1
102
RTVSPropertyOp54
 70
     1
102
RTVSPropertyOp55
 70
     1
102
RTVSPropertyOp56
 70
     1
102
RTVSPropertyOp57
 70
     1
102
RTVSPropertyOp58
 70
     1
102
RTVSPropertyOp59
 70
     1
102
RTVSPropertyOp60
 70
     1
102
RTVSPropertyOp61
 70
     1
102
RTVSPropertyOp62
 70
     1
  0
XRECORD
  5
1223C
102
{ACAD_REACTORS
330
1223B
102
}
330
1223B
100
AcDbXrecord
280
     1
102
RTVSPost2010Prop28
280
     0
102
RTVSPost2010PropOp28
 70
     1
102
RTVSPost2010Prop29
280
     1
102
RTVSPost2010PropOp29
 70
     1
102
RTVSPost2010Prop30
280
     1
102
RTVSPost2010PropOp30
 70
     1
102
RTVSPost2010Prop31
280
     0
102
RTVSPost2010PropOp31
 70
     1
102
RTVSPost2010Prop32
280
     0
102
RTVSPost2010PropOp32
 70
     1
102
RTVSPost2010Prop33
280
     0
102
RTVSPost2010PropOp33
 70
     1
102
RTVSPost2010Prop34
280
     0
102
RTVSPost2010PropOp34
 70
     1
102
RTVSPost2010Prop35
280
     0
102
RTVSPost2010PropOp35
 70
     1
102
RTVSPost2010Prop36
280
     0
102
RTVSPost2010PropOp36
 70
     1
102
RTVSPost2010Prop37
 90
       50
102
RTVSPost2010PropOp37
 70
     0
102
RTVSPost2010Prop38
140
0.0
102
RTVSPost2010PropOp38
 70
     0
102
RTVSPost2010Prop39
140
1.0
102
RTVSPost2010PropOp39
 70
     0
102
RTVSPost2010Prop40
 90
        0
102
RTVSPost2010PropOp40
 70
     0
102
RTVSPost2010Prop41ColorIndex
 90
       18
102
RTVSPost2010Prop41ColorRGB
 90
        0
102
RTVSPost2010PropOp41
 70
     0
102
RTVSPost2010Prop42
 90
       50
102
RTVSPost2010PropOp42
 70
     0
102
RTVSPost2010Prop43
 90
        3
102
RTVSPost2010PropOp43
 70
     0
102
RTVSPost2010Prop44ColorIndex
 90
        5
102
RTVSPost2010Prop44ColorRGB
 90
      255
102
RTVSPost2010PropOp44
 70
     0
102
RTVSPost2010Prop45
280
     0
102
RTVSPost2010PropOp45
 70
     1
102
RTVSPost2010Prop46
 90
       50
102
RTVSPost2010PropOp46
 70
     0
102
RTVSPost2010Prop47
 90
       50
102
RTVSPost2010PropOp47
 70
     0
102
RTVSPost2010Prop48
 90
       50
102
RTVSPost2010PropOp48
 70
     0
102
RTVSPost2010Prop49
280
     0
102
RTVSPost2010PropOp49
 70
     1
102
RTVSPost2010Prop50
 90
       50
102
RTVSPost2010PropOp50
 70
     0
102
RTVSPost2010Prop51ColorIndex
 90
      256
102
RTVSPost2010Prop51ColorRGB
 90
-16777216
102
RTVSPost2010PropOp51
 70
     0
102
RTVSPost2010Prop52
140
1.0
102
RTVSPost2010PropOp52
 70
     0
102
RTVSPost2010Prop53
 90
        2
102
RTVSPost2010PropOp53
 70
     0
102
RTVSPost2010Prop54
  1
strokes_ogs.tif
102
RTVSPost2010PropOp54
 70
     0
102
RTVSPost2010Prop55
280
     0
102
RTVSPost2010PropOp55
 70
     1
102
RTVSPost2010Prop56
140
1.0
102
RTVSPost2010PropOp56
 70
     0
102
RTVSPost2010Prop57
140
1.0
102
RTVSPost2010PropOp57
 70
     0
102
RTVSPropertyOp0
 70
     0
102
RTVSPropertyOp1
 70
     0
102
RTVSPropertyOp2
 70
     0
102
RTVSPropertyOp3
 70
     0
102
RTVSPropertyOp4
 70
     0
102
RTVSPropertyOp5
 70
     0
102
RTVSPropertyOp6
 70
     0
102
RTVSPropertyOp7
 70
     0
102
RTVSPropertyOp8
 70
     0
102
RTVSPropertyOp9
 70
     0
102
RTVSPropertyOp10
 70
     0
102
RTVSPropertyOp11
 70
     0
102
RTVSPropertyOp12
 70
     0
102
RTVSPropertyOp13
 70
     0
102
RTVSPropertyOp14
 70
     2
102
RTVSPropertyOp15
 70
     0
102
RTVSPropertyOp16
 70
     0
102
RTVSPropertyOp17
 70
     0
102
RTVSPropertyOp18
 70
     0
102
RTVSPropertyOp19
 70
     0
102
RTVSPropertyOp20
 70
     0
102
RTVSPropertyOp21
 70
     0
102
RTVSPropertyOp22
 70
     0
102
RTVSPropertyOp23
 70
     0
102
RTVSPropertyOp24
 70
     0
102
RTVSPropertyOp25
 70
     0
102
RTVSPropertyOp26
 70
     0
102
RTVSPropertyOp27
 70
     0
102
RTVSPropertyOp28
 70
     1
102
RTVSPropertyOp29
 70
     1
102
RTVSPropertyOp30
 70
     1
102
RTVSPropertyOp31
 70
     1
102
RTVSPropertyOp32
 70
     1
102
RTVSPropertyOp33
 70
     1
102
RTVSPropertyOp34
 70
     1
102
RTVSPropertyOp35
 70
     1
102
RTVSPropertyOp36
 70
     1
102
RTVSPropertyOp37
 70
     0
102
RTVSPropertyOp38
 70
     0
102
RTVSPropertyOp39
 70
     0
102
RTVSPropertyOp40
 70
     0
102
RTVSPropertyOp41
 70
     0
102
RTVSPropertyOp42
 70
     0
102
RTVSPropertyOp43
 70
     0
102
RTVSPropertyOp44
 70
     0
102
RTVSPropertyOp45
 70
     1
102
RTVSPropertyOp46
 70
     0
102
RTVSPropertyOp47
 70
     0
102
RTVSPropertyOp48
 70
     0
102
RTVSPropertyOp49
 70
     1
102
RTVSPropertyOp50
 70
     0
102
RTVSPropertyOp51
 70
     0
102
RTVSPropertyOp52
 70
     0
102
RTVSPropertyOp53
 70
     0
102
RTVSPropertyOp54
 70
     0
102
RTVSPropertyOp55
 70
     1
102
RTVSPropertyOp56
 70
     0
102
RTVSPropertyOp57
 70
     0
102
RTVSPropertyOp58
 70
     0
102
RTVSPropertyOp59
 70
     0
102
RTVSPropertyOp60
 70
     0
102
RTVSPropertyOp61
 70
     0
102
RTVSPropertyOp62
 70
     0
  0
XRECORD
  5
1222C
102
{ACAD_REACTORS
330
1222B
102
}
330
1222B
100
AcDbXrecord
280
     1
102
RTVSPost2010Prop28
280
     0
102
RTVSPost2010PropOp28
 70
     1
102
RTVSPost2010Prop29
280
     1
102
RTVSPost2010PropOp29
 70
     1
102
RTVSPost2010Prop30
280
     1
102
RTVSPost2010PropOp30
 70
     1
102
RTVSPost2010Prop31
280
     0
102
RTVSPost2010PropOp31
 70
     1
102
RTVSPost2010Prop32
280
     0
102
RTVSPost2010PropOp32
 70
     1
102
RTVSPost2010Prop33
280
     0
102
RTVSPost2010PropOp33
 70
     1
102
RTVSPost2010Prop34
280
     0
102
RTVSPost2010PropOp34
 70
     1
102
RTVSPost2010Prop35
280
     0
102
RTVSPost2010PropOp35
 70
     1
102
RTVSPost2010Prop36
280
     0
102
RTVSPost2010PropOp36
 70
     1
102
RTVSPost2010Prop37
 90
       50
102
RTVSPost2010PropOp37
 70
     1
102
RTVSPost2010Prop38
140
0.0
102
RTVSPost2010PropOp38
 70
     1
102
RTVSPost2010Prop39
140
1.0
102
RTVSPost2010PropOp39
 70
     1
102
RTVSPost2010Prop40
 90
        0
102
RTVSPost2010PropOp40
 70
     1
102
RTVSPost2010Prop41ColorIndex
 90
       18
102
RTVSPost2010Prop41ColorRGB
 90
        0
102
RTVSPost2010PropOp41
 70
     1
102
RTVSPost2010Prop42
 90
       50
102
RTVSPost2010PropOp42
 70
     1
102
RTVSPost2010Prop43
 90
        3
102
RTVSPost2010PropOp43
 70
     1
102
RTVSPost2010Prop44ColorIndex
 90
        5
102
RTVSPost2010Prop44ColorRGB
 90
      255
102
RTVSPost2010PropOp44
 70
     1
102
RTVSPost2010Prop45
280
     0
102
RTVSPost2010PropOp45
 70
     1
102
RTVSPost2010Prop46
 90
       50
102
RTVSPost2010PropOp46
 70
     1
102
RTVSPost2010Prop47
 90
       50
102
RTVSPost2010PropOp47
 70
     1
102
RTVSPost2010Prop48
 90
       50
102
RTVSPost2010PropOp48
 70
     1
102
RTVSPost2010Prop49
280
     0
102
RTVSPost2010PropOp49
 70
     1
102
RTVSPost2010Prop50
 90
       50
102
RTVSPost2010PropOp50
 70
     1
102
RTVSPost2010Prop51ColorIndex
 90
      256
102
RTVSPost2010Prop51ColorRGB
 90
-16777216
102
RTVSPost2010PropOp51
 70
     0
102
RTVSPost2010Prop52
140
1.0
102
RTVSPost2010PropOp52
 70
     0
102
RTVSPost2010Prop53
 90
        2
102
RTVSPost2010PropOp53
 70
     1
102
RTVSPost2010Prop54
  1
strokes_ogs.tif
102
RTVSPost2010PropOp54
 70
     1
102
RTVSPost2010Prop55
280
     0
102
RTVSPost2010PropOp55
 70
     1
102
RTVSPost2010Prop56
140
1.0
102
RTVSPost2010PropOp56
 70
     1
102
RTVSPost2010Prop57
140
1.0
102
RTVSPost2010PropOp57
 70
     1
102
RTVSPropertyOp0
 70
     1
102
RTVSPropertyOp1
 70
     1
102
RTVSPropertyOp2
 70
     1
102
RTVSPropertyOp3
 70
     1
102
RTVSPropertyOp4
 70
     1
102
RTVSPropertyOp5
 70
     1
102
RTVSPropertyOp6
 70
     1
102
RTVSPropertyOp7
 70
     1
102
RTVSPropertyOp8
 70
     1
102
RTVSPropertyOp9
 70
     1
102
RTVSPropertyOp10
 70
     1
102
RTVSPropertyOp11
 70
     1
102
RTVSPropertyOp12
 70
     1
102
RTVSPropertyOp13
 70
     1
102
RTVSPropertyOp14
 70
     1
102
RTVSPropertyOp15
 70
     1
102
RTVSPropertyOp16
 70
     1
102
RTVSPropertyOp17
 70
     1
102
RTVSPropertyOp18
 70
     1
102
RTVSPropertyOp19
 70
     1
102
RTVSPropertyOp20
 70
     1
102
RTVSPropertyOp21
 70
     1
102
RTVSPropertyOp22
 70
     1
102
RTVSPropertyOp23
 70
     1
102
RTVSPropertyOp24
 70
     1
102
RTVSPropertyOp25
 70
     1
102
RTVSPropertyOp26
 70
     1
102
RTVSPropertyOp27
 70
     1
102
RTVSPropertyOp28
 70
     1
102
RTVSPropertyOp29
 70
     1
102
RTVSPropertyOp30
 70
     1
102
RTVSPropertyOp31
 70
     1
102
RTVSPropertyOp32
 70
     1
102
RTVSPropertyOp33
 70
     1
102
RTVSPropertyOp34
 70
     1
102
RTVSPropertyOp35
 70
     1
102
RTVSPropertyOp36
 70
     1
102
RTVSPropertyOp37
 70
     1
102
RTVSPropertyOp38
 70
     1
102
RTVSPropertyOp39
 70
     1
102
RTVSPropertyOp40
 70
     1
102
RTVSPropertyOp41
 70
     1
102
RTVSPropertyOp42
 70
     1
102
RTVSPropertyOp43
 70
     1
102
RTVSPropertyOp44
 70
     1
102
RTVSPropertyOp45
 70
     1
102
RTVSPropertyOp46
 70
     1
102
RTVSPropertyOp47
 70
     1
102
RTVSPropertyOp48
 70
     1
102
RTVSPropertyOp49
 70
     1
102
RTVSPropertyOp50
 70
     1
102
RTVSPropertyOp51
 70
     0
102
RTVSPropertyOp52
 70
     0
102
RTVSPropertyOp53
 70
     1
102
RTVSPropertyOp54
 70
     1
102
RTVSPropertyOp55
 70
     1
102
RTVSPropertyOp56
 70
     1
102
RTVSPropertyOp57
 70
     1
102
RTVSPropertyOp58
 70
     1
102
RTVSPropertyOp59
 70
     1
102
RTVSPropertyOp60
 70
     1
102
RTVSPropertyOp61
 70
     1
102
RTVSPropertyOp62
 70
     1
  0
XRECORD
  5
1223E
102
{ACAD_REACTORS
330
1223D
102
}
330
1223D
100
AcDbXrecord
280
     1
102
RTVSPost2010Prop28
280
     0
102
RTVSPost2010PropOp28
 70
     1
102
RTVSPost2010Prop29
280
     1
102
RTVSPost2010PropOp29
 70
     1
102
RTVSPost2010Prop30
280
     1
102
RTVSPost2010PropOp30
 70
     1
102
RTVSPost2010Prop31
280
     0
102
RTVSPost2010PropOp31
 70
     1
102
RTVSPost2010Prop32
280
     0
102
RTVSPost2010PropOp32
 70
     1
102
RTVSPost2010Prop33
280
     0
102
RTVSPost2010PropOp33
 70
     1
102
RTVSPost2010Prop34
280
     0
102
RTVSPost2010PropOp34
 70
     1
102
RTVSPost2010Prop35
280
     0
102
RTVSPost2010PropOp35
 70
     1
102
RTVSPost2010Prop36
280
     0
102
RTVSPost2010PropOp36
 70
     1
102
RTVSPost2010Prop37
 90
       50
102
RTVSPost2010PropOp37
 70
     0
102
RTVSPost2010Prop38
140
0.0
102
RTVSPost2010PropOp38
 70
     0
102
RTVSPost2010Prop39
140
1.0
102
RTVSPost2010PropOp39
 70
     0
102
RTVSPost2010Prop40
 90
        0
102
RTVSPost2010PropOp40
 70
     0
102
RTVSPost2010Prop41ColorIndex
 90
       18
102
RTVSPost2010Prop41ColorRGB
 90
        0
102
RTVSPost2010PropOp41
 70
     0
102
RTVSPost2010Prop42
 90
       50
102
RTVSPost2010PropOp42
 70
     0
102
RTVSPost2010Prop43
 90
        3
102
RTVSPost2010PropOp43
 70
     0
102
RTVSPost2010Prop44ColorIndex
 90
        5
102
RTVSPost2010Prop44ColorRGB
 90
      255
102
RTVSPost2010PropOp44
 70
     0
102
RTVSPost2010Prop45
280
     0
102
RTVSPost2010PropOp45
 70
     1
102
RTVSPost2010Prop46
 90
       50
102
RTVSPost2010PropOp46
 70
     0
102
RTVSPost2010Prop47
 90
       50
102
RTVSPost2010PropOp47
 70
     0
102
RTVSPost2010Prop48
 90
       50
102
RTVSPost2010PropOp48
 70
     0
102
RTVSPost2010Prop49
280
     0
102
RTVSPost2010PropOp49
 70
     1
102
RTVSPost2010Prop50
 90
       50
102
RTVSPost2010PropOp50
 70
     0
102
RTVSPost2010Prop51ColorIndex
 90
      256
102
RTVSPost2010Prop51ColorRGB
 90
-16777216
102
RTVSPost2010PropOp51
 70
     0
102
RTVSPost2010Prop52
140
1.0
102
RTVSPost2010PropOp52
 70
     0
102
RTVSPost2010Prop53
 90
        2
102
RTVSPost2010PropOp53
 70
     0
102
RTVSPost2010Prop54
  1
strokes_ogs.tif
102
RTVSPost2010PropOp54
 70
     0
102
RTVSPost2010Prop55
280
     0
102
RTVSPost2010PropOp55
 70
     1
102
RTVSPost2010Prop56
140
1.0
102
RTVSPost2010PropOp56
 70
     0
102
RTVSPost2010Prop57
140
1.0
102
RTVSPost2010PropOp57
 70
     0
102
RTVSPropertyOp0
 70
     0
102
RTVSPropertyOp1
 70
     0
102
RTVSPropertyOp2
 70
     0
102
RTVSPropertyOp3
 70
     0
102
RTVSPropertyOp4
 70
     0
102
RTVSPropertyOp5
 70
     0
102
RTVSPropertyOp6
 70
     0
102
RTVSPropertyOp7
 70
     0
102
RTVSPropertyOp8
 70
     0
102
RTVSPropertyOp9
 70
     0
102
RTVSPropertyOp10
 70
     0
102
RTVSPropertyOp11
 70
     0
102
RTVSPropertyOp12
 70
     0
102
RTVSPropertyOp13
 70
     0
102
RTVSPropertyOp14
 70
     2
102
RTVSPropertyOp15
 70
     0
102
RTVSPropertyOp16
 70
     0
102
RTVSPropertyOp17
 70
     0
102
RTVSPropertyOp18
 70
     0
102
RTVSPropertyOp19
 70
     0
102
RTVSPropertyOp20
 70
     0
102
RTVSPropertyOp21
 70
     0
102
RTVSPropertyOp22
 70
     0
102
RTVSPropertyOp23
 70
     0
102
RTVSPropertyOp24
 70
     0
102
RTVSPropertyOp25
 70
     0
102
RTVSPropertyOp26
 70
     0
102
RTVSPropertyOp27
 70
     0
102
RTVSPropertyOp28
 70
     1
102
RTVSPropertyOp29
 70
     1
102
RTVSPropertyOp30
 70
     1
102
RTVSPropertyOp31
 70
     1
102
RTVSPropertyOp32
 70
     1
102
RTVSPropertyOp33
 70
     1
102
RTVSPropertyOp34
 70
     1
102
RTVSPropertyOp35
 70
     1
102
RTVSPropertyOp36
 70
     1
102
RTVSPropertyOp37
 70
     0
102
RTVSPropertyOp38
 70
     0
102
RTVSPropertyOp39
 70
     0
102
RTVSPropertyOp40
 70
     0
102
RTVSPropertyOp41
 70
     0
102
RTVSPropertyOp42
 70
     0
102
RTVSPropertyOp43
 70
     0
102
RTVSPropertyOp44
 70
     0
102
RTVSPropertyOp45
 70
     1
102
RTVSPropertyOp46
 70
     0
102
RTVSPropertyOp47
 70
     0
102
RTVSPropertyOp48
 70
     0
102
RTVSPropertyOp49
 70
     1
102
RTVSPropertyOp50
 70
     0
102
RTVSPropertyOp51
 70
     0
102
RTVSPropertyOp52
 70
     0
102
RTVSPropertyOp53
 70
     0
102
RTVSPropertyOp54
 70
     0
102
RTVSPropertyOp55
 70
     1
102
RTVSPropertyOp56
 70
     0
102
RTVSPropertyOp57
 70
     0
102
RTVSPropertyOp58
 70
     0
102
RTVSPropertyOp59
 70
     0
102
RTVSPropertyOp60
 70
     0
102
RTVSPropertyOp61
 70
     0
102
RTVSPropertyOp62
 70
     0
  0
XRECORD
  5
12224
102
{ACAD_REACTORS
330
12223
102
}
330
12223
100
AcDbXrecord
280
     1
102
RTVSPost2010Prop28
280
     0
102
RTVSPost2010PropOp28
 70
     1
102
RTVSPost2010Prop29
280
     1
102
RTVSPost2010PropOp29
 70
     1
102
RTVSPost2010Prop30
280
     1
102
RTVSPost2010PropOp30
 70
     1
102
RTVSPost2010Prop31
280
     0
102
RTVSPost2010PropOp31
 70
     1
102
RTVSPost2010Prop32
280
     0
102
RTVSPost2010PropOp32
 70
     1
102
RTVSPost2010Prop33
280
     0
102
RTVSPost2010PropOp33
 70
     1
102
RTVSPost2010Prop34
280
     0
102
RTVSPost2010PropOp34
 70
     1
102
RTVSPost2010Prop35
280
     0
102
RTVSPost2010PropOp35
 70
     1
102
RTVSPost2010Prop36
280
     0
102
RTVSPost2010PropOp36
 70
     1
102
RTVSPost2010Prop37
 90
       50
102
RTVSPost2010PropOp37
 70
     1
102
RTVSPost2010Prop38
140
0.0
102
RTVSPost2010PropOp38
 70
     1
102
RTVSPost2010Prop39
140
1.0
102
RTVSPost2010PropOp39
 70
     1
102
RTVSPost2010Prop40
 90
        0
102
RTVSPost2010PropOp40
 70
     1
102
RTVSPost2010Prop41ColorIndex
 90
       18
102
RTVSPost2010Prop41ColorRGB
 90
        0
102
RTVSPost2010PropOp41
 70
     1
102
RTVSPost2010Prop42
 90
       50
102
RTVSPost2010PropOp42
 70
     1
102
RTVSPost2010Prop43
 90
        3
102
RTVSPost2010PropOp43
 70
     1
102
RTVSPost2010Prop44ColorIndex
 90
        5
102
RTVSPost2010Prop44ColorRGB
 90
      255
102
RTVSPost2010PropOp44
 70
     1
102
RTVSPost2010Prop45
280
     0
102
RTVSPost2010PropOp45
 70
     1
102
RTVSPost2010Prop46
 90
       50
102
RTVSPost2010PropOp46
 70
     1
102
RTVSPost2010Prop47
 90
       50
102
RTVSPost2010PropOp47
 70
     1
102
RTVSPost2010Prop48
 90
       50
102
RTVSPost2010PropOp48
 70
     1
102
RTVSPost2010Prop49
280
     0
102
RTVSPost2010PropOp49
 70
     1
102
RTVSPost2010Prop50
 90
       50
102
RTVSPost2010PropOp50
 70
     1
102
RTVSPost2010Prop51ColorIndex
 90
      256
102
RTVSPost2010Prop51ColorRGB
 90
-16777216
102
RTVSPost2010PropOp51
 70
     0
102
RTVSPost2010Prop52
140
1.0
102
RTVSPost2010PropOp52
 70
     0
102
RTVSPost2010Prop53
 90
        2
102
RTVSPost2010PropOp53
 70
     1
102
RTVSPost2010Prop54
  1
strokes_ogs.tif
102
RTVSPost2010PropOp54
 70
     1
102
RTVSPost2010Prop55
280
     0
102
RTVSPost2010PropOp55
 70
     1
102
RTVSPost2010Prop56
140
1.0
102
RTVSPost2010PropOp56
 70
     1
102
RTVSPost2010Prop57
140
1.0
102
RTVSPost2010PropOp57
 70
     1
102
RTVSPropertyOp0
 70
     1
102
RTVSPropertyOp1
 70
     1
102
RTVSPropertyOp2
 70
     1
102
RTVSPropertyOp3
 70
     1
102
RTVSPropertyOp4
 70
     1
102
RTVSPropertyOp5
 70
     1
102
RTVSPropertyOp6
 70
     1
102
RTVSPropertyOp7
 70
     1
102
RTVSPropertyOp8
 70
     1
102
RTVSPropertyOp9
 70
     1
102
RTVSPropertyOp10
 70
     1
102
RTVSPropertyOp11
 70
     1
102
RTVSPropertyOp12
 70
     1
102
RTVSPropertyOp13
 70
     1
102
RTVSPropertyOp14
 70
     1
102
RTVSPropertyOp15
 70
     1
102
RTVSPropertyOp16
 70
     1
102
RTVSPropertyOp17
 70
     1
102
RTVSPropertyOp18
 70
     1
102
RTVSPropertyOp19
 70
     1
102
RTVSPropertyOp20
 70
     1
102
RTVSPropertyOp21
 70
     1
102
RTVSPropertyOp22
 70
     1
102
RTVSPropertyOp23
 70
     1
102
RTVSPropertyOp24
 70
     1
102
RTVSPropertyOp25
 70
     1
102
RTVSPropertyOp26
 70
     1
102
RTVSPropertyOp27
 70
     1
102
RTVSPropertyOp28
 70
     1
102
RTVSPropertyOp29
 70
     1
102
RTVSPropertyOp30
 70
     1
102
RTVSPropertyOp31
 70
     1
102
RTVSPropertyOp32
 70
     1
102
RTVSPropertyOp33
 70
     1
102
RTVSPropertyOp34
 70
     1
102
RTVSPropertyOp35
 70
     1
102
RTVSPropertyOp36
 70
     1
102
RTVSPropertyOp37
 70
     1
102
RTVSPropertyOp38
 70
     1
102
RTVSPropertyOp39
 70
     1
102
RTVSPropertyOp40
 70
     1
102
RTVSPropertyOp41
 70
     1
102
RTVSPropertyOp42
 70
     1
102
RTVSPropertyOp43
 70
     1
102
RTVSPropertyOp44
 70
     1
102
RTVSPropertyOp45
 70
     1
102
RTVSPropertyOp46
 70
     1
102
RTVSPropertyOp47
 70
     1
102
RTVSPropertyOp48
 70
     1
102
RTVSPropertyOp49
 70
     1
102
RTVSPropertyOp50
 70
     1
102
RTVSPropertyOp51
 70
     0
102
RTVSPropertyOp52
 70
     0
102
RTVSPropertyOp53
 70
     1
102
RTVSPropertyOp54
 70
     1
102
RTVSPropertyOp55
 70
     1
102
RTVSPropertyOp56
 70
     1
102
RTVSPropertyOp57
 70
     1
102
RTVSPropertyOp58
 70
     1
102
RTVSPropertyOp59
 70
     1
102
RTVSPropertyOp60
 70
     1
102
RTVSPropertyOp61
 70
     1
102
RTVSPropertyOp62
 70
     1
  0
XRECORD
  5
1223A
102
{ACAD_REACTORS
330
12239
102
}
330
12239
100
AcDbXrecord
280
     1
102
RTVSPost2010Prop28
280
     0
102
RTVSPost2010PropOp28
 70
     1
102
RTVSPost2010Prop29
280
     1
102
RTVSPost2010PropOp29
 70
     1
102
RTVSPost2010Prop30
280
     1
102
RTVSPost2010PropOp30
 70
     1
102
RTVSPost2010Prop31
280
     0
102
RTVSPost2010PropOp31
 70
     1
102
RTVSPost2010Prop32
280
     0
102
RTVSPost2010PropOp32
 70
     1
102
RTVSPost2010Prop33
280
     0
102
RTVSPost2010PropOp33
 70
     1
102
RTVSPost2010Prop34
280
     0
102
RTVSPost2010PropOp34
 70
     1
102
RTVSPost2010Prop35
280
     0
102
RTVSPost2010PropOp35
 70
     1
102
RTVSPost2010Prop36
280
     0
102
RTVSPost2010PropOp36
 70
     1
102
RTVSPost2010Prop37
 90
       50
102
RTVSPost2010PropOp37
 70
     1
102
RTVSPost2010Prop38
140
0.0
102
RTVSPost2010PropOp38
 70
     1
102
RTVSPost2010Prop39
140
1.0
102
RTVSPost2010PropOp39
 70
     1
102
RTVSPost2010Prop40
 90
        0
102
RTVSPost2010PropOp40
 70
     1
102
RTVSPost2010Prop41ColorIndex
 90
       18
102
RTVSPost2010Prop41ColorRGB
 90
        0
102
RTVSPost2010PropOp41
 70
     1
102
RTVSPost2010Prop42
 90
       50
102
RTVSPost2010PropOp42
 70
     1
102
RTVSPost2010Prop43
 90
        3
102
RTVSPost2010PropOp43
 70
     1
102
RTVSPost2010Prop44ColorIndex
 90
        5
102
RTVSPost2010Prop44ColorRGB
 90
      255
102
RTVSPost2010PropOp44
 70
     1
102
RTVSPost2010Prop45
280
     0
102
RTVSPost2010PropOp45
 70
     1
102
RTVSPost2010Prop46
 90
       50
102
RTVSPost2010PropOp46
 70
     1
102
RTVSPost2010Prop47
 90
       50
102
RTVSPost2010PropOp47
 70
     1
102
RTVSPost2010Prop48
 90
       50
102
RTVSPost2010PropOp48
 70
     1
102
RTVSPost2010Prop49
280
     0
102
RTVSPost2010PropOp49
 70
     1
102
RTVSPost2010Prop50
 90
       50
102
RTVSPost2010PropOp50
 70
     1
102
RTVSPost2010Prop51ColorIndex
 90
      256
102
RTVSPost2010Prop51ColorRGB
 90
-16777216
102
RTVSPost2010PropOp51
 70
     0
102
RTVSPost2010Prop52
140
1.0
102
RTVSPost2010PropOp52
 70
     0
102
RTVSPost2010Prop53
 90
        2
102
RTVSPost2010PropOp53
 70
     1
102
RTVSPost2010Prop54
  1
strokes_ogs.tif
102
RTVSPost2010PropOp54
 70
     1
102
RTVSPost2010Prop55
280
     0
102
RTVSPost2010PropOp55
 70
     1
102
RTVSPost2010Prop56
140
1.0
102
RTVSPost2010PropOp56
 70
     1
102
RTVSPost2010Prop57
140
1.0
102
RTVSPost2010PropOp57
 70
     1
102
RTVSPropertyOp0
 70
     1
102
RTVSPropertyOp1
 70
     1
102
RTVSPropertyOp2
 70
     1
102
RTVSPropertyOp3
 70
     1
102
RTVSPropertyOp4
 70
     1
102
RTVSPropertyOp5
 70
     1
102
RTVSPropertyOp6
 70
     1
102
RTVSPropertyOp7
 70
     1
102
RTVSPropertyOp8
 70
     1
102
RTVSPropertyOp9
 70
     1
102
RTVSPropertyOp10
 70
     1
102
RTVSPropertyOp11
 70
     1
102
RTVSPropertyOp12
 70
     1
102
RTVSPropertyOp13
 70
     1
102
RTVSPropertyOp14
 70
     1
102
RTVSPropertyOp15
 70
     1
102
RTVSPropertyOp16
 70
     1
102
RTVSPropertyOp17
 70
     1
102
RTVSPropertyOp18
 70
     1
102
RTVSPropertyOp19
 70
     1
102
RTVSPropertyOp20
 70
     1
102
RTVSPropertyOp21
 70
     1
102
RTVSPropertyOp22
 70
     1
102
RTVSPropertyOp23
 70
     1
102
RTVSPropertyOp24
 70
     1
102
RTVSPropertyOp25
 70
     1
102
RTVSPropertyOp26
 70
     1
102
RTVSPropertyOp27
 70
     1
102
RTVSPropertyOp28
 70
     1
102
RTVSPropertyOp29
 70
     1
102
RTVSPropertyOp30
 70
     1
102
RTVSPropertyOp31
 70
     1
102
RTVSPropertyOp32
 70
     1
102
RTVSPropertyOp33
 70
     1
102
RTVSPropertyOp34
 70
     1
102
RTVSPropertyOp35
 70
     1
102
RTVSPropertyOp36
 70
     1
102
RTVSPropertyOp37
 70
     1
102
RTVSPropertyOp38
 70
     1
102
RTVSPropertyOp39
 70
     1
102
RTVSPropertyOp40
 70
     1
102
RTVSPropertyOp41
 70
     1
102
RTVSPropertyOp42
 70
     1
102
RTVSPropertyOp43
 70
     1
102
RTVSPropertyOp44
 70
     1
102
RTVSPropertyOp45
 70
     1
102
RTVSPropertyOp46
 70
     1
102
RTVSPropertyOp47
 70
     1
102
RTVSPropertyOp48
 70
     1
102
RTVSPropertyOp49
 70
     1
102
RTVSPropertyOp50
 70
     1
102
RTVSPropertyOp51
 70
     0
102
RTVSPropertyOp52
 70
     0
102
RTVSPropertyOp53
 70
     1
102
RTVSPropertyOp54
 70
     1
102
RTVSPropertyOp55
 70
     1
102
RTVSPropertyOp56
 70
     1
102
RTVSPropertyOp57
 70
     1
102
RTVSPropertyOp58
 70
     1
102
RTVSPropertyOp59
 70
     1
102
RTVSPropertyOp60
 70
     1
102
RTVSPropertyOp61
 70
     1
102
RTVSPropertyOp62
 70
     1
  0
XRECORD
  5
12238
102
{ACAD_REACTORS
330
12237
102
}
330
12237
100
AcDbXrecord
280
     1
102
RTVSPost2010Prop28
280
     0
102
RTVSPost2010PropOp28
 70
     1
102
RTVSPost2010Prop29
280
     1
102
RTVSPost2010PropOp29
 70
     1
102
RTVSPost2010Prop30
280
     1
102
RTVSPost2010PropOp30
 70
     1
102
RTVSPost2010Prop31
280
     0
102
RTVSPost2010PropOp31
 70
     1
102
RTVSPost2010Prop32
280
     0
102
RTVSPost2010PropOp32
 70
     1
102
RTVSPost2010Prop33
280
     0
102
RTVSPost2010PropOp33
 70
     1
102
RTVSPost2010Prop34
280
     0
102
RTVSPost2010PropOp34
 70
     1
102
RTVSPost2010Prop35
280
     0
102
RTVSPost2010PropOp35
 70
     1
102
RTVSPost2010Prop36
280
     0
102
RTVSPost2010PropOp36
 70
     1
102
RTVSPost2010Prop37
 90
       50
102
RTVSPost2010PropOp37
 70
     1
102
RTVSPost2010Prop38
140
0.0
102
RTVSPost2010PropOp38
 70
     1
102
RTVSPost2010Prop39
140
1.0
102
RTVSPost2010PropOp39
 70
     1
102
RTVSPost2010Prop40
 90
        0
102
RTVSPost2010PropOp40
 70
     1
102
RTVSPost2010Prop41ColorIndex
 90
       18
102
RTVSPost2010Prop41ColorRGB
 90
        0
102
RTVSPost2010PropOp41
 70
     1
102
RTVSPost2010Prop42
 90
       50
102
RTVSPost2010PropOp42
 70
     1
102
RTVSPost2010Prop43
 90
        3
102
RTVSPost2010PropOp43
 70
     1
102
RTVSPost2010Prop44ColorIndex
 90
        5
102
RTVSPost2010Prop44ColorRGB
 90
      255
102
RTVSPost2010PropOp44
 70
     1
102
RTVSPost2010Prop45
280
     0
102
RTVSPost2010PropOp45
 70
     1
102
RTVSPost2010Prop46
 90
       50
102
RTVSPost2010PropOp46
 70
     1
102
RTVSPost2010Prop47
 90
       50
102
RTVSPost2010PropOp47
 70
     1
102
RTVSPost2010Prop48
 90
       50
102
RTVSPost2010PropOp48
 70
     1
102
RTVSPost2010Prop49
280
     0
102
RTVSPost2010PropOp49
 70
     1
102
RTVSPost2010Prop50
 90
       50
102
RTVSPost2010PropOp50
 70
     1
102
RTVSPost2010Prop51ColorIndex
 90
      256
102
RTVSPost2010Prop51ColorRGB
 90
-16777216
102
RTVSPost2010PropOp51
 70
     0
102
RTVSPost2010Prop52
140
1.0
102
RTVSPost2010PropOp52
 70
     0
102
RTVSPost2010Prop53
 90
        2
102
RTVSPost2010PropOp53
 70
     1
102
RTVSPost2010Prop54
  1
strokes_ogs.tif
102
RTVSPost2010PropOp54
 70
     1
102
RTVSPost2010Prop55
280
     0
102
RTVSPost2010PropOp55
 70
     1
102
RTVSPost2010Prop56
140
1.0
102
RTVSPost2010PropOp56
 70
     1
102
RTVSPost2010Prop57
140
1.0
102
RTVSPost2010PropOp57
 70
     1
102
RTVSPropertyOp0
 70
     1
102
RTVSPropertyOp1
 70
     1
102
RTVSPropertyOp2
 70
     1
102
RTVSPropertyOp3
 70
     1
102
RTVSPropertyOp4
 70
     1
102
RTVSPropertyOp5
 70
     1
102
RTVSPropertyOp6
 70
     1
102
RTVSPropertyOp7
 70
     1
102
RTVSPropertyOp8
 70
     1
102
RTVSPropertyOp9
 70
     1
102
RTVSPropertyOp10
 70
     1
102
RTVSPropertyOp11
 70
     1
102
RTVSPropertyOp12
 70
     1
102
RTVSPropertyOp13
 70
     1
102
RTVSPropertyOp14
 70
     1
102
RTVSPropertyOp15
 70
     1
102
RTVSPropertyOp16
 70
     1
102
RTVSPropertyOp17
 70
     1
102
RTVSPropertyOp18
 70
     1
102
RTVSPropertyOp19
 70
     1
102
RTVSPropertyOp20
 70
     1
102
RTVSPropertyOp21
 70
     1
102
RTVSPropertyOp22
 70
     1
102
RTVSPropertyOp23
 70
     1
102
RTVSPropertyOp24
 70
     1
102
RTVSPropertyOp25
 70
     1
102
RTVSPropertyOp26
 70
     1
102
RTVSPropertyOp27
 70
     1
102
RTVSPropertyOp28
 70
     1
102
RTVSPropertyOp29
 70
     1
102
RTVSPropertyOp30
 70
     1
102
RTVSPropertyOp31
 70
     1
102
RTVSPropertyOp32
 70
     1
102
RTVSPropertyOp33
 70
     1
102
RTVSPropertyOp34
 70
     1
102
RTVSPropertyOp35
 70
     1
102
RTVSPropertyOp36
 70
     1
102
RTVSPropertyOp37
 70
     1
102
RTVSPropertyOp38
 70
     1
102
RTVSPropertyOp39
 70
     1
102
RTVSPropertyOp40
 70
     1
102
RTVSPropertyOp41
 70
     1
102
RTVSPropertyOp42
 70
     1
102
RTVSPropertyOp43
 70
     1
102
RTVSPropertyOp44
 70
     1
102
RTVSPropertyOp45
 70
     1
102
RTVSPropertyOp46
 70
     1
102
RTVSPropertyOp47
 70
     1
102
RTVSPropertyOp48
 70
     1
102
RTVSPropertyOp49
 70
     1
102
RTVSPropertyOp50
 70
     1
102
RTVSPropertyOp51
 70
     0
102
RTVSPropertyOp52
 70
     0
102
RTVSPropertyOp53
 70
     1
102
RTVSPropertyOp54
 70
     1
102
RTVSPropertyOp55
 70
     1
102
RTVSPropertyOp56
 70
     1
102
RTVSPropertyOp57
 70
     1
102
RTVSPropertyOp58
 70
     1
102
RTVSPropertyOp59
 70
     1
102
RTVSPropertyOp60
 70
     1
102
RTVSPropertyOp61
 70
     1
102
RTVSPropertyOp62
 70
     1
  0
XRECORD
  5
12232
102
{ACAD_REACTORS
330
12231
102
}
330
12231
100
AcDbXrecord
280
     1
102
RTVSPost2010Prop28
280
     0
102
RTVSPost2010PropOp28
 70
     1
102
RTVSPost2010Prop29
280
     1
102
RTVSPost2010PropOp29
 70
     1
102
RTVSPost2010Prop30
280
     1
102
RTVSPost2010PropOp30
 70
     1
102
RTVSPost2010Prop31
280
     0
102
RTVSPost2010PropOp31
 70
     1
102
RTVSPost2010Prop32
280
     0
102
RTVSPost2010PropOp32
 70
     1
102
RTVSPost2010Prop33
280
     0
102
RTVSPost2010PropOp33
 70
     1
102
RTVSPost2010Prop34
280
     0
102
RTVSPost2010PropOp34
 70
     1
102
RTVSPost2010Prop35
280
     0
102
RTVSPost2010PropOp35
 70
     1
102
RTVSPost2010Prop36
280
     0
102
RTVSPost2010PropOp36
 70
     1
102
RTVSPost2010Prop37
 90
       50
102
RTVSPost2010PropOp37
 70
     1
102
RTVSPost2010Prop38
140
0.0
102
RTVSPost2010PropOp38
 70
     1
102
RTVSPost2010Prop39
140
1.0
102
RTVSPost2010PropOp39
 70
     1
102
RTVSPost2010Prop40
 90
        0
102
RTVSPost2010PropOp40
 70
     1
102
RTVSPost2010Prop41ColorIndex
 90
       18
102
RTVSPost2010Prop41ColorRGB
 90
        0
102
RTVSPost2010PropOp41
 70
     1
102
RTVSPost2010Prop42
 90
       50
102
RTVSPost2010PropOp42
 70
     1
102
RTVSPost2010Prop43
 90
        3
102
RTVSPost2010PropOp43
 70
     1
102
RTVSPost2010Prop44ColorIndex
 90
        5
102
RTVSPost2010Prop44ColorRGB
 90
      255
102
RTVSPost2010PropOp44
 70
     1
102
RTVSPost2010Prop45
280
     0
102
RTVSPost2010PropOp45
 70
     1
102
RTVSPost2010Prop46
 90
       50
102
RTVSPost2010PropOp46
 70
     1
102
RTVSPost2010Prop47
 90
       50
102
RTVSPost2010PropOp47
 70
     1
102
RTVSPost2010Prop48
 90
       50
102
RTVSPost2010PropOp48
 70
     1
102
RTVSPost2010Prop49
280
     0
102
RTVSPost2010PropOp49
 70
     1
102
RTVSPost2010Prop50
 90
       50
102
RTVSPost2010PropOp50
 70
     1
102
RTVSPost2010Prop51ColorIndex
 90
      256
102
RTVSPost2010Prop51ColorRGB
 90
-16777216
102
RTVSPost2010PropOp51
 70
     0
102
RTVSPost2010Prop52
140
1.0
102
RTVSPost2010PropOp52
 70
     0
102
RTVSPost2010Prop53
 90
        2
102
RTVSPost2010PropOp53
 70
     1
102
RTVSPost2010Prop54
  1
strokes_ogs.tif
102
RTVSPost2010PropOp54
 70
     1
102
RTVSPost2010Prop55
280
     0
102
RTVSPost2010PropOp55
 70
     1
102
RTVSPost2010Prop56
140
1.0
102
RTVSPost2010PropOp56
 70
     1
102
RTVSPost2010Prop57
140
1.0
102
RTVSPost2010PropOp57
 70
     1
102
RTVSPropertyOp0
 70
     1
102
RTVSPropertyOp1
 70
     1
102
RTVSPropertyOp2
 70
     1
102
RTVSPropertyOp3
 70
     1
102
RTVSPropertyOp4
 70
     1
102
RTVSPropertyOp5
 70
     1
102
RTVSPropertyOp6
 70
     1
102
RTVSPropertyOp7
 70
     1
102
RTVSPropertyOp8
 70
     1
102
RTVSPropertyOp9
 70
     1
102
RTVSPropertyOp10
 70
     1
102
RTVSPropertyOp11
 70
     1
102
RTVSPropertyOp12
 70
     1
102
RTVSPropertyOp13
 70
     1
102
RTVSPropertyOp14
 70
     1
102
RTVSPropertyOp15
 70
     1
102
RTVSPropertyOp16
 70
     1
102
RTVSPropertyOp17
 70
     1
102
RTVSPropertyOp18
 70
     1
102
RTVSPropertyOp19
 70
     1
102
RTVSPropertyOp20
 70
     1
102
RTVSPropertyOp21
 70
     1
102
RTVSPropertyOp22
 70
     1
102
RTVSPropertyOp23
 70
     1
102
RTVSPropertyOp24
 70
     1
102
RTVSPropertyOp25
 70
     1
102
RTVSPropertyOp26
 70
     1
102
RTVSPropertyOp27
 70
     1
102
RTVSPropertyOp28
 70
     1
102
RTVSPropertyOp29
 70
     1
102
RTVSPropertyOp30
 70
     1
102
RTVSPropertyOp31
 70
     1
102
RTVSPropertyOp32
 70
     1
102
RTVSPropertyOp33
 70
     1
102
RTVSPropertyOp34
 70
     1
102
RTVSPropertyOp35
 70
     1
102
RTVSPropertyOp36
 70
     1
102
RTVSPropertyOp37
 70
     1
102
RTVSPropertyOp38
 70
     1
102
RTVSPropertyOp39
 70
     1
102
RTVSPropertyOp40
 70
     1
102
RTVSPropertyOp41
 70
     1
102
RTVSPropertyOp42
 70
     1
102
RTVSPropertyOp43
 70
     1
102
RTVSPropertyOp44
 70
     1
102
RTVSPropertyOp45
 70
     1
102
RTVSPropertyOp46
 70
     1
102
RTVSPropertyOp47
 70
     1
102
RTVSPropertyOp48
 70
     1
102
RTVSPropertyOp49
 70
     1
102
RTVSPropertyOp50
 70
     1
102
RTVSPropertyOp51
 70
     0
102
RTVSPropertyOp52
 70
     0
102
RTVSPropertyOp53
 70
     1
102
RTVSPropertyOp54
 70
     1
102
RTVSPropertyOp55
 70
     1
102
RTVSPropertyOp56
 70
     1
102
RTVSPropertyOp57
 70
     1
102
RTVSPropertyOp58
 70
     1
102
RTVSPropertyOp59
 70
     1
102
RTVSPropertyOp60
 70
     1
102
RTVSPropertyOp61
 70
     1
102
RTVSPropertyOp62
 70
     1
  0
XRECORD
  5
12234
102
{ACAD_REACTORS
330
12233
102
}
330
12233
100
AcDbXrecord
280
     1
102
RTVSPost2010Prop28
280
     0
102
RTVSPost2010PropOp28
 70
     1
102
RTVSPost2010Prop29
280
     1
102
RTVSPost2010PropOp29
 70
     1
102
RTVSPost2010Prop30
280
     1
102
RTVSPost2010PropOp30
 70
     1
102
RTVSPost2010Prop31
280
     0
102
RTVSPost2010PropOp31
 70
     1
102
RTVSPost2010Prop32
280
     0
102
RTVSPost2010PropOp32
 70
     1
102
RTVSPost2010Prop33
280
     0
102
RTVSPost2010PropOp33
 70
     1
102
RTVSPost2010Prop34
280
     0
102
RTVSPost2010PropOp34
 70
     1
102
RTVSPost2010Prop35
280
     0
102
RTVSPost2010PropOp35
 70
     1
102
RTVSPost2010Prop36
280
     0
102
RTVSPost2010PropOp36
 70
     1
102
RTVSPost2010Prop37
 90
       50
102
RTVSPost2010PropOp37
 70
     1
102
RTVSPost2010Prop38
140
0.0
102
RTVSPost2010PropOp38
 70
     1
102
RTVSPost2010Prop39
140
1.0
102
RTVSPost2010PropOp39
 70
     1
102
RTVSPost2010Prop40
 90
        0
102
RTVSPost2010PropOp40
 70
     1
102
RTVSPost2010Prop41ColorIndex
 90
       18
102
RTVSPost2010Prop41ColorRGB
 90
        0
102
RTVSPost2010PropOp41
 70
     1
102
RTVSPost2010Prop42
 90
       50
102
RTVSPost2010PropOp42
 70
     1
102
RTVSPost2010Prop43
 90
        3
102
RTVSPost2010PropOp43
 70
     1
102
RTVSPost2010Prop44ColorIndex
 90
        5
102
RTVSPost2010Prop44ColorRGB
 90
      255
102
RTVSPost2010PropOp44
 70
     1
102
RTVSPost2010Prop45
280
     0
102
RTVSPost2010PropOp45
 70
     1
102
RTVSPost2010Prop46
 90
       50
102
RTVSPost2010PropOp46
 70
     1
102
RTVSPost2010Prop47
 90
       50
102
RTVSPost2010PropOp47
 70
     1
102
RTVSPost2010Prop48
 90
       50
102
RTVSPost2010PropOp48
 70
     1
102
RTVSPost2010Prop49
280
     0
102
RTVSPost2010PropOp49
 70
     1
102
RTVSPost2010Prop50
 90
       50
102
RTVSPost2010PropOp50
 70
     1
102
RTVSPost2010Prop51ColorIndex
 90
      256
102
RTVSPost2010Prop51ColorRGB
 90
-16777216
102
RTVSPost2010PropOp51
 70
     0
102
RTVSPost2010Prop52
140
1.0
102
RTVSPost2010PropOp52
 70
     0
102
RTVSPost2010Prop53
 90
        2
102
RTVSPost2010PropOp53
 70
     1
102
RTVSPost2010Prop54
  1
strokes_ogs.tif
102
RTVSPost2010PropOp54
 70
     1
102
RTVSPost2010Prop55
280
     0
102
RTVSPost2010PropOp55
 70
     1
102
RTVSPost2010Prop56
140
1.0
102
RTVSPost2010PropOp56
 70
     1
102
RTVSPost2010Prop57
140
1.0
102
RTVSPost2010PropOp57
 70
     1
102
RTVSPropertyOp0
 70
     1
102
RTVSPropertyOp1
 70
     1
102
RTVSPropertyOp2
 70
     1
102
RTVSPropertyOp3
 70
     1
102
RTVSPropertyOp4
 70
     1
102
RTVSPropertyOp5
 70
     1
102
RTVSPropertyOp6
 70
     1
102
RTVSPropertyOp7
 70
     1
102
RTVSPropertyOp8
 70
     1
102
RTVSPropertyOp9
 70
     1
102
RTVSPropertyOp10
 70
     1
102
RTVSPropertyOp11
 70
     1
102
RTVSPropertyOp12
 70
     1
102
RTVSPropertyOp13
 70
     1
102
RTVSPropertyOp14
 70
     1
102
RTVSPropertyOp15
 70
     1
102
RTVSPropertyOp16
 70
     1
102
RTVSPropertyOp17
 70
     1
102
RTVSPropertyOp18
 70
     1
102
RTVSPropertyOp19
 70
     1
102
RTVSPropertyOp20
 70
     1
102
RTVSPropertyOp21
 70
     1
102
RTVSPropertyOp22
 70
     1
102
RTVSPropertyOp23
 70
     1
102
RTVSPropertyOp24
 70
     1
102
RTVSPropertyOp25
 70
     1
102
RTVSPropertyOp26
 70
     1
102
RTVSPropertyOp27
 70
     1
102
RTVSPropertyOp28
 70
     1
102
RTVSPropertyOp29
 70
     1
102
RTVSPropertyOp30
 70
     1
102
RTVSPropertyOp31
 70
     1
102
RTVSPropertyOp32
 70
     1
102
RTVSPropertyOp33
 70
     1
102
RTVSPropertyOp34
 70
     1
102
RTVSPropertyOp35
 70
     1
102
RTVSPropertyOp36
 70
     1
102
RTVSPropertyOp37
 70
     1
102
RTVSPropertyOp38
 70
     1
102
RTVSPropertyOp39
 70
     1
102
RTVSPropertyOp40
 70
     1
102
RTVSPropertyOp41
 70
     1
102
RTVSPropertyOp42
 70
     1
102
RTVSPropertyOp43
 70
     1
102
RTVSPropertyOp44
 70
     1
102
RTVSPropertyOp45
 70
     1
102
RTVSPropertyOp46
 70
     1
102
RTVSPropertyOp47
 70
     1
102
RTVSPropertyOp48
 70
     1
102
RTVSPropertyOp49
 70
     1
102
RTVSPropertyOp50
 70
     1
102
RTVSPropertyOp51
 70
     0
102
RTVSPropertyOp52
 70
     0
102
RTVSPropertyOp53
 70
     1
102
RTVSPropertyOp54
 70
     1
102
RTVSPropertyOp55
 70
     1
102
RTVSPropertyOp56
 70
     1
102
RTVSPropertyOp57
 70
     1
102
RTVSPropertyOp58
 70
     1
102
RTVSPropertyOp59
 70
     1
102
RTVSPropertyOp60
 70
     1
102
RTVSPropertyOp61
 70
     1
102
RTVSPropertyOp62
 70
     1
  0
XRECORD
  5
1222A
102
{ACAD_REACTORS
330
12229
102
}
330
12229
100
AcDbXrecord
280
     1
102
RTVSPost2010Prop28
280
     0
102
RTVSPost2010PropOp28
 70
     1
102
RTVSPost2010Prop29
280
     1
102
RTVSPost2010PropOp29
 70
     1
102
RTVSPost2010Prop30
280
     1
102
RTVSPost2010PropOp30
 70
     1
102
RTVSPost2010Prop31
280
     0
102
RTVSPost2010PropOp31
 70
     1
102
RTVSPost2010Prop32
280
     0
102
RTVSPost2010PropOp32
 70
     1
102
RTVSPost2010Prop33
280
     0
102
RTVSPost2010PropOp33
 70
     1
102
RTVSPost2010Prop34
280
     0
102
RTVSPost2010PropOp34
 70
     1
102
RTVSPost2010Prop35
280
     0
102
RTVSPost2010PropOp35
 70
     1
102
RTVSPost2010Prop36
280
     0
102
RTVSPost2010PropOp36
 70
     1
102
RTVSPost2010Prop37
 90
       50
102
RTVSPost2010PropOp37
 70
     1
102
RTVSPost2010Prop38
140
0.0
102
RTVSPost2010PropOp38
 70
     1
102
RTVSPost2010Prop39
140
1.0
102
RTVSPost2010PropOp39
 70
     1
102
RTVSPost2010Prop40
 90
        0
102
RTVSPost2010PropOp40
 70
     1
102
RTVSPost2010Prop41ColorIndex
 90
       18
102
RTVSPost2010Prop41ColorRGB
 90
        0
102
RTVSPost2010PropOp41
 70
     1
102
RTVSPost2010Prop42
 90
       50
102
RTVSPost2010PropOp42
 70
     1
102
RTVSPost2010Prop43
 90
        3
102
RTVSPost2010PropOp43
 70
     1
102
RTVSPost2010Prop44ColorIndex
 90
        5
102
RTVSPost2010Prop44ColorRGB
 90
      255
102
RTVSPost2010PropOp44
 70
     1
102
RTVSPost2010Prop45
280
     0
102
RTVSPost2010PropOp45
 70
     1
102
RTVSPost2010Prop46
 90
       50
102
RTVSPost2010PropOp46
 70
     1
102
RTVSPost2010Prop47
 90
       50
102
RTVSPost2010PropOp47
 70
     1
102
RTVSPost2010Prop48
 90
       50
102
RTVSPost2010PropOp48
 70
     1
102
RTVSPost2010Prop49
280
     0
102
RTVSPost2010PropOp49
 70
     1
102
RTVSPost2010Prop50
 90
       50
102
RTVSPost2010PropOp50
 70
     1
102
RTVSPost2010Prop51ColorIndex
 90
      256
102
RTVSPost2010Prop51ColorRGB
 90
-16777216
102
RTVSPost2010PropOp51
 70
     0
102
RTVSPost2010Prop52
140
1.0
102
RTVSPost2010PropOp52
 70
     0
102
RTVSPost2010Prop53
 90
        2
102
RTVSPost2010PropOp53
 70
     1
102
RTVSPost2010Prop54
  1
strokes_ogs.tif
102
RTVSPost2010PropOp54
 70
     1
102
RTVSPost2010Prop55
280
     0
102
RTVSPost2010PropOp55
 70
     1
102
RTVSPost2010Prop56
140
1.0
102
RTVSPost2010PropOp56
 70
     1
102
RTVSPost2010Prop57
140
1.0
102
RTVSPost2010PropOp57
 70
     1
102
RTVSPropertyOp0
 70
     1
102
RTVSPropertyOp1
 70
     1
102
RTVSPropertyOp2
 70
     1
102
RTVSPropertyOp3
 70
     1
102
RTVSPropertyOp4
 70
     1
102
RTVSPropertyOp5
 70
     1
102
RTVSPropertyOp6
 70
     1
102
RTVSPropertyOp7
 70
     1
102
RTVSPropertyOp8
 70
     1
102
RTVSPropertyOp9
 70
     1
102
RTVSPropertyOp10
 70
     1
102
RTVSPropertyOp11
 70
     1
102
RTVSPropertyOp12
 70
     1
102
RTVSPropertyOp13
 70
     1
102
RTVSPropertyOp14
 70
     1
102
RTVSPropertyOp15
 70
     1
102
RTVSPropertyOp16
 70
     1
102
RTVSPropertyOp17
 70
     1
102
RTVSPropertyOp18
 70
     1
102
RTVSPropertyOp19
 70
     1
102
RTVSPropertyOp20
 70
     1
102
RTVSPropertyOp21
 70
     1
102
RTVSPropertyOp22
 70
     1
102
RTVSPropertyOp23
 70
     1
102
RTVSPropertyOp24
 70
     1
102
RTVSPropertyOp25
 70
     1
102
RTVSPropertyOp26
 70
     1
102
RTVSPropertyOp27
 70
     1
102
RTVSPropertyOp28
 70
     1
102
RTVSPropertyOp29
 70
     1
102
RTVSPropertyOp30
 70
     1
102
RTVSPropertyOp31
 70
     1
102
RTVSPropertyOp32
 70
     1
102
RTVSPropertyOp33
 70
     1
102
RTVSPropertyOp34
 70
     1
102
RTVSPropertyOp35
 70
     1
102
RTVSPropertyOp36
 70
     1
102
RTVSPropertyOp37
 70
     1
102
RTVSPropertyOp38
 70
     1
102
RTVSPropertyOp39
 70
     1
102
RTVSPropertyOp40
 70
     1
102
RTVSPropertyOp41
 70
     1
102
RTVSPropertyOp42
 70
     1
102
RTVSPropertyOp43
 70
     1
102
RTVSPropertyOp44
 70
     1
102
RTVSPropertyOp45
 70
     1
102
RTVSPropertyOp46
 70
     1
102
RTVSPropertyOp47
 70
     1
102
RTVSPropertyOp48
 70
     1
102
RTVSPropertyOp49
 70
     1
102
RTVSPropertyOp50
 70
     1
102
RTVSPropertyOp51
 70
     0
102
RTVSPropertyOp52
 70
     0
102
RTVSPropertyOp53
 70
     1
102
RTVSPropertyOp54
 70
     1
102
RTVSPropertyOp55
 70
     1
102
RTVSPropertyOp56
 70
     1
102
RTVSPropertyOp57
 70
     1
102
RTVSPropertyOp58
 70
     1
102
RTVSPropertyOp59
 70
     1
102
RTVSPropertyOp60
 70
     1
102
RTVSPropertyOp61
 70
     1
102
RTVSPropertyOp62
 70
     1
  0
XRECORD
  5
1221E
102
{ACAD_REACTORS
330
1221D
102
}
330
1221D
100
AcDbXrecord
280
     1
102
RTVSPost2010Prop28
280
     0
102
RTVSPost2010PropOp28
 70
     1
102
RTVSPost2010Prop29
280
     1
102
RTVSPost2010PropOp29
 70
     1
102
RTVSPost2010Prop30
280
     1
102
RTVSPost2010PropOp30
 70
     1
102
RTVSPost2010Prop31
280
     0
102
RTVSPost2010PropOp31
 70
     1
102
RTVSPost2010Prop32
280
     0
102
RTVSPost2010PropOp32
 70
     1
102
RTVSPost2010Prop33
280
     0
102
RTVSPost2010PropOp33
 70
     1
102
RTVSPost2010Prop34
280
     0
102
RTVSPost2010PropOp34
 70
     1
102
RTVSPost2010Prop35
280
     0
102
RTVSPost2010PropOp35
 70
     1
102
RTVSPost2010Prop36
280
     0
102
RTVSPost2010PropOp36
 70
     1
102
RTVSPost2010Prop37
 90
       50
102
RTVSPost2010PropOp37
 70
     1
102
RTVSPost2010Prop38
140
0.0
102
RTVSPost2010PropOp38
 70
     1
102
RTVSPost2010Prop39
140
1.0
102
RTVSPost2010PropOp39
 70
     1
102
RTVSPost2010Prop40
 90
        0
102
RTVSPost2010PropOp40
 70
     1
102
RTVSPost2010Prop41ColorIndex
 90
       18
102
RTVSPost2010Prop41ColorRGB
 90
        0
102
RTVSPost2010PropOp41
 70
     1
102
RTVSPost2010Prop42
 90
       50
102
RTVSPost2010PropOp42
 70
     1
102
RTVSPost2010Prop43
 90
        3
102
RTVSPost2010PropOp43
 70
     1
102
RTVSPost2010Prop44ColorIndex
 90
        5
102
RTVSPost2010Prop44ColorRGB
 90
      255
102
RTVSPost2010PropOp44
 70
     1
102
RTVSPost2010Prop45
280
     0
102
RTVSPost2010PropOp45
 70
     1
102
RTVSPost2010Prop46
 90
       50
102
RTVSPost2010PropOp46
 70
     1
102
RTVSPost2010Prop47
 90
       50
102
RTVSPost2010PropOp47
 70
     1
102
RTVSPost2010Prop48
 90
       50
102
RTVSPost2010PropOp48
 70
     1
102
RTVSPost2010Prop49
280
     0
102
RTVSPost2010PropOp49
 70
     1
102
RTVSPost2010Prop50
 90
       50
102
RTVSPost2010PropOp50
 70
     1
102
RTVSPost2010Prop51ColorIndex
 90
      256
102
RTVSPost2010Prop51ColorRGB
 90
-16777216
102
RTVSPost2010PropOp51
 70
     0
102
RTVSPost2010Prop52
140
1.0
102
RTVSPost2010PropOp52
 70
     0
102
RTVSPost2010Prop53
 90
        2
102
RTVSPost2010PropOp53
 70
     1
102
RTVSPost2010Prop54
  1
strokes_ogs.tif
102
RTVSPost2010PropOp54
 70
     1
102
RTVSPost2010Prop55
280
     0
102
RTVSPost2010PropOp55
 70
     1
102
RTVSPost2010Prop56
140
1.0
102
RTVSPost2010PropOp56
 70
     1
102
RTVSPost2010Prop57
140
1.0
102
RTVSPost2010PropOp57
 70
     1
102
RTVSPropertyOp0
 70
     1
102
RTVSPropertyOp1
 70
     1
102
RTVSPropertyOp2
 70
     1
102
RTVSPropertyOp3
 70
     1
102
RTVSPropertyOp4
 70
     1
102
RTVSPropertyOp5
 70
     1
102
RTVSPropertyOp6
 70
     1
102
RTVSPropertyOp7
 70
     1
102
RTVSPropertyOp8
 70
     1
102
RTVSPropertyOp9
 70
     1
102
RTVSPropertyOp10
 70
     1
102
RTVSPropertyOp11
 70
     1
102
RTVSPropertyOp12
 70
     1
102
RTVSPropertyOp13
 70
     1
102
RTVSPropertyOp14
 70
     1
102
RTVSPropertyOp15
 70
     1
102
RTVSPropertyOp16
 70
     1
102
RTVSPropertyOp17
 70
     1
102
RTVSPropertyOp18
 70
     1
102
RTVSPropertyOp19
 70
     1
102
RTVSPropertyOp20
 70
     1
102
RTVSPropertyOp21
 70
     1
102
RTVSPropertyOp22
 70
     1
102
RTVSPropertyOp23
 70
     1
102
RTVSPropertyOp24
 70
     1
102
RTVSPropertyOp25
 70
     1
102
RTVSPropertyOp26
 70
     1
102
RTVSPropertyOp27
 70
     1
102
RTVSPropertyOp28
 70
     1
102
RTVSPropertyOp29
 70
     1
102
RTVSPropertyOp30
 70
     1
102
RTVSPropertyOp31
 70
     1
102
RTVSPropertyOp32
 70
     1
102
RTVSPropertyOp33
 70
     1
102
RTVSPropertyOp34
 70
     1
102
RTVSPropertyOp35
 70
     1
102
RTVSPropertyOp36
 70
     1
102
RTVSPropertyOp37
 70
     1
102
RTVSPropertyOp38
 70
     1
102
RTVSPropertyOp39
 70
     1
102
RTVSPropertyOp40
 70
     1
102
RTVSPropertyOp41
 70
     1
102
RTVSPropertyOp42
 70
     1
102
RTVSPropertyOp43
 70
     1
102
RTVSPropertyOp44
 70
     1
102
RTVSPropertyOp45
 70
     1
102
RTVSPropertyOp46
 70
     1
102
RTVSPropertyOp47
 70
     1
102
RTVSPropertyOp48
 70
     1
102
RTVSPropertyOp49
 70
     1
102
RTVSPropertyOp50
 70
     1
102
RTVSPropertyOp51
 70
     0
102
RTVSPropertyOp52
 70
     0
102
RTVSPropertyOp53
 70
     1
102
RTVSPropertyOp54
 70
     1
102
RTVSPropertyOp55
 70
     1
102
RTVSPropertyOp56
 70
     1
102
RTVSPropertyOp57
 70
     1
102
RTVSPropertyOp58
 70
     1
102
RTVSPropertyOp59
 70
     1
102
RTVSPropertyOp60
 70
     1
102
RTVSPropertyOp61
 70
     1
102
RTVSPropertyOp62
 70
     1
  0
XRECORD
  5
12236
102
{ACAD_REACTORS
330
12235
102
}
330
12235
100
AcDbXrecord
280
     1
102
RTVSPost2010Prop28
280
     0
102
RTVSPost2010PropOp28
 70
     1
102
RTVSPost2010Prop29
280
     1
102
RTVSPost2010PropOp29
 70
     1
102
RTVSPost2010Prop30
280
     1
102
RTVSPost2010PropOp30
 70
     1
102
RTVSPost2010Prop31
280
     0
102
RTVSPost2010PropOp31
 70
     1
102
RTVSPost2010Prop32
280
     0
102
RTVSPost2010PropOp32
 70
     1
102
RTVSPost2010Prop33
280
     0
102
RTVSPost2010PropOp33
 70
     1
102
RTVSPost2010Prop34
280
     0
102
RTVSPost2010PropOp34
 70
     1
102
RTVSPost2010Prop35
280
     0
102
RTVSPost2010PropOp35
 70
     1
102
RTVSPost2010Prop36
280
     0
102
RTVSPost2010PropOp36
 70
     1
102
RTVSPost2010Prop37
 90
       50
102
RTVSPost2010PropOp37
 70
     1
102
RTVSPost2010Prop38
140
0.0
102
RTVSPost2010PropOp38
 70
     1
102
RTVSPost2010Prop39
140
1.0
102
RTVSPost2010PropOp39
 70
     1
102
RTVSPost2010Prop40
 90
        0
102
RTVSPost2010PropOp40
 70
     1
102
RTVSPost2010Prop41ColorIndex
 90
       18
102
RTVSPost2010Prop41ColorRGB
 90
        0
102
RTVSPost2010PropOp41
 70
     1
102
RTVSPost2010Prop42
 90
       50
102
RTVSPost2010PropOp42
 70
     1
102
RTVSPost2010Prop43
 90
        3
102
RTVSPost2010PropOp43
 70
     1
102
RTVSPost2010Prop44ColorIndex
 90
        5
102
RTVSPost2010Prop44ColorRGB
 90
      255
102
RTVSPost2010PropOp44
 70
     1
102
RTVSPost2010Prop45
280
     0
102
RTVSPost2010PropOp45
 70
     1
102
RTVSPost2010Prop46
 90
       50
102
RTVSPost2010PropOp46
 70
     1
102
RTVSPost2010Prop47
 90
       50
102
RTVSPost2010PropOp47
 70
     1
102
RTVSPost2010Prop48
 90
       50
102
RTVSPost2010PropOp48
 70
     1
102
RTVSPost2010Prop49
280
     0
102
RTVSPost2010PropOp49
 70
     1
102
RTVSPost2010Prop50
 90
       50
102
RTVSPost2010PropOp50
 70
     1
102
RTVSPost2010Prop51ColorIndex
 90
      256
102
RTVSPost2010Prop51ColorRGB
 90
-16777216
102
RTVSPost2010PropOp51
 70
     0
102
RTVSPost2010Prop52
140
1.0
102
RTVSPost2010PropOp52
 70
     0
102
RTVSPost2010Prop53
 90
        2
102
RTVSPost2010PropOp53
 70
     1
102
RTVSPost2010Prop54
  1
strokes_ogs.tif
102
RTVSPost2010PropOp54
 70
     1
102
RTVSPost2010Prop55
280
     0
102
RTVSPost2010PropOp55
 70
     1
102
RTVSPost2010Prop56
140
1.0
102
RTVSPost2010PropOp56
 70
     1
102
RTVSPost2010Prop57
140
1.0
102
RTVSPost2010PropOp57
 70
     1
102
RTVSPropertyOp0
 70
     1
102
RTVSPropertyOp1
 70
     1
102
RTVSPropertyOp2
 70
     1
102
RTVSPropertyOp3
 70
     1
102
RTVSPropertyOp4
 70
     1
102
RTVSPropertyOp5
 70
     1
102
RTVSPropertyOp6
 70
     1
102
RTVSPropertyOp7
 70
     1
102
RTVSPropertyOp8
 70
     1
102
RTVSPropertyOp9
 70
     1
102
RTVSPropertyOp10
 70
     1
102
RTVSPropertyOp11
 70
     1
102
RTVSPropertyOp12
 70
     1
102
RTVSPropertyOp13
 70
     1
102
RTVSPropertyOp14
 70
     1
102
RTVSPropertyOp15
 70
     1
102
RTVSPropertyOp16
 70
     1
102
RTVSPropertyOp17
 70
     1
102
RTVSPropertyOp18
 70
     1
102
RTVSPropertyOp19
 70
     1
102
RTVSPropertyOp20
 70
     1
102
RTVSPropertyOp21
 70
     1
102
RTVSPropertyOp22
 70
     1
102
RTVSPropertyOp23
 70
     1
102
RTVSPropertyOp24
 70
     1
102
RTVSPropertyOp25
 70
     1
102
RTVSPropertyOp26
 70
     1
102
RTVSPropertyOp27
 70
     1
102
RTVSPropertyOp28
 70
     1
102
RTVSPropertyOp29
 70
     1
102
RTVSPropertyOp30
 70
     1
102
RTVSPropertyOp31
 70
     1
102
RTVSPropertyOp32
 70
     1
102
RTVSPropertyOp33
 70
     1
102
RTVSPropertyOp34
 70
     1
102
RTVSPropertyOp35
 70
     1
102
RTVSPropertyOp36
 70
     1
102
RTVSPropertyOp37
 70
     1
102
RTVSPropertyOp38
 70
     1
102
RTVSPropertyOp39
 70
     1
102
RTVSPropertyOp40
 70
     1
102
RTVSPropertyOp41
 70
     1
102
RTVSPropertyOp42
 70
     1
102
RTVSPropertyOp43
 70
     1
102
RTVSPropertyOp44
 70
     1
102
RTVSPropertyOp45
 70
     1
102
RTVSPropertyOp46
 70
     1
102
RTVSPropertyOp47
 70
     1
102
RTVSPropertyOp48
 70
     1
102
RTVSPropertyOp49
 70
     1
102
RTVSPropertyOp50
 70
     1
102
RTVSPropertyOp51
 70
     0
102
RTVSPropertyOp52
 70
     0
102
RTVSPropertyOp53
 70
     1
102
RTVSPropertyOp54
 70
     1
102
RTVSPropertyOp55
 70
     1
102
RTVSPropertyOp56
 70
     1
102
RTVSPropertyOp57
 70
     1
102
RTVSPropertyOp58
 70
     1
102
RTVSPropertyOp59
 70
     1
102
RTVSPropertyOp60
 70
     1
102
RTVSPropertyOp61
 70
     1
102
RTVSPropertyOp62
 70
     1
  0
ENDSEC
  0
EOF
