  0
SECTION
  2
HEADER
  9
$ACADVER
  1
AC1015
  9
$ACADMAINTVER
 70
    20
  9
$DWGCODEPAGE
  3
ANSI_932
  9
$INSBASE
 10
0.0
 20
0.0
 30
0.0
  9
$EXTMIN
 10
20.0
 20
10.676471
 30
0.0
  9
$EXTMAX
 10
532.1661319999998
 20
498.5519489999998
 30
0.0
  9
$LIMMIN
 10
0.0
 20
0.0
  9
$LIMMAX
 10
792.0
 20
546.0
  9
$ORTHOMODE
 70
     1
  9
$REGENMODE
 70
     1
  9
$FILLMODE
 70
     1
  9
$QTEXTMODE
 70
     0
  9
$MIRRTEXT
 70
     1
  9
$LTSCALE
 40
20.0
  9
$ATTMODE
 70
     1
  9
$TEXTSIZE
 40
5.0
  9
$TRACEWID
 40
1.0
  9
$TEXTSTYLE
  7
STANDARD
  9
$CLAYER
  8
0
  9
$CELTYPE
  6
BYLAYER
  9
$CECOLOR
 62
   256
  9
$CELTSCALE
 40
1.0
  9
$DISPSILH
 70
     0
  9
$DIMSCALE
 40
1.0
  9
$DIMASZ
 40
3.0
  9
$DIMEXO
 40
1.0
  9
$DIMDLI
 40
10.0
  9
$DIMRND
 40
0.0
  9
$DIMDLE
 40
0.0
  9
$DIMEXE
 40
1.0
  9
$DIMTP
 40
0.0
  9
$DIMTM
 40
0.0
  9
$DIMTXT
 40
3.2
  9
$DIMCEN
 40
0.0
  9
$DIMTSZ
 40
0.0
  9
$DIMTOL
 70
     0
  9
$DIMLIM
 70
     0
  9
$DIMTIH
 70
     0
  9
$DIMTOH
 70
     0
  9
$DIMSE1
 70
     0
  9
$DIMSE2
 70
     0
  9
$DIMTAD
 70
     3
  9
$DIMZIN
 70
     8
  9
$DIMBLK
  1

  9
$DIMASO
 70
     1
  9
$DIMSHO
 70
     1
  9
$DIMPOST
  1

  9
$DIMAPOST
  1

  9
$DIMALT
 70
     0
  9
$DIMALTD
 70
     2
  9
$DIMALTF
 40
25.4
  9
$DIMLFAC
 40
1.0
  9
$DIMTOFL
 70
     1
  9
$DIMTVP
 40
0.0
  9
$DIMTIX
 70
     0
  9
$DIMSOXD
 70
     0
  9
$DIMSAH
 70
     1
  9
$DIMBLK1
  1

  9
$DIMBLK2
  1

  9
$DIMSTYLE
  2
STANDARD
  9
$DIMCLRD
 70
     0
  9
$DIMCLRE
 70
     0
  9
$DIMCLRT
 70
     0
  9
$DIMTFAC
 40
1.0
  9
$DIMGAP
 40
1.0
  9
$DIMJUST
 70
     0
  9
$DIMSD1
 70
     0
  9
$DIMSD2
 70
     0
  9
$DIMTOLJ
 70
     1
  9
$DIMTZIN
 70
     0
  9
$DIMALTZ
 70
     0
  9
$DIMALTTZ
 70
     0
  9
$DIMUPT
 70
     0
  9
$DIMDEC
 70
     4
  9
$DIMTDEC
 70
     4
  9
$DIMALTU
 70
     2
  9
$DIMALTTD
 70
     2
  9
$DIMTXSTY
  7
STANDARD
  9
$DIMAUNIT
 70
     0
  9
$DIMADEC
 70
     0
  9
$DIMALTRND
 40
0.0
  9
$DIMAZIN
 70
     0
  9
$DIMDSEP
 70
    46
  9
$DIMATFIT
 70
     3
  9
$DIMFRAC
 70
     0
  9
$DIMLDRBLK
  1

  9
$DIMLUNIT
 70
     2
  9
$DIMLWD
 70
    -2
  9
$DIMLWE
 70
    -2
  9
$DIMTMOVE
 70
     0
  9
$LUNITS
 70
     2
  9
$LUPREC
 70
     4
  9
$SKETCHINC
 40
1.0
  9
$FILLETRAD
 40
0.0
  9
$AUNITS
 70
     0
  9
$AUPREC
 70
     2
  9
$MENU
  1
.
  9
$ELEVATION
 40
0.0
  9
$PELEVATION
 40
0.0
  9
$THICKNESS
 40
0.0
  9
$LIMCHECK
 70
     0
  9
$CHAMFERA
 40
10.0
  9
$CHAMFERB
 40
10.0
  9
$CHAMFERC
 40
0.0
  9
$CHAMFERD
 40
0.0
  9
$SKPOLY
 70
     0
  9
$TDCREATE
 40
2451069.705653935
  9
$TDUCREATE
 40
2451069.330653935
  9
$TDUPDATE
 40
2457192.622931343
  9
$TDUUPDATE
 40
2457192.247931343
  9
$TDINDWG
 40
0.0061395370
  9
$TDUSRTIMER
 40
0.0061390394
  9
$USRTIMER
 70
     1
  9
$ANGBASE
 50
0.0
  9
$ANGDIR
 70
     0
  9
$PDMODE
 70
     0
  9
$PDSIZE
 40
0.0
  9
$PLINEWID
 40
0.0
  9
$SPLFRAME
 70
     0
  9
$SPLINETYPE
 70
     6
  9
$SPLINESEGS
 70
     8
  9
$HANDSEED
  5
60E
  9
$SURFTAB1
 70
     6
  9
$SURFTAB2
 70
     6
  9
$SURFTYPE
 70
     6
  9
$SURFU
 70
     6
  9
$SURFV
 70
     6
  9
$UCSBASE
  2

  9
$UCSNAME
  2

  9
$UCSORG
 10
0.0
 20
0.0
 30
0.0
  9
$UCSXDIR
 10
1.0
 20
0.0
 30
0.0
  9
$UCSYDIR
 10
0.0
 20
1.0
 30
0.0
  9
$UCSORTHOREF
  2

  9
$UCSORTHOVIEW
 70
     0
  9
$UCSORGTOP
 10
0.0
 20
0.0
 30
0.0
  9
$UCSORGBOTTOM
 10
0.0
 20
0.0
 30
0.0
  9
$UCSORGLEFT
 10
0.0
 20
0.0
 30
0.0
  9
$UCSORGRIGHT
 10
0.0
 20
0.0
 30
0.0
  9
$UCSORGFRONT
 10
0.0
 20
0.0
 30
0.0
  9
$UCSORGBACK
 10
0.0
 20
0.0
 30
0.0
  9
$PUCSBASE
  2

  9
$PUCSNAME
  2

  9
$PUCSORG
 10
0.0
 20
0.0
 30
0.0
  9
$PUCSXDIR
 10
1.0
 20
0.0
 30
0.0
  9
$PUCSYDIR
 10
0.0
 20
1.0
 30
0.0
  9
$PUCSORTHOREF
  2

  9
$PUCSORTHOVIEW
 70
     0
  9
$PUCSORGTOP
 10
0.0
 20
0.0
 30
0.0
  9
$PUCSORGBOTTOM
 10
0.0
 20
0.0
 30
0.0
  9
$PUCSORGLEFT
 10
0.0
 20
0.0
 30
0.0
  9
$PUCSORGRIGHT
 10
0.0
 20
0.0
 30
0.0
  9
$PUCSORGFRONT
 10
0.0
 20
0.0
 30
0.0
  9
$PUCSORGBACK
 10
0.0
 20
0.0
 30
0.0
  9
$USERI1
 70
     0
  9
$USERI2
 70
     0
  9
$USERI3
 70
     0
  9
$USERI4
 70
     0
  9
$USERI5
 70
     0
  9
$USERR1
 40
0.0
  9
$USERR2
 40
0.0
  9
$USERR3
 40
0.0
  9
$USERR4
 40
0.0
  9
$USERR5
 40
0.0
  9
$WORLDVIEW
 70
     1
  9
$SHADEDGE
 70
     3
  9
$SHADEDIF
 70
    70
  9
$TILEMODE
 70
     1
  9
$MAXACTVP
 70
    16
  9
$PINSBASE
 10
0.0
 20
0.0
 30
0.0
  9
$PLIMCHECK
 70
     0
  9
$PEXTMIN
 10
1.000000000000000E+20
 20
1.000000000000000E+20
 30
1.000000000000000E+20
  9
$PEXTMAX
 10
-1.000000000000000E+20
 20
-1.000000000000000E+20
 30
-1.000000000000000E+20
  9
$PLIMMIN
 10
0.0
 20
0.0
  9
$PLIMMAX
 10
420.0
 20
297.0
  9
$UNITMODE
 70
     0
  9
$VISRETAIN
 70
     0
  9
$PLINEGEN
 70
     0
  9
$PSLTSCALE
 70
     0
  9
$TREEDEPTH
 70
  3020
  9
$CMLSTYLE
  2
STANDARD
  9
$CMLJUST
 70
     0
  9
$CMLSCALE
 40
1.0
  9
$PROXYGRAPHICS
 70
     1
  9
$MEASUREMENT
 70
     0
  9
$CELWEIGHT
370
    -1
  9
$ENDCAPS
280
     0
  9
$JOINSTYLE
280
     0
  9
$LWDISPLAY
290
     0
  9
$INSUNITS
 70
     0
  9
$HYPERLINKBASE
  1

  9
$STYLESHEET
  1

  9
$XEDIT
290
     1
  9
$CEPSNTYPE
380
     0
  9
$PSTYLEMODE
290
     1
  9
$FINGERPRINTGUID
  2
{9C848D35-B80B-4F20-A0F3-F539F4943CFB}
  9
$VERSIONGUID
  2
{A6443514-AACC-4F8F-A135-6A7AF77917BE}
  9
$EXTNAMES
290
     1
  9
$PSVPSCALE
 40
0.0
  9
$OLESTARTUP
290
     0
  0
ENDSEC
  0
SECTION
  2
CLASSES
  0
CLASS
  1
ACDBDICTIONARYWDFLT
  2
AcDbDictionaryWithDefault
  3
ObjectDBX Classes
 90
        0
280
     0
281
     0
  0
CLASS
  1
ACDBPLACEHOLDER
  2
AcDbPlaceHolder
  3
ObjectDBX Classes
 90
        0
280
     0
281
     0
  0
CLASS
  1
LAYOUT
  2
AcDbLayout
  3
ObjectDBX Classes
 90
        0
280
     0
281
     0
  0
CLASS
  1
DICTIONARYVAR
  2
AcDbDictionaryVar
  3
ObjectDBX Classes
 90
        0
280
     0
281
     0
  0
CLASS
  1
MATERIAL
  2
AcDbMaterial
  3
ObjectDBX Classes
 90
     1153
280
     0
281
     0
  0
CLASS
  1
VISUALSTYLE
  2
AcDbVisualStyle
  3
ObjectDBX Classes
 90
     4095
280
     0
281
     0
  0
CLASS
  1
TABLESTYLE
  2
AcDbTableStyle
  3
ObjectDBX Classes
 90
     4095
280
     0
281
     0
  0
CLASS
  1
SCALE
  2
AcDbScale
  3
ObjectDBX Classes
 90
     1153
280
     0
281
     0
  0
CLASS
  1
MLEADERSTYLE
  2
AcDbMLeaderStyle
  3
ACDB_MLEADERSTYLE_CLASS
 90
     4095
280
     0
281
     0
  0
CLASS
  1
ACDBSECTIONVIEWSTYLE
  2
AcDbSectionViewStyle
  3
ObjectDBX Classes
 90
     1025
280
     0
281
     0
  0
CLASS
  1
ACDBDETAILVIEWSTYLE
  2
AcDbDetailViewStyle
  3
ObjectDBX Classes
 90
     1025
280
     0
281
     0
  0
CLASS
  1
CELLSTYLEMAP
  2
AcDbCellStyleMap
  3
ObjectDBX Classes
 90
     1152
280
     0
281
     0
  0
ENDSEC
  0
SECTION
  2
TABLES
  0
TABLE
  2
VPORT
  5
1DD
330
0
100
AcDbSymbolTable
 70
     1
  0
VPORT
  5
559
330
1DD
100
AcDbSymbolTableRecord
100
AcDbViewportTableRecord
  2
*ACTIVE
 70
     0
 10
0.0
 20
0.0
 11
1.0
 21
1.0
 12
476.9028635652036
 22
254.6086590867588
 13
0.0
 23
0.0
 14
10.0
 24
10.0
 15
10.0
 25
10.0
 16
0.0
 26
0.0
 36
1.0
 17
0.0
 27
0.0
 37
0.0
 40
491.7173586462622
 41
1.899603698811096
 42
50.0
 43
0.0
 44
0.0
 50
0.0
 51
0.0
 71
     0
 72
   100
 73
     1
 74
     0
 75
     0
 76
     0
 77
     0
 78
     0
281
     0
 65
     1
110
0.0
120
0.0
130
0.0
111
1.0
121
0.0
131
0.0
112
0.0
122
1.0
132
0.0
 79
     0
146
0.0
1001
ACAD_NAV_VCDISPLAY
1070
     3
  0
ENDTAB
  0
TABLE
  2
LTYPE
  5
1DA
330
0
100
AcDbSymbolTable
 70
     4
  0
LTYPE
  5
1E8
330
1DA
100
AcDbSymbolTableRecord
100
AcDbLinetypeTableRecord
  2
BYBLOCK
 70
     0
  3

 72
    65
 73
     0
 40
0.0
  0
LTYPE
  5
1E9
330
1DA
100
AcDbSymbolTableRecord
100
AcDbLinetypeTableRecord
  2
BYLAYER
 70
     0
  3

 72
    65
 73
     0
 40
0.0
  0
LTYPE
  5
1EA
330
1DA
100
AcDbSymbolTableRecord
100
AcDbLinetypeTableRecord
  2
CONTINUOUS
 70
     0
  3
Solid line
 72
    65
 73
     0
 40
0.0
  0
LTYPE
  5
1F8
330
1DA
100
AcDbSymbolTableRecord
100
AcDbLinetypeTableRecord
  2
DASHED
 70
     0
  3
__ __ __ __ __ __ __ __ __ __ __ __ __ __ __ __
 72
    65
 73
     2
 40
0.75
 49
0.5
 74
     0
 49
-0.25
 74
     0
  0
LTYPE
  5
1F9
330
1DA
100
AcDbSymbolTableRecord
100
AcDbLinetypeTableRecord
  2
CENTER
 70
     0
  3
____ _ ____ _ ____ _ ____ _ ____ _ ____ _ ____ 
 72
    65
 73
     4
 40
2.0
 49
1.25
 74
     0
 49
-0.25
 74
     0
 49
0.25
 74
     0
 49
-0.25
 74
     0
  0
LTYPE
  5
1FA
330
1DA
100
AcDbSymbolTableRecord
100
AcDbLinetypeTableRecord
  2
PHANTOM
 70
     0
  3
______  __  __  ______  __  __  ______  __  __ 
 72
    65
 73
     6
 40
2.5
 49
1.25
 74
     0
 49
-0.25
 74
     0
 49
0.25
 74
     0
 49
-0.25
 74
     0
 49
0.25
 74
     0
 49
-0.25
 74
     0
  0
ENDTAB
  0
TABLE
  2
LAYER
  5
1D7
330
0
100
AcDbSymbolTable
 70
     8
  0
LAYER
  5
1E5
102
{ACAD_XDICTIONARY
360
5B2
102
}
330
1D7
100
AcDbSymbolTableRecord
100
AcDbLayerTableRecord
  2
0
 70
     0
 62
     7
  6
CONTINUOUS
370
    -3
390
560
  0
LAYER
  5
1FB
102
{ACAD_XDICTIONARY
360
5B4
102
}
330
1D7
100
AcDbSymbolTableRecord
100
AcDbLayerTableRecord
  2
4
 70
     0
 62
     1
  6
CENTER
370
    -3
390
560
  0
LAYER
  5
1FC
102
{ACAD_XDICTIONARY
360
5B6
102
}
330
1D7
100
AcDbSymbolTableRecord
100
AcDbLayerTableRecord
  2
5
 70
     0
 62
     6
  6
PHANTOM
370
    -3
390
560
  0
LAYER
  5
1FD
102
{ACAD_XDICTIONARY
360
5B8
102
}
330
1D7
100
AcDbSymbolTableRecord
100
AcDbLayerTableRecord
  2
1
 70
     0
 62
     7
  6
CONTINUOUS
370
    -3
390
560
  0
LAYER
  5
1FE
102
{ACAD_XDICTIONARY
360
5BA
102
}
330
1D7
100
AcDbSymbolTableRecord
100
AcDbLayerTableRecord
  2
2
 70
     0
 62
     4
  6
CONTINUOUS
370
    -3
390
560
  0
LAYER
  5
1FF
102
{ACAD_XDICTIONARY
360
5BC
102
}
330
1D7
100
AcDbSymbolTableRecord
100
AcDbLayerTableRecord
  2
3
 70
     0
 62
     2
  6
DASHED
370
    -3
390
560
  0
LAYER
  5
200
102
{ACAD_XDICTIONARY
360
5BE
102
}
330
1D7
100
AcDbSymbolTableRecord
100
AcDbLayerTableRecord
  2
6
 70
     0
 62
     5
  6
CONTINUOUS
370
    -3
390
560
  0
LAYER
  5
201
102
{ACAD_XDICTIONARY
360
5C0
102
}
330
1D7
100
AcDbSymbolTableRecord
100
AcDbLayerTableRecord
  2
7
 70
     0
 62
     3
  6
CONTINUOUS
370
    -3
390
560
  0
ENDTAB
  0
TABLE
  2
STYLE
  5
1D8
330
0
100
AcDbSymbolTable
 70
     1
  0
STYLE
  5
1E6
330
1D8
100
AcDbSymbolTableRecord
100
AcDbTextStyleTableRecord
  2
STANDARD
 70
     0
 40
0.0
 41
1.0
 50
0.0
 71
     0
 42
5.0
  3
txt
  4

  0
ENDTAB
  0
TABLE
  2
VIEW
  5
1DB
330
0
100
AcDbSymbolTable
 70
     0
  0
ENDTAB
  0
TABLE
  2
UCS
  5
1DC
330
0
100
AcDbSymbolTable
 70
     0
  0
ENDTAB
  0
TABLE
  2
APPID
  5
1DE
330
0
100
AcDbSymbolTable
 70
     3
  0
APPID
  5
1E7
330
1DE
100
AcDbSymbolTableRecord
100
AcDbRegAppTableRecord
  2
ACAD
 70
     0
  0
APPID
  5
5CC
330
1DE
100
AcDbSymbolTableRecord
100
AcDbRegAppTableRecord
  2
ACAD_NAV_VCDISPLAY
 70
     0
  0
APPID
  5
605
330
1DE
100
AcDbSymbolTableRecord
100
AcDbRegAppTableRecord
  2
ACAD_MLEADERVER
 70
     0
  0
ENDTAB
  0
TABLE
  2
DIMSTYLE
  5
1DF
330
0
100
AcDbSymbolTable
 70
     1
100
AcDbDimStyleTable
 71
     0
  0
DIMSTYLE
105
203
330
1DF
100
AcDbSymbolTableRecord
100
AcDbDimStyleTableRecord
  2
STANDARD
 70
     0
 41
3.0
 42
1.0
 43
10.0
 44
1.0
 73
     0
 74
     0
 77
     3
 78
     8
140
3.2
141
0.0
147
1.0
172
     1
173
     1
284
     8
285
     8
286
     8
340
1E6
  0
ENDTAB
  0
TABLE
  2
BLOCK_RECORD
  5
1D6
330
0
100
AcDbSymbolTable
 70
     0
  0
BLOCK_RECORD
  5
1F3
102
{ACAD_XDICTIONARY
360
3B9
102
}
330
1D6
100
AcDbSymbolTableRecord
100
AcDbBlockTableRecord
  2
*MODEL_SPACE
340
5AE
  0
BLOCK_RECORD
  5
1EF
102
{ACAD_XDICTIONARY
360
3B7
102
}
330
1D6
100
AcDbSymbolTableRecord
100
AcDbBlockTableRecord
  2
*PAPER_SPACE
340
5AF
  0
ENDTAB
  0
ENDSEC
  0
SECTION
  2
BLOCKS
  0
BLOCK
  5
1F4
330
1F3
100
AcDbEntity
  8
0
100
AcDbBlockBegin
  2
*MODEL_SPACE
 70
     0
 10
0.0
 20
0.0
 30
0.0
  3
*MODEL_SPACE
  1

  0
ENDBLK
  5
1F5
330
1F3
100
AcDbEntity
  8
0
100
AcDbBlockEnd
  0
BLOCK
  5
1F0
330
1EF
100
AcDbEntity
 67
     1
  8
0
100
AcDbBlockBegin
  2
*PAPER_SPACE
 70
     0
 10
0.0
 20
0.0
 30
0.0
  3
*PAPER_SPACE
  1

  0
ENDBLK
  5
1F1
330
1EF
100
AcDbEntity
 67
     1
  8
0
100
AcDbBlockEnd
  0
ENDSEC
  0
SECTION
  2
ENTITIES
  0
TEXT
  5
20B
330
1F3
100
AcDbEntity
  8
6
  6
Continuous
100
AcDbText
 10
44.295628
 20
10.725171
 30
0.0
 40
1.399999999999999
  1
6
 41
1.069393
100
AcDbText
  0
TEXT
  5
20C
330
1F3
100
AcDbEntity
  8
1
  6
Continuous
100
AcDbText
 10
34.295628
 20
10.725171
 30
0.0
 40
1.399999999999999
  1
1
 41
1.069393
100
AcDbText
  0
TEXT
  5
20D
330
1F3
100
AcDbEntity
  8
1
  6
Continuous
100
AcDbText
 10
26.316128
 20
10.676471
 30
0.0
 40
1.399999999999999
  1
LAYER
 41
1.009912999999996
100
AcDbText
  0
TEXT
  5
20E
330
1F3
100
AcDbEntity
  8
2
  6
Continuous
100
AcDbText
 10
36.295628
 20
10.725171
 30
0.0
 40
1.399999999999999
  1
2
 41
1.069393
100
AcDbText
  0
TEXT
  5
20F
330
1F3
100
AcDbEntity
  8
3
  6
DASHED
100
AcDbText
 10
38.295628
 20
10.725171
 30
0.0
 40
1.399999999999999
  1
3
 41
1.069393
100
AcDbText
  0
TEXT
  5
210
330
1F3
100
AcDbEntity
  8
4
  6
CENTER
100
AcDbText
 10
40.29562799999999
 20
10.725171
 30
0.0
 40
1.399999999999999
  1
4
 41
1.069393
100
AcDbText
  0
TEXT
  5
211
330
1F3
100
AcDbEntity
  8
5
  6
PHANTOM
100
AcDbText
 10
42.295628
 20
10.725171
 30
0.0
 40
1.399999999999999
  1
5
 41
1.069393
100
AcDbText
  0
TEXT
  5
212
330
1F3
100
AcDbEntity
  8
7
  6
Continuous
100
AcDbText
 10
26.31622800000001
 20
26.67647199999999
 30
0.0
 40
3.0
  1
CODE No.5169
 41
1.003962999999999
100
AcDbText
  0
TEXT
  5
213
330
1F3
100
AcDbEntity
  8
7
  6
Continuous
100
AcDbText
 10
26.31622800000001
 20
18.676472
 30
0.0
 40
3.0
  1
TYPE No.TM-92-R
 41
1.003152
100
AcDbText
  0
TEXT
  5
214
330
1F3
100
AcDbEntity
  8
7
  6
Continuous
100
AcDbText
 10
46.295628
 20
10.725171
 30
0.0
 40
1.399999999999999
  1
7
 41
1.069393
100
AcDbText
  0
LINE
  5
215
330
1F3
100
AcDbEntity
  8
1
  6
Continuous
100
AcDbLine
 10
57.5
 20
384.5259779999998
 30
0.0
 11
57.5
 21
136.775978
 31
0.0
  0
LINE
  5
216
330
1F3
100
AcDbEntity
  8
1
  6
Continuous
100
AcDbLine
 10
43.5
 20
384.5259779999998
 30
0.0
 11
43.5
 21
136.775978
 31
0.0
  0
LINE
  5
217
330
1F3
100
AcDbEntity
  8
1
  6
Continuous
100
AcDbLine
 10
68.0
 20
393.2759779999998
 30
0.0
 11
33.0
 21
393.2759779999998
 31
0.0
  0
LINE
  5
218
330
1F3
100
AcDbEntity
  8
1
  6
Continuous
100
AcDbLine
 10
68.0
 20
391.6759719999999
 30
0.0
 11
33.0
 21
391.6759719999999
 31
0.0
  0
LINE
  5
219
330
1F3
100
AcDbEntity
  8
1
  6
Continuous
100
AcDbLine
 10
68.0
 20
393.2759779999998
 30
0.0
 11
68.0
 21
391.6759719999999
 31
0.0
  0
LINE
  5
21A
330
1F3
100
AcDbEntity
  8
1
  6
Continuous
100
AcDbLine
 10
33.0
 20
393.2759779999998
 30
0.0
 11
33.0
 21
391.6759719999999
 31
0.0
  0
LINE
  5
21B
330
1F3
100
AcDbEntity
  8
1
  6
Continuous
100
AcDbLine
 10
44.0
 20
391.6759719999999
 30
0.0
 11
44.0
 21
383.2759779999999
 31
0.0
  0
LINE
  5
21C
330
1F3
100
AcDbEntity
  8
1
  6
Continuous
100
AcDbLine
 10
57.0
 20
391.6759719999999
 30
0.0
 11
57.0
 21
383.2759779999999
 31
0.0
  0
LINE
  5
21D
330
1F3
100
AcDbEntity
  8
1
  6
Continuous
100
AcDbLine
 10
74.0
 20
146.275978
 30
0.0
 11
57.5
 21
146.275978
 31
0.0
  0
LINE
  5
21E
330
1F3
100
AcDbEntity
  8
1
  6
Continuous
100
AcDbLine
 10
74.0
 20
126.2759779999999
 30
0.0
 11
27.0
 21
126.2759779999999
 31
0.0
  0
LINE
  5
21F
330
1F3
100
AcDbEntity
  8
1
  6
Continuous
100
AcDbLine
 10
76.0
 20
144.275978
 30
0.0
 11
76.0
 21
128.275978
 31
0.0
  0
LINE
  5
220
330
1F3
100
AcDbEntity
  8
1
  6
Continuous
100
AcDbLine
 10
25.0
 20
144.275978
 30
0.0
 11
25.0
 21
128.275978
 31
0.0
  0
LINE
  5
221
330
1F3
100
AcDbEntity
  8
1
  6
Continuous
100
AcDbLine
 10
70.25
 20
138.525978
 30
0.0
 11
65.75
 21
138.525978
 31
0.0
  0
LINE
  5
222
330
1F3
100
AcDbEntity
  8
1
  6
Continuous
100
AcDbLine
 10
70.25
 20
134.025978
 30
0.0
 11
65.75
 21
134.025978
 31
0.0
  0
LINE
  5
223
330
1F3
100
AcDbEntity
  8
1
  6
Continuous
100
AcDbLine
 10
63.5
 20
136.275978
 30
0.0
 11
63.5
 21
136.275978
 31
0.0
  0
LINE
  5
224
330
1F3
100
AcDbEntity
  8
1
  6
Continuous
100
AcDbLine
 10
72.5
 20
136.275978
 30
0.0
 11
72.5
 21
136.275978
 31
0.0
  0
LINE
  5
225
330
1F3
100
AcDbEntity
  8
1
  6
Continuous
100
AcDbLine
 10
37.5
 20
136.275978
 30
0.0
 11
37.5
 21
136.275978
 31
0.0
  0
LINE
  5
226
330
1F3
100
AcDbEntity
  8
1
  6
Continuous
100
AcDbLine
 10
35.25
 20
138.525978
 30
0.0
 11
30.75
 21
138.525978
 31
0.0
  0
LINE
  5
227
330
1F3
100
AcDbEntity
  8
1
  6
Continuous
100
AcDbLine
 10
35.25
 20
134.025978
 30
0.0
 11
30.75
 21
134.025978
 31
0.0
  0
LINE
  5
228
330
1F3
100
AcDbEntity
  8
1
  6
Continuous
100
AcDbLine
 10
28.5
 20
136.275978
 30
0.0
 11
28.5
 21
136.275978
 31
0.0
  0
LINE
  5
229
330
1F3
100
AcDbEntity
  8
1
  6
Continuous
100
AcDbLine
 10
57.5
 20
147.775978
 30
0.0
 11
43.5
 21
147.775978
 31
0.0
  0
LINE
  5
22A
330
1F3
100
AcDbEntity
  8
1
  6
Continuous
100
AcDbLine
 10
40.900024
 20
146.275978
 30
0.0
 11
40.900024
 21
126.2759779999999
 31
0.0
  0
LINE
  5
22B
330
1F3
100
AcDbEntity
  8
1
  6
Continuous
100
AcDbLine
 10
60.10000600000001
 20
146.275978
 30
0.0
 11
60.10000600000001
 21
126.2759779999999
 31
0.0
  0
LINE
  5
22C
330
1F3
100
AcDbEntity
  8
4
  6
CENTER
 48
0.2
100
AcDbLine
 10
59.329529
 20
273.7759779999997
 30
0.0
 11
49.698761
 21
273.7759779999997
 31
0.0
  0
LINE
  5
22D
330
1F3
100
AcDbEntity
  8
1
  6
Continuous
100
AcDbLine
 10
197.1693119999999
 20
391.5259779999999
 30
0.0
 11
197.1693119999999
 21
277.2759779999999
 31
0.0
  0
LINE
  5
22E
330
1F3
100
AcDbEntity
  8
1
  6
Continuous
100
AcDbLine
 10
199.46933
 20
391.5259779999999
 30
0.0
 11
199.46933
 21
276.7759779999999
 31
0.0
  0
LINE
  5
22F
330
1F3
100
AcDbEntity
  8
1
  6
Continuous
100
AcDbLine
 10
182.4693359999999
 20
393.2759779999998
 30
0.0
 11
195.4693049999999
 21
393.2759779999998
 31
0.0
  0
LINE
  5
230
330
1F3
100
AcDbEntity
  8
1
  6
Continuous
100
AcDbLine
 10
182.4693359999999
 20
391.6759719999999
 30
0.0
 11
195.469336
 21
391.6759719999999
 31
0.0
  0
LINE
  5
231
330
1F3
100
AcDbEntity
  8
1
  6
Continuous
100
AcDbLine
 10
182.4693359999999
 20
393.2759779999998
 30
0.0
 11
182.4693359999999
 21
391.6759719999999
 31
0.0
  0
LINE
  5
232
330
1F3
100
AcDbEntity
  8
1
  6
Continuous
100
AcDbLine
 10
195.469336
 20
393.2759779999998
 30
0.0
 11
195.469336
 21
376.7759779999999
 31
0.0
  0
LINE
  5
233
330
1F3
100
AcDbEntity
  8
1
  6
Continuous
100
AcDbLine
 10
195.469336
 20
376.7759779999999
 30
0.0
 11
197.069312
 21
376.7759779999999
 31
0.0
  0
LINE
  5
234
330
1F3
100
AcDbEntity
  8
4
  6
CENTER
 48
0.2
100
AcDbLine
 10
189.5693359999999
 20
383.2759779999999
 30
0.0
 11
206.46933
 21
383.2759779999999
 31
0.0
  0
LINE
  5
235
330
1F3
100
AcDbEntity
  8
4
  6
CENTER
 48
0.2
100
AcDbLine
 10
190.169312
 20
259.7759779999999
 30
0.0
 11
207.769348
 21
259.7759779999999
 31
0.0
  0
LINE
  5
236
330
1F3
100
AcDbEntity
  8
4
  6
CENTER
 48
0.2
100
AcDbLine
 10
197.569312
 20
136.275978
 30
0.0
 11
222.5693359999999
 21
136.275978
 31
0.0
  0
LINE
  5
237
330
1F3
100
AcDbEntity
  8
4
  6
CENTER
 48
0.2
100
AcDbLine
 10
193.969315
 20
289.7759779999999
 30
0.0
 11
204.9693449999999
 21
289.7759779999999
 31
0.0
  0
LINE
  5
238
330
1F3
100
AcDbEntity
  8
4
  6
CENTER
 48
0.2
100
AcDbLine
 10
191.685364
 20
273.7759779999997
 30
0.0
 11
204.9693449999999
 21
273.7759779999997
 31
0.0
  0
LINE
  5
239
330
1F3
100
AcDbEntity
  8
1
  6
Continuous
100
AcDbLine
 10
199.46933
 20
296.7759779999997
 30
0.0
 11
201.769348
 21
296.7759779999997
 31
0.0
  0
LINE
  5
23A
330
1F3
100
AcDbEntity
  8
1
  6
Continuous
100
AcDbLine
 10
206.9693299999999
 20
147.785595
 30
0.0
 11
206.9693299999999
 21
126.2759779999999
 31
0.0
  0
LINE
  5
23B
330
1F3
100
AcDbEntity
  8
1
  6
Continuous
100
AcDbLine
 10
204.669312
 20
147.775978
 30
0.0
 11
204.669312
 21
129.775978
 31
0.0
  0
LINE
  5
23C
330
1F3
100
AcDbEntity
  8
1
  6
Continuous
100
AcDbLine
 10
204.669312
 20
129.775978
 30
0.0
 11
206.9693299999999
 21
129.775978
 31
0.0
  0
LINE
  5
23D
330
1F3
100
AcDbEntity
  8
1
  6
Continuous
100
AcDbLine
 10
199.7204089999999
 20
157.2836669999998
 30
0.0
 11
204.6693419999999
 21
147.7759629999999
 31
0.0
  0
LINE
  5
23E
330
1F3
100
AcDbEntity
  8
1
  6
Continuous
100
AcDbLine
 10
206.9693299999999
 20
146.275978
 30
0.0
 11
217.5693359999999
 21
146.275978
 31
0.0
  0
LINE
  5
23F
330
1F3
100
AcDbEntity
  8
1
  6
Continuous
100
AcDbLine
 10
206.9693299999999
 20
126.2759779999999
 30
0.0
 11
217.5693359999999
 21
126.2759779999999
 31
0.0
  0
LINE
  5
240
330
1F3
100
AcDbEntity
  8
1
  6
Continuous
100
AcDbLine
 10
217.5693359999999
 20
146.275978
 30
0.0
 11
217.5693359999999
 21
126.2759779999999
 31
0.0
  0
LINE
  5
241
330
1F3
100
AcDbEntity
  8
1
  6
Continuous
100
AcDbLine
 10
215.9693299999999
 20
146.275978
 30
0.0
 11
215.9693299999999
 21
126.2759779999999
 31
0.0
  0
LINE
  5
242
330
1F3
100
AcDbEntity
  8
1
  6
Continuous
100
AcDbLine
 10
199.4693449999998
 20
276.7759779999999
 30
0.0
 11
196.96933
 21
273.7759479999999
 31
0.0
  0
LINE
  5
243
330
1F3
100
AcDbEntity
  8
1
  6
Continuous
100
AcDbLine
 10
196.96933
 20
273.7759779999997
 30
0.0
 11
199.4693449999998
 21
270.7759479999999
 31
0.0
  0
LINE
  5
244
330
1F3
100
AcDbEntity
  8
1
  6
Continuous
100
AcDbLine
 10
201.769348
 20
296.7759779999997
 30
0.0
 11
201.769348
 21
158.3382029999999
 31
0.0
  0
LINE
  5
245
330
1F3
100
AcDbEntity
  8
1
  6
Continuous
100
AcDbLine
 10
199.46933
 20
270.7759779999999
 30
0.0
 11
199.46933
 21
158.3286179999998
 31
0.0
  0
LINE
  5
246
330
1F3
100
AcDbEntity
  8
1
  6
Continuous
100
AcDbLine
 10
197.1693119999999
 20
270.2759779999999
 30
0.0
 11
197.1693119999999
 21
251.525978
 31
0.0
  0
LINE
  5
247
330
1F3
100
AcDbEntity
  8
3
  6
DASHED
 48
0.1
100
AcDbLine
 10
197.1693119999999
 20
291.8759839999998
 30
0.0
 11
199.46933
 21
291.8759839999998
 31
0.0
  0
LINE
  5
248
330
1F3
100
AcDbEntity
  8
3
  6
DASHED
 48
0.1
100
AcDbLine
 10
197.1693119999999
 20
287.6759719999999
 30
0.0
 11
199.46933
 21
287.6759719999999
 31
0.0
  0
LINE
  5
249
330
1F3
100
AcDbEntity
  8
1
  6
Continuous
100
AcDbLine
 10
203.169312
 20
140.775978
 30
0.0
 11
204.669312
 21
140.775978
 31
0.0
  0
LINE
  5
24A
330
1F3
100
AcDbEntity
  8
1
  6
Continuous
100
AcDbLine
 10
203.169312
 20
131.775978
 30
0.0
 11
204.669312
 21
131.775978
 31
0.0
  0
LINE
  5
24B
330
1F3
100
AcDbEntity
  8
1
  6
Continuous
100
AcDbLine
 10
202.669312
 20
140.275978
 30
0.0
 11
202.669312
 21
132.275978
 31
0.0
  0
LINE
  5
24C
330
1F3
100
AcDbEntity
  8
1
  6
Continuous
100
AcDbLine
 10
203.169312
 20
140.775978
 30
0.0
 11
203.169312
 21
131.775978
 31
0.0
  0
LINE
  5
24D
330
1F3
100
AcDbEntity
  8
1
  6
Continuous
100
AcDbLine
 10
202.6693419999999
 20
140.275978
 30
0.0
 11
203.1693269999999
 21
140.7759629999999
 31
0.0
  0
LINE
  5
24E
330
1F3
100
AcDbEntity
  8
1
  6
Continuous
100
AcDbLine
 10
203.1693269999999
 20
131.775978
 30
0.0
 11
202.6693269999999
 21
132.2759929999998
 31
0.0
  0
LINE
  5
24F
330
1F3
100
AcDbEntity
  8
1
  6
Continuous
100
AcDbLine
 10
195.6693119999999
 20
264.2759779999999
 30
0.0
 11
197.1693119999999
 21
264.2759779999999
 31
0.0
  0
LINE
  5
250
330
1F3
100
AcDbEntity
  8
1
  6
Continuous
100
AcDbLine
 10
195.6693119999999
 20
255.2759779999999
 30
0.0
 11
197.1693119999999
 21
255.2759779999999
 31
0.0
  0
LINE
  5
251
330
1F3
100
AcDbEntity
  8
1
  6
Continuous
100
AcDbLine
 10
195.169312
 20
263.7759779999999
 30
0.0
 11
195.169312
 21
255.775978
 31
0.0
  0
LINE
  5
252
330
1F3
100
AcDbEntity
  8
1
  6
Continuous
100
AcDbLine
 10
195.6693119999999
 20
264.2759779999999
 30
0.0
 11
195.6693119999999
 21
255.2759779999999
 31
0.0
  0
LINE
  5
253
330
1F3
100
AcDbEntity
  8
1
  6
Continuous
100
AcDbLine
 10
195.669327
 20
264.2759779999999
 30
0.0
 11
195.1693419999998
 21
263.7759779999999
 31
0.0
  0
LINE
  5
254
330
1F3
100
AcDbEntity
  8
1
  6
Continuous
100
AcDbLine
 10
195.669327
 20
255.2759779999999
 30
0.0
 11
195.169312
 21
255.775993
 31
0.0
  0
LINE
  5
255
330
1F3
100
AcDbEntity
  8
1
  6
Continuous
100
AcDbLine
 10
201.769348
 20
262.175972
 30
0.0
 11
202.7693479999999
 21
262.175972
 31
0.0
  0
LINE
  5
256
330
1F3
100
AcDbEntity
  8
1
  6
Continuous
100
AcDbLine
 10
201.769348
 20
257.3759839999999
 30
0.0
 11
202.7693479999999
 21
257.3759839999999
 31
0.0
  0
LINE
  5
257
330
1F3
100
AcDbEntity
  8
1
  6
Continuous
100
AcDbLine
 10
202.7693479999999
 20
262.175972
 30
0.0
 11
202.7693479999999
 21
257.3759839999999
 31
0.0
  0
LINE
  5
258
330
1F3
100
AcDbEntity
  8
1
  6
Continuous
100
AcDbLine
 10
199.46933
 20
387.7759779999998
 30
0.0
 11
200.96933
 21
387.7759779999998
 31
0.0
  0
LINE
  5
259
330
1F3
100
AcDbEntity
  8
1
  6
Continuous
100
AcDbLine
 10
199.46933
 20
378.7759779999998
 30
0.0
 11
200.96933
 21
378.7759779999998
 31
0.0
  0
LINE
  5
25A
330
1F3
100
AcDbEntity
  8
1
  6
Continuous
100
AcDbLine
 10
201.46933
 20
387.2759779999999
 30
0.0
 11
201.46933
 21
379.2759779999999
 31
0.0
  0
LINE
  5
25B
330
1F3
100
AcDbEntity
  8
1
  6
Continuous
100
AcDbLine
 10
200.96933
 20
387.7759779999998
 30
0.0
 11
200.96933
 21
378.7759779999998
 31
0.0
  0
LINE
  5
25C
330
1F3
100
AcDbEntity
  8
1
  6
Continuous
100
AcDbLine
 10
201.46936
 20
387.2759779999999
 30
0.0
 11
200.9693449999998
 21
387.7759779999998
 31
0.0
  0
LINE
  5
25D
330
1F3
100
AcDbEntity
  8
1
  6
Continuous
100
AcDbLine
 10
201.469345
 20
379.2759779999999
 30
0.0
 11
200.96933
 21
378.7759779999998
 31
0.0
  0
LINE
  5
25E
330
1F3
100
AcDbEntity
  8
1
  6
Continuous
100
AcDbLine
 10
193.8693299999999
 20
385.6759719999999
 30
0.0
 11
195.469336
 21
385.6759719999999
 31
0.0
  0
LINE
  5
25F
330
1F3
100
AcDbEntity
  8
1
  6
Continuous
100
AcDbLine
 10
193.8693299999999
 20
380.8759839999999
 30
0.0
 11
195.469336
 21
380.8759839999999
 31
0.0
  0
LINE
  5
260
330
1F3
100
AcDbEntity
  8
1
  6
Continuous
100
AcDbLine
 10
43.5
 20
146.275978
 30
0.0
 11
27.0
 21
146.275978
 31
0.0
  0
LINE
  5
261
330
1F3
100
AcDbEntity
  8
4
  6
CENTER
 48
0.2
100
AcDbLine
 10
177.469336
 20
473.0519489999998
 30
0.0
 11
214.4693359999997
 21
473.0519489999998
 31
0.0
  0
LINE
  5
262
330
1F3
100
AcDbEntity
  8
1
  6
Continuous
100
AcDbLine
 10
182.4693359999999
 20
484.051949
 30
0.0
 11
182.4693359999999
 21
462.0519489999998
 31
0.0
  0
LINE
  5
263
330
1F3
100
AcDbEntity
  8
1
  6
Continuous
100
AcDbLine
 10
195.469336
 20
484.051949
 30
0.0
 11
195.469336
 21
479.551949
 31
0.0
  0
LINE
  5
264
330
1F3
100
AcDbEntity
  8
1
  6
Continuous
100
AcDbLine
 10
197.1693119999999
 20
480.051949
 30
0.0
 11
197.1693119999999
 21
466.0519489999998
 31
0.0
  0
LINE
  5
265
330
1F3
100
AcDbEntity
  8
1
  6
Continuous
100
AcDbLine
 10
215.9693299999999
 20
498.5519489999998
 30
0.0
 11
215.9693299999999
 21
482.6519549999998
 31
0.0
  0
LINE
  5
266
330
1F3
100
AcDbEntity
  8
1
  6
Continuous
100
AcDbLine
 10
217.5693359999999
 20
498.5519489999998
 30
0.0
 11
217.5693359999999
 21
482.6519549999998
 31
0.0
  0
LINE
  5
267
330
1F3
100
AcDbEntity
  8
4
  6
CENTER
 48
0.1
100
AcDbLine
 10
188.969336
 20
396.2759779999998
 30
0.0
 11
188.969336
 21
388.675972
 31
0.0
  0
LINE
  5
268
330
1F3
100
AcDbEntity
  8
4
  6
CENTER
 48
0.2
100
AcDbLine
 10
188.969336
 20
495.5519489999998
 30
0.0
 11
188.969336
 21
450.551949
 31
0.0
  0
LINE
  5
269
330
1F3
100
AcDbEntity
  8
1
  6
Continuous
100
AcDbLine
 10
195.469336
 20
479.551949
 30
0.0
 11
197.1693119999999
 21
479.551949
 31
0.0
  0
LINE
  5
26A
330
1F3
100
AcDbEntity
  8
1
  6
Continuous
100
AcDbLine
 10
195.469336
 20
466.551949
 30
0.0
 11
197.1693119999999
 21
466.551949
 31
0.0
  0
LINE
  5
26B
330
1F3
100
AcDbEntity
  8
1
  6
Continuous
100
AcDbLine
 10
199.46933
 20
480.051949
 30
0.0
 11
199.46933
 21
466.0519489999998
 31
0.0
  0
LINE
  5
26C
330
1F3
100
AcDbEntity
  8
1
  6
Continuous
100
AcDbLine
 10
197.1693119999999
 20
480.051949
 30
0.0
 11
206.9693299999999
 21
480.051949
 31
0.0
  0
LINE
  5
26D
330
1F3
100
AcDbEntity
  8
1
  6
Continuous
100
AcDbLine
 10
197.1693119999999
 20
466.0519489999998
 30
0.0
 11
206.9693299999999
 21
466.0519489999998
 31
0.0
  0
LINE
  5
26E
330
1F3
100
AcDbEntity
  8
1
  6
Continuous
100
AcDbLine
 10
201.46933
 20
477.0519489999998
 30
0.0
 11
201.46933
 21
469.0519489999998
 31
0.0
  0
LINE
  5
26F
330
1F3
100
AcDbEntity
  8
1
  6
Continuous
100
AcDbLine
 10
200.96933
 20
477.5519489999998
 30
0.0
 11
200.96933
 21
468.5519489999999
 31
0.0
  0
LINE
  5
270
330
1F3
100
AcDbEntity
  8
1
  6
Continuous
100
AcDbLine
 10
199.46933
 20
477.5519489999998
 30
0.0
 11
200.96933
 21
477.5519489999998
 31
0.0
  0
LINE
  5
271
330
1F3
100
AcDbEntity
  8
1
  6
Continuous
100
AcDbLine
 10
199.46933
 20
468.5519489999999
 30
0.0
 11
200.96933
 21
468.5519489999999
 31
0.0
  0
LINE
  5
272
330
1F3
100
AcDbEntity
  8
1
  6
Continuous
100
AcDbLine
 10
200.9693149999999
 20
477.5519489999998
 30
0.0
 11
201.4692989999999
 21
477.051979
 31
0.0
  0
LINE
  5
273
330
1F3
100
AcDbEntity
  8
1
  6
Continuous
100
AcDbLine
 10
200.9693599999999
 20
468.5519179999998
 30
0.0
 11
201.469376
 21
469.0519179999998
 31
0.0
  0
LINE
  5
274
330
1F3
100
AcDbEntity
  8
1
  6
Continuous
100
AcDbLine
 10
201.869348
 20
480.051949
 30
0.0
 11
201.869348
 21
466.0519489999998
 31
0.0
  0
LINE
  5
275
330
1F3
100
AcDbEntity
  8
1
  6
Continuous
100
AcDbLine
 10
201.869348
 20
475.451942
 30
0.0
 11
203.4693539999999
 21
475.451942
 31
0.0
  0
LINE
  5
276
330
1F3
100
AcDbEntity
  8
1
  6
Continuous
100
AcDbLine
 10
201.869348
 20
470.651955
 30
0.0
 11
203.4693539999999
 21
470.651955
 31
0.0
  0
LINE
  5
277
330
1F3
100
AcDbEntity
  8
1
  6
Continuous
100
AcDbLine
 10
206.9693299999999
 20
481.0519489999999
 30
0.0
 11
206.9693299999999
 21
465.0519489999998
 31
0.0
  0
LINE
  5
278
330
1F3
100
AcDbEntity
  8
1
  6
Continuous
100
AcDbLine
 10
208.569336
 20
481.0519489999999
 30
0.0
 11
208.569336
 21
465.0519489999998
 31
0.0
  0
LINE
  5
279
330
1F3
100
AcDbEntity
  8
1
  6
Continuous
100
AcDbLine
 10
208.569336
 20
482.6519549999998
 30
0.0
 11
215.9693299999999
 21
482.6519549999998
 31
0.0
  0
LINE
  5
27A
330
1F3
100
AcDbEntity
  8
1
  6
Continuous
100
AcDbLine
 10
208.569336
 20
463.451942
 30
0.0
 11
215.9693299999999
 21
463.451942
 31
0.0
  0
LINE
  5
27B
330
1F3
100
AcDbEntity
  8
1
  6
Continuous
100
AcDbLine
 10
208.569336
 20
481.0519489999999
 30
0.0
 11
215.9693299999999
 21
481.0519489999999
 31
0.0
  0
LINE
  5
27C
330
1F3
100
AcDbEntity
  8
1
  6
Continuous
100
AcDbLine
 10
208.569336
 20
465.0519489999998
 30
0.0
 11
215.9693299999999
 21
465.0519489999998
 31
0.0
  0
LINE
  5
27D
330
1F3
100
AcDbEntity
  8
1
  6
Continuous
100
AcDbLine
 10
215.9693299999999
 20
463.451942
 30
0.0
 11
215.9693299999999
 21
447.5519489999999
 31
0.0
  0
LINE
  5
27E
330
1F3
100
AcDbEntity
  8
1
  6
Continuous
100
AcDbLine
 10
217.5693359999999
 20
463.451942
 30
0.0
 11
217.5693359999999
 21
447.5519489999999
 31
0.0
  0
LINE
  5
27F
330
1F3
100
AcDbEntity
  8
1
  6
Continuous
100
AcDbLine
 10
215.9693299999999
 20
498.5519489999998
 30
0.0
 11
217.5693359999999
 21
498.5519489999998
 31
0.0
  0
LINE
  5
280
330
1F3
100
AcDbEntity
  8
1
  6
Continuous
100
AcDbLine
 10
215.9693299999999
 20
447.5519489999999
 30
0.0
 11
217.5693359999999
 21
447.5519489999999
 31
0.0
  0
LINE
  5
281
330
1F3
100
AcDbEntity
  8
1
  6
Continuous
100
AcDbLine
 10
209.5693359999998
 20
475.451942
 30
0.0
 11
209.5693359999998
 21
470.651955
 31
0.0
  0
LINE
  5
282
330
1F3
100
AcDbEntity
  8
1
  6
Continuous
100
AcDbLine
 10
208.569336
 20
475.451942
 30
0.0
 11
209.5693359999998
 21
475.451942
 31
0.0
  0
LINE
  5
283
330
1F3
100
AcDbEntity
  8
1
  6
Continuous
100
AcDbLine
 10
208.569336
 20
470.651955
 30
0.0
 11
209.5693359999998
 21
470.651955
 31
0.0
  0
LINE
  5
284
330
1F3
100
AcDbEntity
  8
1
  6
Continuous
100
AcDbLine
 10
186.7193359999999
 20
465.301949
 30
0.0
 11
186.7193359999999
 21
460.801949
 31
0.0
  0
LINE
  5
285
330
1F3
100
AcDbEntity
  8
1
  6
Continuous
100
AcDbLine
 10
191.219336
 20
465.301949
 30
0.0
 11
191.219336
 21
460.801949
 31
0.0
  0
LINE
  5
286
330
1F3
100
AcDbEntity
  8
1
  6
Continuous
100
AcDbLine
 10
188.969336
 20
478.5519489999998
 30
0.0
 11
188.969336
 21
478.5519489999998
 31
0.0
  0
LINE
  5
287
330
1F3
100
AcDbEntity
  8
1
  6
Continuous
100
AcDbLine
 10
188.969336
 20
467.551949
 30
0.0
 11
188.969336
 21
467.551949
 31
0.0
  0
LINE
  5
288
330
1F3
100
AcDbEntity
  8
1
  6
Continuous
100
AcDbLine
 10
188.969336
 20
487.551949
 30
0.0
 11
188.969336
 21
487.551949
 31
0.0
  0
LINE
  5
289
330
1F3
100
AcDbEntity
  8
1
  6
Continuous
100
AcDbLine
 10
188.969336
 20
458.551949
 30
0.0
 11
188.969336
 21
458.551949
 31
0.0
  0
LINE
  5
28A
330
1F3
100
AcDbEntity
  8
1
  6
Continuous
100
AcDbLine
 10
186.7193359999999
 20
485.301949
 30
0.0
 11
186.7193359999999
 21
480.8019489999998
 31
0.0
  0
LINE
  5
28B
330
1F3
100
AcDbEntity
  8
1
  6
Continuous
100
AcDbLine
 10
191.219336
 20
485.301949
 30
0.0
 11
191.219336
 21
480.8019489999998
 31
0.0
  0
LINE
  5
28C
330
1F3
100
AcDbEntity
  8
4
  6
CENTER
 48
0.2
100
AcDbLine
 10
177.5693359999999
 20
66.5
 30
0.0
 11
214.569336
 21
66.5
 31
0.0
  0
LINE
  5
28D
330
1F3
100
AcDbEntity
  8
1
  6
Continuous
100
AcDbLine
 10
182.4693359999999
 20
55.5
 30
0.0
 11
182.4693359999999
 21
77.5
 31
0.0
  0
LINE
  5
28E
330
1F3
100
AcDbEntity
  8
1
  6
Continuous
100
AcDbLine
 10
197.1693119999999
 20
59.5
 30
0.0
 11
197.1693119999999
 21
73.5
 31
0.0
  0
LINE
  5
28F
330
1F3
100
AcDbEntity
  8
1
  6
Continuous
100
AcDbLine
 10
215.9693299999999
 20
41.0
 30
0.0
 11
215.9693299999999
 21
56.900002
 31
0.0
  0
LINE
  5
290
330
1F3
100
AcDbEntity
  8
1
  6
Continuous
100
AcDbLine
 10
217.5693359999999
 20
41.0
 30
0.0
 11
217.5693359999999
 21
56.900002
 31
0.0
  0
LINE
  5
291
330
1F3
100
AcDbEntity
  8
4
  6
CENTER
 48
0.2
100
AcDbLine
 10
188.969336
 20
44.00000799999999
 30
0.0
 11
188.969336
 21
89.00000799999999
 31
0.0
  0
LINE
  5
292
330
1F3
100
AcDbEntity
  8
1
  6
Continuous
100
AcDbLine
 10
195.469336
 20
60.0
 30
0.0
 11
197.1693119999999
 21
60.0
 31
0.0
  0
LINE
  5
293
330
1F3
100
AcDbEntity
  8
1
  6
Continuous
100
AcDbLine
 10
199.46933
 20
59.5
 30
0.0
 11
199.46933
 21
73.5
 31
0.0
  0
LINE
  5
294
330
1F3
100
AcDbEntity
  8
1
  6
Continuous
100
AcDbLine
 10
197.1693119999999
 20
59.5
 30
0.0
 11
206.9693299999999
 21
59.5
 31
0.0
  0
LINE
  5
295
330
1F3
100
AcDbEntity
  8
1
  6
Continuous
100
AcDbLine
 10
194.169312
 20
73.5
 30
0.0
 11
206.9693299999999
 21
73.5
 31
0.0
  0
LINE
  5
296
330
1F3
100
AcDbEntity
  8
1
  6
Continuous
100
AcDbLine
 10
206.9693299999999
 20
58.5
 30
0.0
 11
206.9693299999999
 21
74.5
 31
0.0
  0
LINE
  5
297
330
1F3
100
AcDbEntity
  8
1
  6
Continuous
100
AcDbLine
 10
208.569336
 20
58.5
 30
0.0
 11
208.569336
 21
74.5
 31
0.0
  0
LINE
  5
298
330
1F3
100
AcDbEntity
  8
1
  6
Continuous
100
AcDbLine
 10
208.569336
 20
56.900002
 30
0.0
 11
215.9693299999999
 21
56.900002
 31
0.0
  0
LINE
  5
299
330
1F3
100
AcDbEntity
  8
1
  6
Continuous
100
AcDbLine
 10
208.569336
 20
76.099998
 30
0.0
 11
215.9693299999999
 21
76.099998
 31
0.0
  0
LINE
  5
29A
330
1F3
100
AcDbEntity
  8
1
  6
Continuous
100
AcDbLine
 10
208.569336
 20
58.5
 30
0.0
 11
215.9693299999999
 21
58.5
 31
0.0
  0
LINE
  5
29B
330
1F3
100
AcDbEntity
  8
1
  6
Continuous
100
AcDbLine
 10
208.569336
 20
74.5
 30
0.0
 11
215.9693299999999
 21
74.5
 31
0.0
  0
LINE
  5
29C
330
1F3
100
AcDbEntity
  8
1
  6
Continuous
100
AcDbLine
 10
215.9693299999999
 20
76.099998
 30
0.0
 11
215.9693299999999
 21
92.0
 31
0.0
  0
LINE
  5
29D
330
1F3
100
AcDbEntity
  8
1
  6
Continuous
100
AcDbLine
 10
217.5693359999999
 20
76.099998
 30
0.0
 11
217.5693359999999
 21
92.0
 31
0.0
  0
LINE
  5
29E
330
1F3
100
AcDbEntity
  8
1
  6
Continuous
100
AcDbLine
 10
208.569336
 20
64.099998
 30
0.0
 11
210.169342
 21
64.099998
 31
0.0
  0
LINE
  5
29F
330
1F3
100
AcDbEntity
  8
1
  6
Continuous
100
AcDbLine
 10
208.569336
 20
68.900002
 30
0.0
 11
210.169342
 21
68.900002
 31
0.0
  0
LINE
  5
2A0
330
1F3
100
AcDbEntity
  8
1
  6
Continuous
100
AcDbLine
 10
186.7193359999999
 20
74.25
 30
0.0
 11
186.7193359999999
 21
78.75
 31
0.0
  0
LINE
  5
2A1
330
1F3
100
AcDbEntity
  8
1
  6
Continuous
100
AcDbLine
 10
191.219336
 20
74.25
 30
0.0
 11
191.219336
 21
78.75
 31
0.0
  0
LINE
  5
2A2
330
1F3
100
AcDbEntity
  8
1
  6
Continuous
100
AcDbLine
 10
189.069336
 20
61.0
 30
0.0
 11
189.069336
 21
61.0
 31
0.0
  0
LINE
  5
2A3
330
1F3
100
AcDbEntity
  8
1
  6
Continuous
100
AcDbLine
 10
189.069336
 20
72.0
 30
0.0
 11
189.069336
 21
72.0
 31
0.0
  0
LINE
  5
2A4
330
1F3
100
AcDbEntity
  8
1
  6
Continuous
100
AcDbLine
 10
188.969336
 20
52.0
 30
0.0
 11
188.969336
 21
52.0
 31
0.0
  0
LINE
  5
2A5
330
1F3
100
AcDbEntity
  8
1
  6
Continuous
100
AcDbLine
 10
188.969336
 20
81.0
 30
0.0
 11
188.969336
 21
81.0
 31
0.0
  0
LINE
  5
2A6
330
1F3
100
AcDbEntity
  8
1
  6
Continuous
100
AcDbLine
 10
186.7193359999999
 20
54.25
 30
0.0
 11
186.7193359999999
 21
58.75
 31
0.0
  0
LINE
  5
2A7
330
1F3
100
AcDbEntity
  8
1
  6
Continuous
100
AcDbLine
 10
191.219336
 20
54.25
 30
0.0
 11
191.219336
 21
58.75
 31
0.0
  0
LINE
  5
2A8
330
1F3
100
AcDbEntity
  8
1
  6
Continuous
100
AcDbLine
 10
203.169312
 20
71.0
 30
0.0
 11
204.669312
 21
71.0
 31
0.0
  0
LINE
  5
2A9
330
1F3
100
AcDbEntity
  8
1
  6
Continuous
100
AcDbLine
 10
203.169312
 20
62.0
 30
0.0
 11
204.669312
 21
62.0
 31
0.0
  0
LINE
  5
2AA
330
1F3
100
AcDbEntity
  8
1
  6
Continuous
100
AcDbLine
 10
204.669312
 20
59.5
 30
0.0
 11
204.669312
 21
73.5
 31
0.0
  0
LINE
  5
2AB
330
1F3
100
AcDbEntity
  8
1
  6
Continuous
100
AcDbLine
 10
202.669312
 20
62.5
 30
0.0
 11
202.669312
 21
70.5
 31
0.0
  0
LINE
  5
2AC
330
1F3
100
AcDbEntity
  8
1
  6
Continuous
100
AcDbLine
 10
203.169312
 20
62.0
 30
0.0
 11
203.169312
 21
71.0
 31
0.0
  0
LINE
  5
2AD
330
1F3
100
AcDbEntity
  8
1
  6
Continuous
100
AcDbLine
 10
203.1693269999999
 20
71.000008
 30
0.0
 11
202.6693269999999
 21
70.50000799999998
 31
0.0
  0
LINE
  5
2AE
330
1F3
100
AcDbEntity
  8
1
  6
Continuous
100
AcDbLine
 10
203.1693269999999
 20
62.000004
 30
0.0
 11
202.6693269999999
 21
62.50000400000001
 31
0.0
  0
LINE
  5
2AF
330
1F3
100
AcDbEntity
  8
1
  6
Continuous
100
AcDbLine
 10
195.6693119999999
 20
71.0
 30
0.0
 11
197.1693119999999
 21
71.0
 31
0.0
  0
LINE
  5
2B0
330
1F3
100
AcDbEntity
  8
1
  6
Continuous
100
AcDbLine
 10
195.6693119999999
 20
62.0
 30
0.0
 11
197.1693119999999
 21
62.0
 31
0.0
  0
LINE
  5
2B1
330
1F3
100
AcDbEntity
  8
1
  6
Continuous
100
AcDbLine
 10
195.169312
 20
62.5
 30
0.0
 11
195.169312
 21
70.5
 31
0.0
  0
LINE
  5
2B2
330
1F3
100
AcDbEntity
  8
1
  6
Continuous
100
AcDbLine
 10
195.6693119999999
 20
62.0
 30
0.0
 11
195.6693119999999
 21
71.0
 31
0.0
  0
LINE
  5
2B3
330
1F3
100
AcDbEntity
  8
1
  6
Continuous
100
AcDbLine
 10
195.1693269999999
 20
70.5
 30
0.0
 11
195.669327
 21
71.0
 31
0.0
  0
LINE
  5
2B4
330
1F3
100
AcDbEntity
  8
1
  6
Continuous
100
AcDbLine
 10
195.669327
 20
62.000004
 30
0.0
 11
195.1693269999999
 21
62.50000400000001
 31
0.0
  0
LINE
  5
2B5
330
1F3
100
AcDbEntity
  8
1
  6
Continuous
100
AcDbLine
 10
195.469336
 20
73.5
 30
0.0
 11
195.469336
 21
77.5
 31
0.0
  0
LINE
  5
2B6
330
1F3
100
AcDbEntity
  8
1
  6
Continuous
100
AcDbLine
 10
194.5693359999999
 20
64.099998
 30
0.0
 11
194.5693359999999
 21
68.900002
 31
0.0
  0
LINE
  5
2B7
330
1F3
100
AcDbEntity
  8
1
  6
Continuous
100
AcDbLine
 10
194.5693359999999
 20
68.900002
 30
0.0
 11
195.169312
 21
68.900002
 31
0.0
  0
LINE
  5
2B8
330
1F3
100
AcDbEntity
  8
1
  6
Continuous
100
AcDbLine
 10
194.5693359999999
 20
64.099998
 30
0.0
 11
195.169312
 21
64.099998
 31
0.0
  0
LINE
  5
2B9
330
1F3
100
AcDbEntity
  8
1
  6
Continuous
100
AcDbLine
 10
215.9693299999999
 20
92.0
 30
0.0
 11
217.5693359999999
 21
92.0
 31
0.0
  0
LINE
  5
2BA
330
1F3
100
AcDbEntity
  8
1
  6
Continuous
100
AcDbLine
 10
215.9693299999999
 20
41.0
 30
0.0
 11
217.5693359999999
 21
41.0
 31
0.0
  0
LINE
  5
2BB
330
1F3
100
AcDbEntity
  8
1
  6
Continuous
100
AcDbLine
 10
194.169312
 20
69.0
 30
0.0
 11
195.169312
 21
69.0
 31
0.0
  0
LINE
  5
2BC
330
1F3
100
AcDbEntity
  8
1
  6
Continuous
100
AcDbLine
 10
194.169312
 20
69.0
 30
0.0
 11
194.169312
 21
73.5
 31
0.0
  0
LINE
  5
2BD
330
1F3
100
AcDbEntity
  8
1
  6
Continuous
100
AcDbLine
 10
195.469336
 20
55.50000799999999
 30
0.0
 11
195.469336
 21
62.199995
 31
0.0
  0
LINE
  5
2BE
330
1F3
100
AcDbEntity
  8
1
  6
Continuous
100
AcDbLine
 10
195.469336
 20
466.551949
 30
0.0
 11
195.469336
 21
462.0519489999998
 31
0.0
  0
LINE
  5
2BF
330
1F3
100
AcDbEntity
  8
5
  6
PHANTOM
100
AcDbLine
 10
375.1352129999999
 20
136.623646
 30
0.0
 11
360.993513
 21
260.5695
 31
0.0
  0
LINE
  5
2C0
330
1F3
100
AcDbEntity
  8
5
  6
PHANTOM
100
AcDbLine
 10
361.225458
 20
135.0366009999999
 30
0.0
 11
347.0837579999999
 21
258.982456
 31
0.0
  0
LINE
  5
2C1
330
1F3
100
AcDbEntity
  8
1
  6
Continuous
100
AcDbLine
 10
330.538635
 20
126.2759779999999
 30
0.0
 11
377.538635
 21
126.2759779999999
 31
0.0
  0
LINE
  5
2C2
330
1F3
100
AcDbEntity
  8
1
  6
Continuous
100
AcDbLine
 10
328.538635
 20
144.275978
 30
0.0
 11
328.538635
 21
128.275978
 31
0.0
  0
LINE
  5
2C3
330
1F3
100
AcDbEntity
  8
1
  6
Continuous
100
AcDbLine
 10
379.538635
 20
144.275978
 30
0.0
 11
379.538635
 21
128.275978
 31
0.0
  0
LINE
  5
2C4
330
1F3
100
AcDbEntity
  8
1
  6
Continuous
100
AcDbLine
 10
334.288635
 20
138.525978
 30
0.0
 11
338.788635
 21
138.525978
 31
0.0
  0
LINE
  5
2C5
330
1F3
100
AcDbEntity
  8
1
  6
Continuous
100
AcDbLine
 10
334.288635
 20
134.025978
 30
0.0
 11
338.788635
 21
134.025978
 31
0.0
  0
LINE
  5
2C6
330
1F3
100
AcDbEntity
  8
1
  6
Continuous
100
AcDbLine
 10
341.038635
 20
136.275978
 30
0.0
 11
341.038635
 21
136.275978
 31
0.0
  0
LINE
  5
2C7
330
1F3
100
AcDbEntity
  8
1
  6
Continuous
100
AcDbLine
 10
332.038635
 20
136.275978
 30
0.0
 11
332.038635
 21
136.275978
 31
0.0
  0
LINE
  5
2C8
330
1F3
100
AcDbEntity
  8
1
  6
Continuous
100
AcDbLine
 10
367.038635
 20
136.275978
 30
0.0
 11
367.038635
 21
136.275978
 31
0.0
  0
LINE
  5
2C9
330
1F3
100
AcDbEntity
  8
1
  6
Continuous
100
AcDbLine
 10
369.288635
 20
138.525978
 30
0.0
 11
373.788635
 21
138.525978
 31
0.0
  0
LINE
  5
2CA
330
1F3
100
AcDbEntity
  8
1
  6
Continuous
100
AcDbLine
 10
369.288635
 20
134.025978
 30
0.0
 11
373.788635
 21
134.025978
 31
0.0
  0
LINE
  5
2CB
330
1F3
100
AcDbEntity
  8
1
  6
Continuous
100
AcDbLine
 10
376.038635
 20
136.275978
 30
0.0
 11
376.038635
 21
136.275978
 31
0.0
  0
LINE
  5
2CC
330
1F3
100
AcDbEntity
  8
4
  6
CENTER
 48
0.2
100
AcDbLine
 10
356.538635
 20
273.7759779999997
 30
0.0
 11
342.038635
 21
273.7759779999997
 31
0.0
  0
LINE
  5
2CD
330
1F3
100
AcDbEntity
  8
1
  6
Continuous
100
AcDbLine
 10
351.5386349999998
 20
276.7759779999999
 30
0.0
 11
351.5386349999998
 21
270.7759779999999
 31
0.0
  0
LINE
  5
2CE
330
1F3
100
AcDbEntity
  8
1
  6
Continuous
100
AcDbLine
 10
330.538635
 20
146.275978
 30
0.0
 11
377.538635
 21
146.275978
 31
0.0
  0
LINE
  5
2CF
330
1F3
100
AcDbEntity
  8
1
  6
Continuous
100
AcDbLine
 10
517.4661559999998
 20
391.5259779999999
 30
0.0
 11
517.4661559999998
 21
251.525978
 31
0.0
  0
LINE
  5
2D0
330
1F3
100
AcDbEntity
  8
1
  6
Continuous
100
AcDbLine
 10
515.166168
 20
391.5259779999999
 30
0.0
 11
515.166168
 21
158.328603
 31
0.0
  0
LINE
  5
2D1
330
1F3
100
AcDbEntity
  8
1
  6
Continuous
100
AcDbLine
 10
532.1661319999998
 20
393.2759779999998
 30
0.0
 11
519.1661619999998
 21
393.2759779999998
 31
0.0
  0
LINE
  5
2D2
330
1F3
100
AcDbEntity
  8
1
  6
Continuous
100
AcDbLine
 10
532.1661319999998
 20
391.6759719999999
 30
0.0
 11
519.1661319999998
 21
391.6759719999999
 31
0.0
  0
LINE
  5
2D3
330
1F3
100
AcDbEntity
  8
1
  6
Continuous
100
AcDbLine
 10
532.1661319999998
 20
393.2759779999998
 30
0.0
 11
532.1661319999998
 21
391.6759719999999
 31
0.0
  0
LINE
  5
2D4
330
1F3
100
AcDbEntity
  8
1
  6
Continuous
100
AcDbLine
 10
519.1661319999998
 20
393.2759779999998
 30
0.0
 11
519.1661319999998
 21
376.7759779999999
 31
0.0
  0
LINE
  5
2D5
330
1F3
100
AcDbEntity
  8
1
  6
Continuous
100
AcDbLine
 10
519.1661319999998
 20
376.7759779999999
 30
0.0
 11
517.5661559999999
 21
376.7759779999999
 31
0.0
  0
LINE
  5
2D6
330
1F3
100
AcDbEntity
  8
4
  6
CENTER
 48
0.2
100
AcDbLine
 10
525.066132
 20
383.2759779999999
 30
0.0
 11
508.1661679999998
 21
383.2759779999999
 31
0.0
  0
LINE
  5
2D7
330
1F3
100
AcDbEntity
  8
4
  6
CENTER
 48
0.2
100
AcDbLine
 10
524.4661559999998
 20
259.7759779999999
 30
0.0
 11
506.86612
 21
259.7759779999999
 31
0.0
  0
LINE
  5
2D8
330
1F3
100
AcDbEntity
  8
4
  6
CENTER
 48
0.2
100
AcDbLine
 10
517.066156
 20
136.275978
 30
0.0
 11
492.0661319999998
 21
136.275978
 31
0.0
  0
LINE
  5
2D9
330
1F3
100
AcDbEntity
  8
4
  6
CENTER
 48
0.2
100
AcDbLine
 10
520.6661679999998
 20
289.7759779999999
 30
0.0
 11
509.666107
 21
289.7759779999999
 31
0.0
  0
LINE
  5
2DA
330
1F3
100
AcDbEntity
  8
4
  6
CENTER
 48
0.2
100
AcDbLine
 10
523.640534
 20
273.7759779999997
 30
0.0
 11
509.666107
 21
273.7759779999997
 31
0.0
  0
LINE
  5
2DB
330
1F3
100
AcDbEntity
  8
1
  6
Continuous
100
AcDbLine
 10
515.166168
 20
296.7759779999997
 30
0.0
 11
512.86612
 21
296.7759779999997
 31
0.0
  0
LINE
  5
2DC
330
1F3
100
AcDbEntity
  8
1
  6
Continuous
100
AcDbLine
 10
507.6661679999999
 20
147.785595
 30
0.0
 11
507.6661679999999
 21
126.2759779999999
 31
0.0
  0
LINE
  5
2DD
330
1F3
100
AcDbEntity
  8
1
  6
Continuous
100
AcDbLine
 10
509.9661559999998
 20
147.775978
 30
0.0
 11
509.9661559999998
 21
129.775978
 31
0.0
  0
LINE
  5
2DE
330
1F3
100
AcDbEntity
  8
1
  6
Continuous
100
AcDbLine
 10
509.9661559999998
 20
129.775978
 30
0.0
 11
507.6661679999999
 21
129.775978
 31
0.0
  0
LINE
  5
2DF
330
1F3
100
AcDbEntity
  8
1
  6
Continuous
100
AcDbLine
 10
514.9150889999998
 20
157.2836509999999
 30
0.0
 11
509.9661559999998
 21
147.7759629999999
 31
0.0
  0
LINE
  5
2E0
330
1F3
100
AcDbEntity
  8
1
  6
Continuous
100
AcDbLine
 10
507.6661679999999
 20
146.275978
 30
0.0
 11
497.0661319999996
 21
146.275978
 31
0.0
  0
LINE
  5
2E1
330
1F3
100
AcDbEntity
  8
1
  6
Continuous
100
AcDbLine
 10
507.6661679999999
 20
126.2759779999999
 30
0.0
 11
497.0661319999996
 21
126.2759779999999
 31
0.0
  0
LINE
  5
2E2
330
1F3
100
AcDbEntity
  8
1
  6
Continuous
100
AcDbLine
 10
497.0661319999996
 20
146.275978
 30
0.0
 11
497.0661319999996
 21
126.2759779999999
 31
0.0
  0
LINE
  5
2E3
330
1F3
100
AcDbEntity
  8
1
  6
Continuous
100
AcDbLine
 10
498.666168
 20
146.275978
 30
0.0
 11
498.666168
 21
126.2759779999999
 31
0.0
  0
LINE
  5
2E4
330
1F3
100
AcDbEntity
  8
1
  6
Continuous
100
AcDbLine
 10
515.166107
 20
277.2759779999999
 30
0.0
 11
515.166107
 21
277.2759779999999
 31
0.0
  0
LINE
  5
2E5
330
1F3
100
AcDbEntity
  8
1
  6
Continuous
100
AcDbLine
 10
515.166107
 20
270.2759479999999
 30
0.0
 11
515.166107
 21
270.2759479999999
 31
0.0
  0
LINE
  5
2E6
330
1F3
100
AcDbEntity
  8
1
  6
Continuous
100
AcDbLine
 10
512.86612
 20
296.7759779999997
 30
0.0
 11
512.86612
 21
158.3381579999999
 31
0.0
  0
LINE
  5
2E7
330
1F3
100
AcDbEntity
  8
3
  6
DASHED
 48
0.1
100
AcDbLine
 10
517.4661559999998
 20
291.8759839999998
 30
0.0
 11
515.166168
 21
291.8759839999998
 31
0.0
  0
LINE
  5
2E8
330
1F3
100
AcDbEntity
  8
3
  6
DASHED
 48
0.1
100
AcDbLine
 10
517.4661559999998
 20
287.6759719999999
 30
0.0
 11
515.166168
 21
287.6759719999999
 31
0.0
  0
LINE
  5
2E9
330
1F3
100
AcDbEntity
  8
1
  6
Continuous
100
AcDbLine
 10
511.4661559999998
 20
140.775978
 30
0.0
 11
509.9661559999998
 21
140.775978
 31
0.0
  0
LINE
  5
2EA
330
1F3
100
AcDbEntity
  8
1
  6
Continuous
100
AcDbLine
 10
511.4661559999998
 20
131.775978
 30
0.0
 11
509.9661559999998
 21
131.775978
 31
0.0
  0
LINE
  5
2EB
330
1F3
100
AcDbEntity
  8
1
  6
Continuous
100
AcDbLine
 10
511.9661559999998
 20
140.275978
 30
0.0
 11
511.9661559999998
 21
132.275978
 31
0.0
  0
LINE
  5
2EC
330
1F3
100
AcDbEntity
  8
1
  6
Continuous
100
AcDbLine
 10
511.4661559999998
 20
140.775978
 30
0.0
 11
511.4661559999998
 21
131.775978
 31
0.0
  0
LINE
  5
2ED
330
1F3
100
AcDbEntity
  8
1
  6
Continuous
100
AcDbLine
 10
511.966095
 20
140.275993
 30
0.0
 11
511.466095
 21
140.775993
 31
0.0
  0
LINE
  5
2EE
330
1F3
100
AcDbEntity
  8
1
  6
Continuous
100
AcDbLine
 10
511.466095
 20
131.7760089999999
 30
0.0
 11
511.966095
 21
132.2759929999998
 31
0.0
  0
LINE
  5
2EF
330
1F3
100
AcDbEntity
  8
1
  6
Continuous
100
AcDbLine
 10
518.9661559999998
 20
264.2759779999999
 30
0.0
 11
517.4661559999998
 21
264.2759779999999
 31
0.0
  0
LINE
  5
2F0
330
1F3
100
AcDbEntity
  8
1
  6
Continuous
100
AcDbLine
 10
518.9661559999998
 20
255.2759779999999
 30
0.0
 11
517.4661559999998
 21
255.2759779999999
 31
0.0
  0
LINE
  5
2F1
330
1F3
100
AcDbEntity
  8
1
  6
Continuous
100
AcDbLine
 10
519.4661559999998
 20
263.7759779999999
 30
0.0
 11
519.4661559999998
 21
255.775978
 31
0.0
  0
LINE
  5
2F2
330
1F3
100
AcDbEntity
  8
1
  6
Continuous
100
AcDbLine
 10
518.9661559999998
 20
264.2759779999999
 30
0.0
 11
518.9661559999998
 21
255.2759779999999
 31
0.0
  0
LINE
  5
2F3
330
1F3
100
AcDbEntity
  8
1
  6
Continuous
100
AcDbLine
 10
518.966126
 20
264.2759779999999
 30
0.0
 11
519.466126
 21
263.7759779999999
 31
0.0
  0
LINE
  5
2F4
330
1F3
100
AcDbEntity
  8
1
  6
Continuous
100
AcDbLine
 10
518.9661559999998
 20
255.2759779999999
 30
0.0
 11
519.4661559999998
 21
255.775978
 31
0.0
  0
LINE
  5
2F5
330
1F3
100
AcDbEntity
  8
1
  6
Continuous
100
AcDbLine
 10
512.86612
 20
262.175972
 30
0.0
 11
511.86612
 21
262.175972
 31
0.0
  0
LINE
  5
2F6
330
1F3
100
AcDbEntity
  8
1
  6
Continuous
100
AcDbLine
 10
512.86612
 20
257.3759839999999
 30
0.0
 11
511.86612
 21
257.3759839999999
 31
0.0
  0
LINE
  5
2F7
330
1F3
100
AcDbEntity
  8
1
  6
Continuous
100
AcDbLine
 10
511.86612
 20
262.175972
 30
0.0
 11
511.86612
 21
257.3759839999999
 31
0.0
  0
LINE
  5
2F8
330
1F3
100
AcDbEntity
  8
1
  6
Continuous
100
AcDbLine
 10
515.166168
 20
387.7759779999998
 30
0.0
 11
513.6661679999998
 21
387.7759779999998
 31
0.0
  0
LINE
  5
2F9
330
1F3
100
AcDbEntity
  8
1
  6
Continuous
100
AcDbLine
 10
515.166168
 20
378.7759779999998
 30
0.0
 11
513.6661679999998
 21
378.7759779999998
 31
0.0
  0
LINE
  5
2FA
330
1F3
100
AcDbEntity
  8
1
  6
Continuous
100
AcDbLine
 10
513.1661679999998
 20
387.2759779999999
 30
0.0
 11
513.1661679999998
 21
379.2759779999999
 31
0.0
  0
LINE
  5
2FB
330
1F3
100
AcDbEntity
  8
1
  6
Continuous
100
AcDbLine
 10
513.6661679999998
 20
387.7759779999998
 30
0.0
 11
513.6661679999998
 21
378.7759779999998
 31
0.0
  0
LINE
  5
2FC
330
1F3
100
AcDbEntity
  8
1
  6
Continuous
100
AcDbLine
 10
513.1661069999998
 20
387.276039
 30
0.0
 11
513.666046
 21
387.776039
 31
0.0
  0
LINE
  5
2FD
330
1F3
100
AcDbEntity
  8
1
  6
Continuous
100
AcDbLine
 10
513.1661679999998
 20
379.2760089999999
 30
0.0
 11
513.6661679999998
 21
378.7759779999998
 31
0.0
  0
LINE
  5
2FE
330
1F3
100
AcDbEntity
  8
1
  6
Continuous
100
AcDbLine
 10
520.7661379999998
 20
385.6759719999999
 30
0.0
 11
519.1661319999998
 21
385.6759719999999
 31
0.0
  0
LINE
  5
2FF
330
1F3
100
AcDbEntity
  8
1
  6
Continuous
100
AcDbLine
 10
520.7661379999998
 20
380.8759839999999
 30
0.0
 11
519.1661319999998
 21
380.8759839999999
 31
0.0
  0
LINE
  5
300
330
1F3
100
AcDbEntity
  8
4
  6
CENTER
 48
0.1
100
AcDbLine
 10
525.6661319999998
 20
396.2759779999998
 30
0.0
 11
525.6661319999998
 21
388.675972
 31
0.0
  0
LINE
  5
301
330
1F3
100
AcDbEntity
  8
1
  6
Continuous
100
AcDbLine
 10
362.0386349999998
 20
146.275978
 30
0.0
 11
362.0386349999998
 21
126.2759779999999
 31
0.0
  0
LINE
  5
302
330
1F3
100
AcDbEntity
  8
1
  6
Continuous
100
AcDbLine
 10
346.038635
 20
146.275978
 30
0.0
 11
346.038635
 21
126.2759779999999
 31
0.0
  0
LINE
  5
303
330
1F3
100
AcDbEntity
  8
1
  6
Continuous
100
AcDbLine
 10
53.0
 20
277.2759779999999
 30
0.0
 11
53.0
 21
270.2759779999999
 31
0.0
  0
LINE
  5
304
330
1F3
100
AcDbEntity
  8
1
  6
Continuous
100
AcDbLine
 10
351.5386349999998
 20
270.7759779999999
 30
0.0
 11
347.038635
 21
270.7759779999999
 31
0.0
  0
LINE
  5
305
330
1F3
100
AcDbEntity
  8
1
  6
Continuous
100
AcDbLine
 10
351.5386349999998
 20
276.7759779999999
 30
0.0
 11
347.038635
 21
276.7759779999999
 31
0.0
  0
LINE
  5
306
330
1F3
100
AcDbEntity
  8
1
  6
Continuous
100
AcDbLine
 10
57.5
 20
270.2759779999999
 30
0.0
 11
53.0
 21
270.2759779999999
 31
0.0
  0
LINE
  5
307
330
1F3
100
AcDbEntity
  8
1
  6
Continuous
100
AcDbLine
 10
57.5
 20
277.2759779999999
 30
0.0
 11
53.0
 21
277.2759779999999
 31
0.0
  0
LINE
  5
308
330
1F3
100
AcDbEntity
  8
4
  6
CENTER
 48
0.2
100
AcDbLine
 10
371.538635
 20
141.3946759999998
 30
0.0
 11
371.538635
 21
131.5016709999997
 31
0.0
  0
LINE
  5
309
330
1F3
100
AcDbEntity
  8
4
  6
CENTER
 48
0.2
100
AcDbLine
 10
336.538635
 20
141.1717449999999
 30
0.0
 11
336.538635
 21
131.139702
 31
0.0
  0
LINE
  5
30A
330
1F3
100
AcDbEntity
  8
4
  6
CENTER
 48
0.2
100
AcDbLine
 10
212.769333
 20
490.5519489999998
 30
0.0
 11
220.7693329999999
 21
490.5519489999998
 31
0.0
  0
LINE
  5
30B
330
1F3
100
AcDbEntity
  8
4
  6
CENTER
 48
0.2
100
AcDbLine
 10
212.769333
 20
455.551949
 30
0.0
 11
220.7693329999999
 21
455.551949
 31
0.0
  0
LINE
  5
30C
330
1F3
100
AcDbEntity
  8
4
  6
CENTER
 48
0.2
100
AcDbLine
 10
212.769333
 20
84.00000799999999
 30
0.0
 11
220.7693329999999
 21
84.00000799999999
 31
0.0
  0
LINE
  5
30D
330
1F3
100
AcDbEntity
  8
4
  6
CENTER
 48
0.2
100
AcDbLine
 10
212.769333
 20
49.000008
 30
0.0
 11
220.7693329999999
 21
49.000008
 31
0.0
  0
LINE
  5
30E
330
1F3
100
AcDbEntity
  8
4
  6
CENTER
 48
0.2
100
AcDbLine
 10
184.2193359999999
 20
56.50000799999999
 30
0.0
 11
193.719336
 21
56.50000799999999
 31
0.0
  0
LINE
  5
30F
330
1F3
100
AcDbEntity
  8
4
  6
CENTER
 48
0.2
100
AcDbLine
 10
184.2193359999999
 20
76.50000799999998
 30
0.0
 11
193.719336
 21
76.50000799999998
 31
0.0
  0
LINE
  5
310
330
1F3
100
AcDbEntity
  8
4
  6
CENTER
 48
0.1
100
AcDbLine
 10
60.5
 20
396.2759779999998
 30
0.0
 11
60.5
 21
388.675972
 31
0.0
  0
LINE
  5
311
330
1F3
100
AcDbEntity
  8
4
  6
CENTER
 48
0.1
100
AcDbLine
 10
40.49999999999999
 20
396.2759779999998
 30
0.0
 11
40.49999999999999
 21
388.675972
 31
0.0
  0
LINE
  5
312
330
1F3
100
AcDbEntity
  8
4
  6
CENTER
 48
0.2
100
AcDbLine
 10
68.0
 20
141.025978
 30
0.0
 11
68.0
 21
131.525978
 31
0.0
  0
LINE
  5
313
330
1F3
100
AcDbEntity
  8
4
  6
CENTER
 48
0.2
100
AcDbLine
 10
33.0
 20
141.025978
 30
0.0
 11
33.0
 21
131.525978
 31
0.0
  0
LINE
  5
314
330
1F3
100
AcDbEntity
  8
4
  6
CENTER
 48
0.2
100
AcDbLine
 10
184.2193359999999
 20
463.051949
 30
0.0
 11
193.719336
 21
463.051949
 31
0.0
  0
LINE
  5
315
330
1F3
100
AcDbEntity
  8
4
  6
CENTER
 48
0.2
100
AcDbLine
 10
184.2193359999999
 20
483.0519489999998
 30
0.0
 11
193.719336
 21
483.0519489999998
 31
0.0
  0
LINE
  5
316
330
1F3
100
AcDbEntity
  8
1
  6
Continuous
100
AcDbLine
 10
199.46933
 20
276.886147
 30
0.0
 11
196.8034819999998
 21
273.7759779999997
 31
0.0
  0
LINE
  5
317
330
1F3
100
AcDbEntity
  8
1
  6
Continuous
100
AcDbLine
 10
199.46933
 20
270.66584
 30
0.0
 11
196.8034819999998
 21
273.7759779999997
 31
0.0
  0
LINE
  5
318
330
1F3
100
AcDbEntity
  8
1
  6
Continuous
100
AcDbLine
 10
517.4661559999998
 20
274.2027359999998
 30
0.0
 11
517.83194
 21
273.7759779999997
 31
0.0
  0
LINE
  5
319
330
1F3
100
AcDbEntity
  8
1
  6
Continuous
100
AcDbLine
 10
517.4661559999998
 20
273.3491899999999
 30
0.0
 11
517.8319700000002
 21
273.7759779999997
 31
0.0
  0
LINE
  5
31A
330
1F3
100
AcDbEntity
  8
1
  6
Continuous
100
AcDbLine
 10
199.5727389999999
 20
273.7759779999997
 30
0.0
 11
201.769348
 21
271.1400529999999
 31
0.0
  0
LINE
  5
31B
330
1F3
100
AcDbEntity
  8
1
  6
Continuous
100
AcDbLine
 10
201.769348
 20
276.411873
 30
0.0
 11
199.572754
 21
273.7759479999999
 31
0.0
  0
LINE
  5
31C
330
1F3
100
AcDbEntity
  8
4
  6
CENTER
 48
0.1
100
AcDbLine
 10
351.038635
 20
289.7759779999999
 30
0.0
 11
357.038635
 21
289.7759779999999
 31
0.0
  0
LINE
  5
31D
330
1F3
100
AcDbEntity
  8
4
  6
CENTER
 48
0.1
100
AcDbLine
 10
354.0386349999999
 20
292.7759779999997
 30
0.0
 11
354.0386349999999
 21
286.7759779999999
 31
0.0
  0
LINE
  5
31E
330
1F3
100
AcDbEntity
  8
4
  6
CENTER
 48
0.2
100
AcDbLine
 10
349.2386359999999
 20
259.7759779999999
 30
0.0
 11
358.838634
 21
259.7759779999999
 31
0.0
  0
LINE
  5
31F
330
1F3
100
AcDbEntity
  8
4
  6
CENTER
 48
0.2
100
AcDbLine
 10
354.0386349999999
 20
264.5759659999999
 30
0.0
 11
354.0386349999999
 21
254.975975
 31
0.0
  0
LINE
  5
320
330
1F3
100
AcDbEntity
  8
4
  6
CENTER
 48
0.2
100
AcDbLine
 10
323.538635
 20
136.275978
 30
0.0
 11
384.538635
 21
136.275978
 31
0.0
  0
LINE
  5
321
330
1F3
100
AcDbEntity
  8
4
  6
CENTER
 48
0.2
100
AcDbLine
 10
354.0386349999999
 20
141.075981
 30
0.0
 11
354.0386349999999
 21
131.475975
 31
0.0
  0
LINE
  5
322
330
1F3
100
AcDbEntity
  8
4
  6
CENTER
 48
0.2
100
AcDbLine
 10
45.700012
 20
383.2759779999999
 30
0.0
 11
55.299988
 21
383.2759779999999
 31
0.0
  0
LINE
  5
323
330
1F3
100
AcDbEntity
  8
4
  6
CENTER
 48
0.2
100
AcDbLine
 10
50.5
 20
388.0759659999998
 30
0.0
 11
50.5
 21
378.4759899999999
 31
0.0
  0
LINE
  5
324
330
1F3
100
AcDbEntity
  8
4
  6
CENTER
 48
0.2
100
AcDbLine
 10
46.39999399999999
 20
289.7759779999999
 30
0.0
 11
54.600006
 21
289.7759779999999
 31
0.0
  0
LINE
  5
325
330
1F3
100
AcDbEntity
  8
4
  6
CENTER
 48
0.2
100
AcDbLine
 10
50.5
 20
293.8759839999999
 30
0.0
 11
50.5
 21
285.6759719999999
 31
0.0
  0
LINE
  5
326
330
1F3
100
AcDbEntity
  8
4
  6
CENTER
 48
0.2
100
AcDbLine
 10
41.0
 20
259.7759779999999
 30
0.0
 11
60.0
 21
259.7759779999999
 31
0.0
  0
LINE
  5
327
330
1F3
100
AcDbEntity
  8
4
  6
CENTER
 48
0.2
100
AcDbLine
 10
50.5
 20
269.2759779999998
 30
0.0
 11
50.5
 21
250.2759779999999
 31
0.0
  0
LINE
  5
328
330
1F3
100
AcDbEntity
  8
4
  6
CENTER
 48
0.2
100
AcDbLine
 10
20.0
 20
136.275978
 30
0.0
 11
81.0
 21
136.275978
 31
0.0
  0
LINE
  5
329
330
1F3
100
AcDbEntity
  8
4
  6
CENTER
 48
0.2
100
AcDbLine
 10
50.5
 20
145.775978
 30
0.0
 11
50.5
 21
126.775978
 31
0.0
  0
LINE
  5
32A
330
1F3
100
AcDbEntity
  8
1
  6
Continuous
100
AcDbLine
 10
201.769348
 20
158.3382029999999
 30
0.0
 11
206.718252
 21
148.8305439999997
 31
0.0
  0
LINE
  5
32B
330
1F3
100
AcDbEntity
  8
1
  6
Continuous
100
AcDbLine
 10
512.86612
 20
158.338142
 30
0.0
 11
507.9172469999996
 21
148.8305439999997
 31
0.0
  0
LINE
  5
32C
330
1F3
100
AcDbEntity
  8
1
  6
Continuous
100
AcDbLine
 10
351.5386349999998
 20
273.7759779999997
 30
0.0
 11
347.038635
 21
273.7759779999997
 31
0.0
  0
LINE
  5
32D
330
1F3
100
AcDbEntity
  8
1
  6
Continuous
100
AcDbLine
 10
361.038635
 20
158.3382189999998
 30
0.0
 11
347.038635
 21
158.3382189999998
 31
0.0
  0
LINE
  5
32E
330
1F3
100
AcDbEntity
  8
1
  6
Continuous
100
AcDbLine
 10
57.5
 20
157.775978
 30
0.0
 11
43.5
 21
157.775978
 31
0.0
  0
LINE
  5
32F
330
1F3
100
AcDbEntity
  8
1
  6
Continuous
100
AcDbLine
 10
361.038635
 20
148.3382489999998
 30
0.0
 11
347.038635
 21
148.3382489999998
 31
0.0
  0
LINE
  5
330
330
1F3
100
AcDbEntity
  8
1
  6
Continuous
100
AcDbLine
 10
57.5
 20
273.7759779999997
 30
0.0
 11
53.0
 21
273.7759779999997
 31
0.0
  0
LINE
  5
331
330
1F3
100
AcDbEntity
  8
1
  6
Continuous
100
AcDbLine
 10
193.8693299999999
 20
385.6759719999999
 30
0.0
 11
193.8693299999999
 21
380.8759839999999
 31
0.0
  0
LINE
  5
332
330
1F3
100
AcDbEntity
  8
1
  6
Continuous
100
AcDbLine
 10
520.7661379999998
 20
385.6759719999999
 30
0.0
 11
520.7661379999998
 21
380.8759839999999
 31
0.0
  0
LINE
  5
333
330
1F3
100
AcDbEntity
  8
1
  6
Continuous
100
AcDbLine
 10
210.169342
 20
64.099998
 30
0.0
 11
210.169342
 21
68.900002
 31
0.0
  0
LINE
  5
334
330
1F3
100
AcDbEntity
  8
1
  6
Continuous
100
AcDbLine
 10
203.4693539999999
 20
475.451942
 30
0.0
 11
203.4693539999999
 21
470.651955
 31
0.0
  0
LINE
  5
335
330
1F3
100
AcDbEntity
  8
1
  6
Continuous
100
AcDbLine
 10
197.1693119999999
 20
391.5259779999999
 30
0.0
 11
199.46933
 21
391.5259779999999
 31
0.0
  0
LINE
  5
336
330
1F3
100
AcDbEntity
  8
1
  6
Continuous
100
AcDbLine
 10
197.1693119999999
 20
251.525978
 30
0.0
 11
199.46933
 21
251.525978
 31
0.0
  0
LINE
  5
337
330
1F3
100
AcDbEntity
  8
1
  6
Continuous
100
AcDbLine
 10
517.4661559999998
 20
391.5259779999999
 30
0.0
 11
515.166168
 21
391.5259779999999
 31
0.0
  0
LINE
  5
338
330
1F3
100
AcDbEntity
  8
1
  6
Continuous
100
AcDbLine
 10
517.4661559999998
 20
251.525978
 30
0.0
 11
515.166168
 21
251.525978
 31
0.0
  0
CIRCLE
  5
339
330
1F3
100
AcDbEntity
  8
1
  6
Continuous
100
AcDbCircle
 10
50.5
 20
136.275978
 30
0.0
 40
4.5
  0
CIRCLE
  5
33A
330
1F3
100
AcDbEntity
  8
1
  6
Continuous
100
AcDbCircle
 10
50.5
 20
259.7759779999999
 30
0.0
 40
4.5
  0
CIRCLE
  5
33B
330
1F3
100
AcDbEntity
  8
1
  6
Continuous
100
AcDbCircle
 10
50.5
 20
383.2759779999999
 30
0.0
 40
2.399999999999999
  0
ARC
  5
33C
330
1F3
100
AcDbEntity
  8
1
  6
Continuous
100
AcDbCircle
 10
50.5
 20
136.775978
 30
0.0
 40
7.0
100
AcDbArc
 50
179.9999899999999
 51
0.000009
  0
ARC
  5
33D
330
1F3
100
AcDbEntity
  8
1
  6
Continuous
100
AcDbCircle
 10
50.5
 20
259.7759779999999
 30
0.0
 40
7.0
100
AcDbArc
 50
179.9999899999999
 51
0.000009
  0
ARC
  5
33E
330
1F3
100
AcDbEntity
  8
1
  6
Continuous
100
AcDbCircle
 10
50.5
 20
384.5259779999998
 30
0.0
 40
7.0
100
AcDbArc
 50
158.213211
 51
180.0
  0
ARC
  5
33F
330
1F3
100
AcDbEntity
  8
1
  6
Continuous
100
AcDbCircle
 10
50.5
 20
384.5259779999998
 30
0.0
 40
7.0
100
AcDbArc
 50
359.999995
 51
21.786796
  0
ARC
  5
340
330
1F3
100
AcDbEntity
  8
1
  6
Continuous
100
AcDbCircle
 10
27.0
 20
144.275978
 30
0.0
 40
2.0
100
AcDbArc
 50
89.99999700000001
 51
180.0
  0
ARC
  5
341
330
1F3
100
AcDbEntity
  8
1
  6
Continuous
100
AcDbCircle
 10
27.0
 20
128.275978
 30
0.0
 40
2.0
100
AcDbArc
 50
180.0
 51
270.0000029999998
  0
ARC
  5
342
330
1F3
100
AcDbEntity
  8
1
  6
Continuous
100
AcDbCircle
 10
74.0
 20
128.275978
 30
0.0
 40
2.0
100
AcDbArc
 50
269.999999
 51
0.000009
  0
ARC
  5
343
330
1F3
100
AcDbEntity
  8
1
  6
Continuous
100
AcDbCircle
 10
74.0
 20
144.275978
 30
0.0
 40
2.0
100
AcDbArc
 50
359.999995
 51
89.99999700000001
  0
ARC
  5
344
330
1F3
100
AcDbEntity
  8
1
  6
Continuous
100
AcDbCircle
 10
70.25
 20
136.275978
 30
0.0
 40
2.25
100
AcDbArc
 50
269.999999
 51
89.99999700000001
  0
ARC
  5
345
330
1F3
100
AcDbEntity
  8
1
  6
Continuous
100
AcDbCircle
 10
65.75
 20
136.275978
 30
0.0
 40
2.25
100
AcDbArc
 50
89.99999700000001
 51
270.0000029999998
  0
ARC
  5
346
330
1F3
100
AcDbEntity
  8
1
  6
Continuous
100
AcDbCircle
 10
35.25
 20
136.275978
 30
0.0
 40
2.25
100
AcDbArc
 50
269.999999
 51
89.99999700000001
  0
ARC
  5
347
330
1F3
100
AcDbEntity
  8
1
  6
Continuous
100
AcDbCircle
 10
30.75
 20
136.275978
 30
0.0
 40
2.25
100
AcDbArc
 50
89.99999700000001
 51
270.0000029999998
  0
CIRCLE
  5
348
330
1F3
100
AcDbEntity
  8
1
  6
Continuous
100
AcDbCircle
 10
50.5
 20
289.7759779999999
 30
0.0
 40
2.1
  0
ARC
  5
349
330
1F3
100
AcDbEntity
  8
3
  6
DASHED
 48
0.1
100
AcDbCircle
 10
200.96933
 20
289.7759779999999
 30
0.0
 40
2.5
100
AcDbArc
 50
126.8699019999999
 51
233.130092
  0
ARC
  5
34A
330
1F3
100
AcDbEntity
  8
1
  6
Continuous
100
AcDbCircle
 10
188.969336
 20
484.051949
 30
0.0
 40
6.5
100
AcDbArc
 50
359.999995
 51
180.000005
  0
ARC
  5
34B
330
1F3
100
AcDbEntity
  8
1
  6
Continuous
100
AcDbCircle
 10
188.969336
 20
462.0519489999998
 30
0.0
 40
6.5
100
AcDbArc
 50
179.9999899999999
 51
0.000009
  0
ARC
  5
34C
330
1F3
100
AcDbEntity
  8
1
  6
Continuous
100
AcDbCircle
 10
208.569336
 20
481.0519489999999
 30
0.0
 40
1.6
100
AcDbArc
 50
90.00000400000002
 51
180.000005
  0
ARC
  5
34D
330
1F3
100
AcDbEntity
  8
1
  6
Continuous
100
AcDbCircle
 10
208.569336
 20
465.0519489999998
 30
0.0
 40
1.6
100
AcDbArc
 50
179.9999909999999
 51
270.0000029999998
  0
ARC
  5
34E
330
1F3
100
AcDbEntity
  8
1
  6
Continuous
100
AcDbCircle
 10
215.9693299999999
 20
482.6519549999998
 30
0.0
 40
1.6
100
AcDbArc
 50
269.999999
 51
0.000009
  0
ARC
  5
34F
330
1F3
100
AcDbEntity
  8
1
  6
Continuous
100
AcDbCircle
 10
215.9693299999999
 20
463.451942
 30
0.0
 40
1.6
100
AcDbArc
 50
359.999995
 51
90.00000400000002
  0
ARC
  5
350
330
1F3
100
AcDbEntity
  8
1
  6
Continuous
100
AcDbCircle
 10
188.969336
 20
485.301949
 30
0.0
 40
2.25
100
AcDbArc
 50
359.999995
 51
180.0
  0
ARC
  5
351
330
1F3
100
AcDbEntity
  8
1
  6
Continuous
100
AcDbCircle
 10
188.969336
 20
480.8019489999998
 30
0.0
 40
2.25
100
AcDbArc
 50
179.9999899999999
 51
0.000009
  0
ARC
  5
352
330
1F3
100
AcDbEntity
  8
1
  6
Continuous
100
AcDbCircle
 10
188.969336
 20
465.301949
 30
0.0
 40
2.25
100
AcDbArc
 50
359.999995
 51
180.0
  0
ARC
  5
353
330
1F3
100
AcDbEntity
  8
1
  6
Continuous
100
AcDbCircle
 10
188.969336
 20
460.801949
 30
0.0
 40
2.25
100
AcDbArc
 50
179.9999899999999
 51
0.000009
  0
ARC
  5
354
330
1F3
100
AcDbEntity
  8
1
  6
Continuous
100
AcDbCircle
 10
188.969336
 20
55.5
 30
0.0
 40
6.5
100
AcDbArc
 50
179.9999899999999
 51
0.000009
  0
ARC
  5
355
330
1F3
100
AcDbEntity
  8
1
  6
Continuous
100
AcDbCircle
 10
188.969336
 20
77.5
 30
0.0
 40
6.5
100
AcDbArc
 50
359.999995
 51
180.000005
  0
ARC
  5
356
330
1F3
100
AcDbEntity
  8
1
  6
Continuous
100
AcDbCircle
 10
208.569336
 20
58.5
 30
0.0
 40
1.6
100
AcDbArc
 50
179.9999909999999
 51
270.0000029999998
  0
ARC
  5
357
330
1F3
100
AcDbEntity
  8
1
  6
Continuous
100
AcDbCircle
 10
208.569336
 20
74.5
 30
0.0
 40
1.6
100
AcDbArc
 50
90.00000400000002
 51
180.000005
  0
ARC
  5
358
330
1F3
100
AcDbEntity
  8
1
  6
Continuous
100
AcDbCircle
 10
215.9693299999999
 20
56.900002
 30
0.0
 40
1.6
100
AcDbArc
 50
359.999995
 51
90.00000400000002
  0
ARC
  5
359
330
1F3
100
AcDbEntity
  8
1
  6
Continuous
100
AcDbCircle
 10
215.9693299999999
 20
76.099998
 30
0.0
 40
1.6
100
AcDbArc
 50
269.999999
 51
0.000009
  0
ARC
  5
35A
330
1F3
100
AcDbEntity
  8
1
  6
Continuous
100
AcDbCircle
 10
188.969336
 20
54.25
 30
0.0
 40
2.25
100
AcDbArc
 50
179.9999899999999
 51
0.000009
  0
ARC
  5
35B
330
1F3
100
AcDbEntity
  8
1
  6
Continuous
100
AcDbCircle
 10
188.969336
 20
58.75
 30
0.0
 40
2.25
100
AcDbArc
 50
359.999995
 51
180.0
  0
ARC
  5
35C
330
1F3
100
AcDbEntity
  8
1
  6
Continuous
100
AcDbCircle
 10
188.969336
 20
74.25
 30
0.0
 40
2.25
100
AcDbArc
 50
179.9999899999999
 51
0.000009
  0
ARC
  5
35D
330
1F3
100
AcDbEntity
  8
1
  6
Continuous
100
AcDbCircle
 10
188.969336
 20
78.75
 30
0.0
 40
2.25
100
AcDbArc
 50
359.999995
 51
180.000005
  0
ARC
  5
35E
330
1F3
100
AcDbEntity
  8
1
  6
Continuous
100
AcDbCircle
 10
208.569336
 20
58.500008
 30
0.0
 40
1.6
100
AcDbArc
 50
179.9999909999999
 51
270.0000029999998
  0
ARC
  5
35F
330
1F3
100
AcDbEntity
  8
1
  6
Continuous
100
AcDbCircle
 10
208.569336
 20
74.50000799999997
 30
0.0
 40
1.6
100
AcDbArc
 50
90.00000400000002
 51
180.000005
  0
ARC
  5
360
330
1F3
100
AcDbEntity
  8
1
  6
Continuous
100
AcDbCircle
 10
215.9693299999999
 20
56.900002
 30
0.0
 40
1.6
100
AcDbArc
 50
359.999995
 51
90.00000400000002
  0
ARC
  5
361
330
1F3
100
AcDbEntity
  8
1
  6
Continuous
100
AcDbCircle
 10
215.9693299999999
 20
76.100014
 30
0.0
 40
1.6
100
AcDbArc
 50
269.999999
 51
0.000009
  0
ARC
  5
362
330
1F3
100
AcDbEntity
  8
5
  6
PHANTOM
 48
0.2
100
AcDbCircle
 10
368.1803359999999
 20
135.830124
 30
0.0
 40
7.0
100
AcDbArc
 50
186.5090549999999
 51
6.509059999999999
  0
ARC
  5
363
330
1F3
100
AcDbEntity
  8
1
  6
Continuous
100
AcDbCircle
 10
377.538635
 20
144.275978
 30
0.0
 40
2.0
100
AcDbArc
 50
359.999995
 51
90.00000400000002
  0
ARC
  5
364
330
1F3
100
AcDbEntity
  8
1
  6
Continuous
100
AcDbCircle
 10
377.538635
 20
128.275978
 30
0.0
 40
2.0
100
AcDbArc
 50
269.999999
 51
0.000009
  0
ARC
  5
365
330
1F3
100
AcDbEntity
  8
1
  6
Continuous
100
AcDbCircle
 10
330.538635
 20
128.275978
 30
0.0
 40
2.0
100
AcDbArc
 50
179.9999949999999
 51
269.9999959999999
  0
ARC
  5
366
330
1F3
100
AcDbEntity
  8
1
  6
Continuous
100
AcDbCircle
 10
330.538635
 20
144.275978
 30
0.0
 40
2.0
100
AcDbArc
 50
90.00000400000002
 51
180.000005
  0
ARC
  5
367
330
1F3
100
AcDbEntity
  8
1
  6
Continuous
100
AcDbCircle
 10
334.288635
 20
136.275978
 30
0.0
 40
2.25
100
AcDbArc
 50
90.00000400000002
 51
269.9999959999999
  0
ARC
  5
368
330
1F3
100
AcDbEntity
  8
1
  6
Continuous
100
AcDbCircle
 10
338.788635
 20
136.275978
 30
0.0
 40
2.25
100
AcDbArc
 50
269.999999
 51
89.99999700000001
  0
ARC
  5
369
330
1F3
100
AcDbEntity
  8
1
  6
Continuous
100
AcDbCircle
 10
369.288635
 20
136.275978
 30
0.0
 40
2.25
100
AcDbArc
 50
90.00000400000002
 51
269.9999959999999
  0
ARC
  5
36A
330
1F3
100
AcDbEntity
  8
1
  6
Continuous
100
AcDbCircle
 10
373.788635
 20
136.275978
 30
0.0
 40
2.25
100
AcDbArc
 50
269.999999
 51
89.99999700000001
  0
ARC
  5
36B
330
1F3
100
AcDbEntity
  8
3
  6
DASHED
 48
0.1
100
AcDbCircle
 10
513.6661679999998
 20
289.7759779999999
 30
0.0
 40
2.5
100
AcDbArc
 50
306.8699069999999
 51
53.130097
  0
CIRCLE
  5
36C
330
1F3
100
AcDbEntity
  8
1
  6
Continuous
100
AcDbCircle
 10
354.0386349999999
 20
259.7759779999999
 30
0.0
 40
2.399999999999999
  0
ARC
  5
36D
330
1F3
100
AcDbEntity
  8
1
  6
Continuous
100
AcDbCircle
 10
354.0386349999999
 20
289.7759779999999
 30
0.0
 40
7.0
100
AcDbArc
 50
359.999995
 51
180.0
  0
CIRCLE
  5
36E
330
1F3
100
AcDbEntity
  8
1
  6
Continuous
100
AcDbCircle
 10
354.0386349999999
 20
289.7759779999999
 30
0.0
 40
1.5
  0
CIRCLE
  5
36F
330
1F3
100
AcDbEntity
  8
5
  6
PHANTOM
 48
0.2
100
AcDbCircle
 10
368.038635
 20
137.0720659999997
 30
0.0
 40
4.5
  0
CIRCLE
  5
370
330
1F3
100
AcDbEntity
  8
1
  6
Continuous
100
AcDbCircle
 10
354.0386349999999
 20
136.275978
 30
0.0
 40
2.399999999999999
  0
ARC
  5
371
330
1F3
100
AcDbEntity
  8
1
  6
Continuous
100
AcDbCircle
 10
50.5
 20
383.2759779999999
 30
0.0
 40
6.5
100
AcDbArc
 50
179.9999899999999
 51
0.000009
  0
ARC
  5
372
330
1F3
100
AcDbEntity
  8
1
  6
Continuous
100
AcDbCircle
 10
195.4693049999999
 20
391.6759719999999
 30
0.0
 40
1.6
100
AcDbArc
 50
359.999995
 51
89.99999700000001
  0
ARC
  5
373
330
1F3
100
AcDbEntity
  8
1
  6
Continuous
100
AcDbCircle
 10
519.1661619999998
 20
391.6759719999999
 30
0.0
 40
1.6
100
AcDbArc
 50
89.99999700000001
 51
180.0
  0
LINE
  5
374
330
1F3
100
AcDbEntity
  8
1
  6
Continuous
100
AcDbLine
 10
517.5661619999998
 20
391.6759719999999
 30
0.0
 11
517.566132
 21
376.7759779999999
 31
0.0
  0
ARC
  5
375
330
1F3
100
AcDbEntity
  8
1
  6
Continuous
100
AcDbCircle
 10
512.866168
 20
158.328603
 30
0.0
 40
2.299999999999998
100
AcDbArc
 50
332.978363
 51
0.0
  0
ARC
  5
376
330
1F3
100
AcDbEntity
  8
1
  6
Continuous
100
AcDbCircle
 10
509.9661679999996
 20
147.785595
 30
0.0
 40
2.299999999999998
100
AcDbArc
 50
152.978428
 51
180.0
  0
LINE
  5
377
330
1F3
100
AcDbEntity
  8
1
  6
Continuous
100
AcDbLine
 10
197.069305
 20
391.6759719999999
 30
0.0
 11
197.069336
 21
376.7759779999999
 31
0.0
  0
ARC
  5
378
330
1F3
100
AcDbEntity
  8
1
  6
Continuous
100
AcDbCircle
 10
201.7693299999999
 20
158.3286179999998
 30
0.0
 40
2.299999999999998
100
AcDbArc
 50
180.0
 51
207.021602
  0
ARC
  5
379
330
1F3
100
AcDbEntity
  8
1
  6
Continuous
100
AcDbCircle
 10
204.6693299999999
 20
147.785595
 30
0.0
 40
2.299999999999998
100
AcDbArc
 50
0.0
 51
27.02156899999998
  0
LINE
  5
37A
330
1F3
100
AcDbEntity
  8
4
  6
CENTER
 48
0.2
100
AcDbLine
 10
36.5
 20
141.4636559999999
 30
0.0
 11
36.5
 21
126.775978
 31
0.0
  0
LINE
  5
37B
330
1F3
100
AcDbEntity
  8
1
  6
Continuous
100
AcDbLine
 10
361.038635
 20
384.5259779999998
 30
0.0
 11
361.038635
 21
146.275978
 31
0.0
  0
LINE
  5
37C
330
1F3
100
AcDbEntity
  8
1
  6
Continuous
100
AcDbLine
 10
347.038635
 20
384.5259779999998
 30
0.0
 11
347.038635
 21
146.275978
 31
0.0
  0
LINE
  5
37D
330
1F3
100
AcDbEntity
  8
1
  6
Continuous
100
AcDbLine
 10
336.538635
 20
391.6759719999999
 30
0.0
 11
347.5386349999998
 21
391.6759719999999
 31
0.0
  0
LINE
  5
37E
330
1F3
100
AcDbEntity
  8
1
  6
Continuous
100
AcDbLine
 10
336.538635
 20
393.2759779999998
 30
0.0
 11
371.538635
 21
393.2759779999998
 31
0.0
  0
LINE
  5
37F
330
1F3
100
AcDbEntity
  8
4
  6
CENTER
 48
0.1
100
AcDbLine
 10
344.038635
 20
396.2759779999998
 30
0.0
 11
344.038635
 21
388.675972
 31
0.0
  0
LINE
  5
380
330
1F3
100
AcDbEntity
  8
4
  6
CENTER
 48
0.1
100
AcDbLine
 10
364.0386349999998
 20
396.2759779999998
 30
0.0
 11
364.0386349999998
 21
388.675972
 31
0.0
  0
LINE
  5
381
330
1F3
100
AcDbEntity
  8
4
  6
CENTER
 48
0.2
100
AcDbLine
 10
354.0386349999999
 20
392.7759779999998
 30
0.0
 11
354.0386349999999
 21
373.7759779999998
 31
0.0
  0
CIRCLE
  5
382
330
1F3
100
AcDbEntity
  8
1
  6
Continuous
100
AcDbCircle
 10
354.0386349999999
 20
383.2759779999999
 30
0.0
 40
4.5
  0
ARC
  5
383
330
1F3
100
AcDbEntity
  8
1
  6
Continuous
100
AcDbCircle
 10
354.0386349999999
 20
384.5259779999998
 30
0.0
 40
7.0
100
AcDbArc
 50
359.999995
 51
180.0
  0
LINE
  5
384
330
1F3
100
AcDbEntity
  8
4
  6
CENTER
 48
0.2
100
AcDbLine
 10
344.538635
 20
383.2759779999999
 30
0.0
 11
363.538635
 21
383.2759779999999
 31
0.0
  0
LINE
  5
385
330
1F3
100
AcDbEntity
  8
1
  6
Continuous
100
AcDbLine
 10
360.5386349999998
 20
391.6759719999999
 30
0.0
 11
371.538635
 21
391.6759719999999
 31
0.0
  0
LINE
  5
386
330
1F3
100
AcDbEntity
  8
1
  6
Continuous
100
AcDbLine
 10
360.5386349999998
 20
393.2759779999998
 30
0.0
 11
360.5386349999998
 21
387.124062
 31
0.0
  0
LINE
  5
387
330
1F3
100
AcDbEntity
  8
1
  6
Continuous
100
AcDbLine
 10
371.538635
 20
393.2759779999998
 30
0.0
 11
371.538635
 21
391.6759719999999
 31
0.0
  0
LINE
  5
388
330
1F3
100
AcDbEntity
  8
1
  6
Continuous
100
AcDbLine
 10
347.5386349999998
 20
393.2759779999998
 30
0.0
 11
347.5386349999998
 21
387.124062
 31
0.0
  0
LINE
  5
389
330
1F3
100
AcDbEntity
  8
1
  6
Continuous
100
AcDbLine
 10
336.538635
 20
393.2759779999998
 30
0.0
 11
336.538635
 21
391.6759719999999
 31
0.0
  0
ARC
  5
38A
330
1F3
100
AcDbEntity
  8
5
  6
PHANTOM
 48
0.2
100
AcDbCircle
 10
354.0386349999999
 20
259.7759779999999
 30
0.0
 40
7.0
100
AcDbArc
 50
6.509059999999999
 51
186.50906
  0
ARC
  5
38B
330
1F3
100
AcDbEntity
  8
5
  6
PHANTOM
 48
0.2
100
AcDbCircle
 10
50.5
 20
259.7759779999999
 30
0.0
 40
7.0
100
AcDbArc
 50
353.4909399999999
 51
173.49094
  0
LINE
  5
38C
330
1F3
100
AcDbEntity
  8
5
  6
PHANTOM
100
AcDbLine
 10
43.313177
 20
135.0366009999999
 30
0.0
 11
57.454878
 21
258.982456
 31
0.0
  0
LINE
  5
38D
330
1F3
100
AcDbEntity
  8
5
  6
PHANTOM
100
AcDbLine
 10
29.40342199999999
 20
136.623646
 30
0.0
 11
43.545122
 21
260.5695
 31
0.0
  0
ARC
  5
38E
330
1F3
100
AcDbEntity
  8
5
  6
PHANTOM
 48
0.2
100
AcDbCircle
 10
36.3583
 20
135.830124
 30
0.0
 40
7.0
100
AcDbArc
 50
173.49094
 51
353.490945
  0
LINE
  5
38F
330
1F3
100
AcDbEntity
  8
4
  6
CENTER
 48
0.2
100
AcDbLine
 10
46.0
 20
137.0720659999997
 30
0.0
 11
27.0
 21
137.0720659999997
 31
0.0
  0
LINE
  5
390
330
1F3
100
AcDbEntity
  8
4
  6
CENTER
 48
0.2
100
AcDbLine
 10
36.5
 20
146.5720659999998
 30
0.0
 11
36.5
 21
127.5720659999997
 31
0.0
  0
ARC
  5
391
330
1F3
100
AcDbEntity
  8
1
  6
Continuous
100
AcDbCircle
 10
195.169312
 20
273.7759779999997
 30
0.0
 40
0.5
100
AcDbArc
 50
143.129928
 51
216.8702469999999
  0
LINE
  5
392
330
1F3
100
AcDbEntity
  8
1
  6
Continuous
100
AcDbLine
 10
197.169327
 20
277.2759779999999
 30
0.0
 11
194.769312
 21
274.075979
 31
0.0
  0
LINE
  5
393
330
1F3
100
AcDbEntity
  8
1
  6
Continuous
100
AcDbLine
 10
194.7693129999999
 20
273.475976
 30
0.0
 11
197.169342
 21
270.2759779999999
 31
0.0
  0
ARC
  5
394
330
1F3
100
AcDbEntity
  8
1
  6
Continuous
100
AcDbCircle
 10
519.4661559999998
 20
273.7759779999997
 30
0.0
 40
0.5
100
AcDbArc
 50
323.129796
 51
36.870204
  0
LINE
  5
395
330
1F3
100
AcDbEntity
  8
1
  6
Continuous
100
AcDbLine
 10
517.4661559999998
 20
270.2760139999999
 30
0.0
 11
519.8661549999997
 21
273.475976
 31
0.0
  0
LINE
  5
396
330
1F3
100
AcDbEntity
  8
1
  6
Continuous
100
AcDbLine
 10
517.4661559999998
 20
277.2759419999998
 30
0.0
 11
519.8661549999997
 21
274.0759799999997
 31
0.0
  0
LINE
  5
397
330
1F3
100
AcDbEntity
  8
4
  6
CENTER
 48
0.1
100
AcDbLine
 10
23.5
 20
127.072066
 30
0.0
 11
31.100006
 21
127.072066
 31
0.0
  0
LINE
  5
398
330
1F3
100
AcDbEntity
  8
4
  6
CENTER
 48
0.1
100
AcDbLine
 10
23.5
 20
147.0720659999997
 30
0.0
 11
31.100006
 21
147.0720659999997
 31
0.0
  0
LINE
  5
399
330
1F3
100
AcDbEntity
  8
5
  6
PHANTOM
 48
0.2
100
AcDbLine
 10
28.100006
 20
154.5720659999998
 30
0.0
 11
28.100006
 21
119.5720659999997
 31
0.0
  0
LINE
  5
39A
330
1F3
100
AcDbEntity
  8
5
  6
PHANTOM
 48
0.2
100
AcDbLine
 10
26.5
 20
154.5720659999998
 30
0.0
 11
26.5
 21
119.5720659999997
 31
0.0
  0
LINE
  5
39B
330
1F3
100
AcDbEntity
  8
5
  6
PHANTOM
 48
0.2
100
AcDbLine
 10
28.100006
 20
143.5720659999998
 30
0.0
 11
30.196207
 21
143.5720659999998
 31
0.0
  0
LINE
  5
39C
330
1F3
100
AcDbEntity
  8
5
  6
PHANTOM
 48
0.2
100
AcDbLine
 10
26.5
 20
154.5720659999998
 30
0.0
 11
28.100006
 21
154.5720659999998
 31
0.0
  0
CIRCLE
  5
39D
330
1F3
100
AcDbEntity
  8
5
  6
PHANTOM
 48
0.2
100
AcDbCircle
 10
36.5
 20
137.0720659999997
 30
0.0
 40
2.399999999999999
  0
LINE
  5
39E
330
1F3
100
AcDbEntity
  8
5
  6
PHANTOM
 48
0.2
100
AcDbLine
 10
28.100006
 20
130.5720659999997
 30
0.0
 11
31.73738699999999
 21
130.5720659999997
 31
0.0
  0
LINE
  5
39F
330
1F3
100
AcDbEntity
  8
5
  6
PHANTOM
 48
0.2
100
AcDbLine
 10
26.5
 20
119.5720659999997
 30
0.0
 11
28.100006
 21
119.5720659999997
 31
0.0
  0
LINE
  5
3A0
330
1F3
100
AcDbEntity
  8
5
  6
PHANTOM
 48
0.2
100
AcDbLine
 10
378.038635
 20
154.5720659999998
 30
0.0
 11
378.038635
 21
119.5720659999997
 31
0.0
  0
LINE
  5
3A1
330
1F3
100
AcDbEntity
  8
5
  6
PHANTOM
 48
0.2
100
AcDbLine
 10
376.438629
 20
154.5720659999998
 30
0.0
 11
376.438629
 21
143.5720659999998
 31
0.0
  0
LINE
  5
3A2
330
1F3
100
AcDbEntity
  8
4
  6
CENTER
 48
0.1
100
AcDbLine
 10
381.0386349999998
 20
127.072066
 30
0.0
 11
373.4386289999998
 21
127.072066
 31
0.0
  0
LINE
  5
3A3
330
1F3
100
AcDbEntity
  8
4
  6
CENTER
 48
0.1
100
AcDbLine
 10
381.0386349999998
 20
147.0720659999997
 30
0.0
 11
373.4386289999998
 21
147.0720659999997
 31
0.0
  0
LINE
  5
3A4
330
1F3
100
AcDbEntity
  8
4
  6
CENTER
 48
0.2
100
AcDbLine
 10
377.538635
 20
137.0720659999997
 30
0.0
 11
358.538635
 21
137.0720659999997
 31
0.0
  0
LINE
  5
3A5
330
1F3
100
AcDbEntity
  8
4
  6
CENTER
 48
0.2
100
AcDbLine
 10
368.038635
 20
146.5720659999998
 30
0.0
 11
368.038635
 21
127.5720659999997
 31
0.0
  0
LINE
  5
3A6
330
1F3
100
AcDbEntity
  8
5
  6
PHANTOM
 48
0.2
100
AcDbLine
 10
378.038635
 20
119.5720659999997
 30
0.0
 11
376.438629
 21
119.5720659999997
 31
0.0
  0
LINE
  5
3A7
330
1F3
100
AcDbEntity
  8
5
  6
PHANTOM
 48
0.2
100
AcDbLine
 10
378.038635
 20
130.5720659999997
 30
0.0
 11
372.8012479999999
 21
130.5720659999997
 31
0.0
  0
LINE
  5
3A8
330
1F3
100
AcDbEntity
  8
5
  6
PHANTOM
 48
0.2
100
AcDbLine
 10
376.438629
 20
130.5720659999997
 30
0.0
 11
376.438629
 21
119.5720659999997
 31
0.0
  0
LINE
  5
3A9
330
1F3
100
AcDbEntity
  8
5
  6
PHANTOM
 48
0.2
100
AcDbLine
 10
378.038635
 20
143.5720659999998
 30
0.0
 11
374.3424279999999
 21
143.5720659999998
 31
0.0
  0
LINE
  5
3AA
330
1F3
100
AcDbEntity
  8
5
  6
PHANTOM
 48
0.2
100
AcDbLine
 10
378.038635
 20
154.5720659999998
 30
0.0
 11
376.438629
 21
154.5720659999998
 31
0.0
  0
ENDSEC
  0
SECTION
  2
OBJECTS
  0
DICTIONARY
  5
1E1
330
0
100
AcDbDictionary
281
     1
  3
ACAD_CIP_PREVIOUS_PRODUCT_INFO
350
5B1
  3
ACAD_COLOR
350
593
  3
ACAD_DETAILVIEWSTYLE
350
5AC
  3
ACAD_GROUP
350
1E2
  3
ACAD_LAYOUT
350
1EE
  3
ACAD_MATERIAL
350
561
  3
ACAD_MLEADERSTYLE
350
5A8
  3
ACAD_MLINESTYLE
350
1EB
  3
ACAD_PLOTSETTINGS
350
1ED
  3
ACAD_PLOTSTYLENAME
350
55F
  3
ACAD_SCALELIST
350
596
  3
ACAD_SECTIONVIEWSTYLE
350
5AA
  3
ACAD_TABLESTYLE
350
594
  3
ACAD_VISUALSTYLE
350
57A
  3
ACDB_RECOMPOSE_DATA
350
5CF
  3
AcDbVariableDictionary
350
5C2
  3
DWGPROPS
350
5D0
  0
DICTIONARY
  5
5B2
330
1E5
100
AcDbDictionary
280
     1
281
     1
  3
ADSK_XREC_LAYER_RECONCILED
360
5B3
  0
DICTIONARY
  5
5B4
330
1FB
100
AcDbDictionary
280
     1
281
     1
  3
ADSK_XREC_LAYER_RECONCILED
360
5B5
  0
DICTIONARY
  5
5B6
330
1FC
100
AcDbDictionary
280
     1
281
     1
  3
ADSK_XREC_LAYER_RECONCILED
360
5B7
  0
DICTIONARY
  5
5B8
330
1FD
100
AcDbDictionary
280
     1
281
     1
  3
ADSK_XREC_LAYER_RECONCILED
360
5B9
  0
DICTIONARY
  5
5BA
330
1FE
100
AcDbDictionary
280
     1
281
     1
  3
ADSK_XREC_LAYER_RECONCILED
360
5BB
  0
DICTIONARY
  5
5BC
330
1FF
100
AcDbDictionary
280
     1
281
     1
  3
ADSK_XREC_LAYER_RECONCILED
360
5BD
  0
DICTIONARY
  5
5BE
330
200
100
AcDbDictionary
280
     1
281
     1
  3
ADSK_XREC_LAYER_RECONCILED
360
5BF
  0
DICTIONARY
  5
5C0
330
201
100
AcDbDictionary
280
     1
281
     1
  3
ADSK_XREC_LAYER_RECONCILED
360
5C1
  0
DICTIONARY
  5
3B9
330
1F3
100
AcDbDictionary
281
     1
  3
ACAD_LAYOUTSELFREF
350
55B
  0
DICTIONARY
  5
3B7
330
1EF
100
AcDbDictionary
281
     1
  3
ACAD_LAYOUTSELFREF
350
55A
  0
XRECORD
  5
5B1
102
{ACAD_REACTORS
330
1E1
102
}
330
1E1
100
AcDbXrecord
280
     1
300
ACDLT
300
2014
300
ACDLT_F_S
  0
DICTIONARY
  5
593
102
{ACAD_REACTORS
330
1E1
102
}
330
1E1
100
AcDbDictionary
281
     1
  0
DICTIONARY
  5
5AC
102
{ACAD_REACTORS
330
1E1
102
}
330
1E1
100
AcDbDictionary
281
     1
  3
Imperial24
350
5AD
  0
DICTIONARY
  5
1E2
102
{ACAD_REACTORS
330
1E1
102
}
330
1E1
100
AcDbDictionary
281
     1
  0
DICTIONARY
  5
1EE
102
{ACAD_REACTORS
330
1E1
102
}
330
1E1
100
AcDbDictionary
281
     1
  3
Model
350
5AE
  3
レイアウト1
350
5AF
  0
DICTIONARY
  5
561
102
{ACAD_REACTORS
330
1E1
102
}
330
1E1
100
AcDbDictionary
281
     1
  3
ByBlock
350
56A
  3
ByLayer
350
562
  3
Global
350
572
  0
DICTIONARY
  5
5A8
102
{ACAD_REACTORS
330
1E1
102
}
330
1E1
100
AcDbDictionary
281
     1
  3
Standard
350
5A9
  0
DICTIONARY
  5
1EB
102
{ACAD_REACTORS
330
1E1
102
}
330
1E1
100
AcDbDictionary
281
     1
  3
STANDARD
350
1EC
  0
DICTIONARY
  5
1ED
102
{ACAD_REACTORS
330
1E1
102
}
330
1E1
100
AcDbDictionary
281
     1
  0
ACDBDICTIONARYWDFLT
  5
55F
102
{ACAD_REACTORS
330
1E1
102
}
330
1E1
100
AcDbDictionary
281
     1
  3
Normal
350
560
100
AcDbDictionaryWithDefault
340
560
  0
DICTIONARY
  5
596
102
{ACAD_REACTORS
330
1E1
102
}
330
1E1
100
AcDbDictionary
281
     1
  3
A0
350
597
  3
A1
350
598
  3
A2
350
599
  3
A3
350
59A
  3
A4
350
59B
  3
A5
350
59C
  3
A6
350
59D
  3
A7
350
59E
  3
A8
350
59F
  3
A9
350
5A0
  3
B0
350
5A1
  3
B1
350
5A2
  3
B2
350
5A3
  3
B3
350
5A4
  3
B4
350
5A5
  3
B5
350
5A6
  3
B6
350
5A7
  0
DICTIONARY
  5
5AA
102
{ACAD_REACTORS
330
1E1
102
}
330
1E1
100
AcDbDictionary
281
     1
  3
Imperial24
350
5AB
  0
DICTIONARY
  5
594
102
{ACAD_REACTORS
330
1E1
102
}
330
1E1
100
AcDbDictionary
281
     1
  3
Standard
350
595
  0
DICTIONARY
  5
57A
102
{ACAD_REACTORS
330
1E1
102
}
330
1E1
100
AcDbDictionary
281
     1
  3
2dWireframe
350
580
  3
Basic
350
57F
  3
Brighten
350
586
  3
ColorChange
350
58A
  3
Conceptual
350
583
  3
Dim
350
585
  3
EdgeColorOff
350
592
  3
Facepattern
350
589
  3
Flat
350
57B
  3
FlatWithEdges
350
57C
  3
Gouraud
350
57D
  3
GouraudWithEdges
350
57E
  3
Hidden
350
582
  3
JitterOff
350
590
  3
Linepattern
350
588
  3
OverhangOff
350
591
  3
Realistic
350
584
  3
Shaded
350
58F
  3
Shaded with edges
350
58E
  3
Shades of Gray
350
58B
  3
Sketchy
350
58C
  3
Thicken
350
587
  3
Wireframe
350
581
  3
X-Ray
350
58D
  0
XRECORD
  5
5CF
102
{ACAD_REACTORS
330
1E1
102
}
330
1E1
100
AcDbXrecord
280
     1
 90
        1
330
595
  0
DICTIONARY
  5
5C2
102
{ACAD_REACTORS
330
1E1
102
}
330
1E1
100
AcDbDictionary
281
     1
  3
CANNOSCALE
350
5C7
  3
CMLEADERSTYLE
350
5C4
  3
CTABLESTYLE
350
5C3
  3
CVIEWDETAILSTYLE
350
5C5
  3
CVIEWSECTIONSTYLE
350
5C6
  3
DIMASSOC
350
5CA
  3
INDEXCTL
350
5C9
  3
SORTENTS
350
5C8
  3
XCLIPFRAME
350
5CB
  0
XRECORD
  5
5D0
102
{ACAD_REACTORS
330
1E1
102
}
330
1E1
100
AcDbXrecord
280
     1
  1
DWGPROPS COOKIE
  2

  3

  4

  6

  7

  8
Yoshitsune
  9

300
=
301
=
302
=
303
=
304
=
305
=
306
=
307
=
308
=
309
=
 40
0.0061388657407407
 41
2451069.705653935
 42
2457192.622931343
  1

 90
        0
  0
XRECORD
  5
5B3
102
{ACAD_REACTORS
330
5B2
102
}
330
5B2
100
AcDbXrecord
280
     1
290
     1
  0
XRECORD
  5
5B5
102
{ACAD_REACTORS
330
5B4
102
}
330
5B4
100
AcDbXrecord
280
     1
290
     1
  0
XRECORD
  5
5B7
102
{ACAD_REACTORS
330
5B6
102
}
330
5B6
100
AcDbXrecord
280
     1
290
     1
  0
XRECORD
  5
5B9
102
{ACAD_REACTORS
330
5B8
102
}
330
5B8
100
AcDbXrecord
280
     1
290
     1
  0
XRECORD
  5
5BB
102
{ACAD_REACTORS
330
5BA
102
}
330
5BA
100
AcDbXrecord
280
     1
290
     1
  0
XRECORD
  5
5BD
102
{ACAD_REACTORS
330
5BC
102
}
330
5BC
100
AcDbXrecord
280
     1
290
     1
  0
XRECORD
  5
5BF
102
{ACAD_REACTORS
330
5BE
102
}
330
5BE
100
AcDbXrecord
280
     1
290
     1
  0
XRECORD
  5
5C1
102
{ACAD_REACTORS
330
5C0
102
}
330
5C0
100
AcDbXrecord
280
     1
290
     1
  0
XRECORD
  5
55B
102
{ACAD_REACTORS
330
3B9
102
}
330
3B9
100
AcDbXrecord
280
     1
340
1F3
  0
XRECORD
  5
55A
102
{ACAD_REACTORS
330
3B7
102
}
330
3B7
100
AcDbXrecord
280
     1
340
1EF
  0
ACDBDETAILVIEWSTYLE
  5
5AD
102
{ACAD_XDICTIONARY
360
608
102
}
102
{ACAD_REACTORS
330
5AC
102
}
330
5AC
100
AcDbModelDocViewStyle
 70
     0
  3
Imperial24
290
     0
100
AcDbDetailViewStyle
 70
     0
 71
     0
 90
        3
 71
     1
340
1E6
 40
0.24
340
0
 40
0.24
300

 40
0.36
280
     3
 71
     2
340
1EA
 90
       25
 71
     3
340
1E6
 40
0.24
 90
        1
 40
0.75
 90
        1
300
%<\AcVar ViewType \f "%tc1">% %<\AcVar ViewDetailId>%\PSCALE %<\AcVar ViewScale \f "%sn">%
 71
     4
340
1EA
 90
       25
340
1EA
 90
       25
280
     0
  0
LAYOUT
  5
5AE
102
{ACAD_XDICTIONARY
360
60A
102
}
102
{ACAD_REACTORS
330
1EE
102
}
330
1EE
100
AcDbPlotSettings
  1

  2
Canon LBP9100C
  4

  6

 40
0.0
 41
0.0
 42
0.0
 43
0.0
 44
0.0
 45
0.0
 46
0.0
 47
0.0
 48
0.0
 49
0.0
140
0.0
141
0.0
142
1.0
143
1.0
 70
  1712
 72
     0
 73
     0
 74
     0
  7

 75
     0
147
1.0
148
0.0
149
0.0
100
AcDbLayout
  1
Model
 70
     1
 71
     0
 10
0.0
 20
0.0
 11
12.0
 21
9.0
 12
0.0
 22
0.0
 32
0.0
 14
0.0
 24
0.0
 34
0.0
 15
0.0
 25
0.0
 35
0.0
146
0.0
 13
0.0
 23
0.0
 33
0.0
 16
1.0
 26
0.0
 36
0.0
 17
0.0
 27
1.0
 37
0.0
 76
     0
330
1F3
331
559
  0
LAYOUT
  5
5AF
102
{ACAD_XDICTIONARY
360
60C
102
}
102
{ACAD_REACTORS
330
1EE
102
}
330
1EE
100
AcDbPlotSettings
  1

  2
Canon LBP9100C
  4

  6

 40
0.0
 41
0.0
 42
0.0
 43
0.0
 44
0.0
 45
0.0
 46
0.0
 47
0.0
 48
0.0
 49
0.0
140
0.0
141
0.0
142
1.0
143
1.0
 70
   688
 72
     0
 73
     0
 74
     5
  7

 75
    16
147
1.0
148
0.0
149
0.0
100
AcDbLayout
  1
レイアウト1
 70
     0
 71
     1
 10
0.0
 20
0.0
 11
420.0
 21
297.0
 12
0.0
 22
0.0
 32
0.0
 14
1.000000000000000E+20
 24
1.000000000000000E+20
 34
1.000000000000000E+20
 15
-1.000000000000000E+20
 25
-1.000000000000000E+20
 35
-1.000000000000000E+20
146
0.0
 13
0.0
 23
0.0
 33
0.0
 16
1.0
 26
0.0
 36
0.0
 17
0.0
 27
1.0
 37
0.0
 76
     0
330
1EF
  0
MATERIAL
  5
56A
102
{ACAD_XDICTIONARY
360
56B
102
}
102
{ACAD_REACTORS
330
561
102
}
330
561
100
AcDbMaterial
  1
ByBlock
 72
     0
 43
0.0208333333333333
 43
0.0
 43
0.0
 43
0.0
 43
0.0
 43
0.0208333333333333
 43
0.0
 43
0.0
 43
0.0
 43
0.0
 43
1.0
 43
0.0
 43
0.0
 43
0.0
 43
0.0
 43
1.0
 77
     0
 47
0.0208333333333333
 47
0.0
 47
0.0
 47
0.0
 47
0.0
 47
0.0208333333333333
 47
0.0
 47
0.0
 47
0.0
 47
0.0
 47
1.0
 47
0.0
 47
0.0
 47
0.0
 47
0.0
 47
1.0
171
     0
 49
0.0208333333333333
 49
0.0
 49
0.0
 49
0.0
 49
0.0
 49
0.0208333333333333
 49
0.0
 49
0.0
 49
0.0
 49
0.0
 49
1.0
 49
0.0
 49
0.0
 49
0.0
 49
0.0
 49
1.0
175
     0
142
0.0208333333333333
142
0.0
142
0.0
142
0.0
142
0.0
142
0.0208333333333333
142
0.0
142
0.0
142
0.0
142
0.0
142
1.0
142
0.0
142
0.0
142
0.0
142
0.0
142
1.0
179
     0
144
0.0208333333333333
144
0.0
144
0.0
144
0.0
144
0.0
144
0.0208333333333333
144
0.0
144
0.0
144
0.0
144
0.0
144
1.0
144
0.0
144
0.0
144
0.0
144
0.0
144
1.0
147
0.0208333333333333
147
0.0
147
0.0
147
0.0
147
0.0
147
0.0208333333333333
147
0.0
147
0.0
147
0.0
147
0.0
147
1.0
147
0.0
147
0.0
147
0.0
147
0.0
147
1.0
  0
MATERIAL
  5
562
102
{ACAD_XDICTIONARY
360
563
102
}
102
{ACAD_REACTORS
330
561
102
}
330
561
100
AcDbMaterial
  1
ByLayer
 72
     0
 43
0.0208333333333333
 43
0.0
 43
0.0
 43
0.0
 43
0.0
 43
0.0208333333333333
 43
0.0
 43
0.0
 43
0.0
 43
0.0
 43
1.0
 43
0.0
 43
0.0
 43
0.0
 43
0.0
 43
1.0
 77
     0
 47
0.0208333333333333
 47
0.0
 47
0.0
 47
0.0
 47
0.0
 47
0.0208333333333333
 47
0.0
 47
0.0
 47
0.0
 47
0.0
 47
1.0
 47
0.0
 47
0.0
 47
0.0
 47
0.0
 47
1.0
171
     0
 49
0.0208333333333333
 49
0.0
 49
0.0
 49
0.0
 49
0.0
 49
0.0208333333333333
 49
0.0
 49
0.0
 49
0.0
 49
0.0
 49
1.0
 49
0.0
 49
0.0
 49
0.0
 49
0.0
 49
1.0
175
     0
142
0.0208333333333333
142
0.0
142
0.0
142
0.0
142
0.0
142
0.0208333333333333
142
0.0
142
0.0
142
0.0
142
0.0
142
1.0
142
0.0
142
0.0
142
0.0
142
0.0
142
1.0
179
     0
144
0.0208333333333333
144
0.0
144
0.0
144
0.0
144
0.0
144
0.0208333333333333
144
0.0
144
0.0
144
0.0
144
0.0
144
1.0
144
0.0
144
0.0
144
0.0
144
0.0
144
1.0
147
0.0208333333333333
147
0.0
147
0.0
147
0.0
147
0.0
147
0.0208333333333333
147
0.0
147
0.0
147
0.0
147
0.0
147
1.0
147
0.0
147
0.0
147
0.0
147
0.0
147
1.0
  0
MATERIAL
  5
572
102
{ACAD_XDICTIONARY
360
573
102
}
102
{ACAD_REACTORS
330
561
102
}
330
561
100
AcDbMaterial
  1
Global
 72
     0
 43
0.0208333333333333
 43
0.0
 43
0.0
 43
0.0
 43
0.0
 43
0.0208333333333333
 43
0.0
 43
0.0
 43
0.0
 43
0.0
 43
1.0
 43
0.0
 43
0.0
 43
0.0
 43
0.0
 43
1.0
 77
     0
 47
0.0208333333333333
 47
0.0
 47
0.0
 47
0.0
 47
0.0
 47
0.0208333333333333
 47
0.0
 47
0.0
 47
0.0
 47
0.0
 47
1.0
 47
0.0
 47
0.0
 47
0.0
 47
0.0
 47
1.0
171
     0
 49
0.0208333333333333
 49
0.0
 49
0.0
 49
0.0
 49
0.0
 49
0.0208333333333333
 49
0.0
 49
0.0
 49
0.0
 49
0.0
 49
1.0
 49
0.0
 49
0.0
 49
0.0
 49
0.0
 49
1.0
175
     0
142
0.0208333333333333
142
0.0
142
0.0
142
0.0
142
0.0
142
0.0208333333333333
142
0.0
142
0.0
142
0.0
142
0.0
142
1.0
142
0.0
142
0.0
142
0.0
142
0.0
142
1.0
179
     0
144
0.0208333333333333
144
0.0
144
0.0
144
0.0
144
0.0
144
0.0208333333333333
144
0.0
144
0.0
144
0.0
144
0.0
144
1.0
144
0.0
144
0.0
144
0.0
144
0.0
144
1.0
147
0.0208333333333333
147
0.0
147
0.0
147
0.0
147
0.0
147
0.0208333333333333
147
0.0
147
0.0
147
0.0
147
0.0
147
1.0
147
0.0
147
0.0
147
0.0
147
0.0
147
1.0
  0
MLEADERSTYLE
  5
5A9
102
{ACAD_REACTORS
330
5A8
102
}
330
5A8
100
AcDbMLeaderStyle
170
     2
171
     1
172
     0
 90
        2
 40
0.0
 41
0.0
173
     1
 91
-1056964608
340
1E8
 92
       -2
290
     1
 42
0.09
291
     1
 43
0.36
  3
Standard
 44
0.18
300

342
1E6
174
     1
178
     6
175
     1
176
     0
 93
-1056964608
 45
0.18
292
     0
297
     0
 46
0.18
 94
-1056964608
 47
1.0
 49
1.0
140
1.0
293
     1
141
0.0
294
     1
177
     0
142
1.0
295
     0
296
     0
143
0.125
1001
ACAD_MLEADERVER
1070
     2
  0
MLINESTYLE
  5
1EC
102
{ACAD_REACTORS
330
1EB
102
}
330
1EB
100
AcDbMlineStyle
  2
STANDARD
 70
     0
  3

 62
   256
 51
90.0
 52
90.0
 71
     2
 49
0.5
 62
   256
  6
BYLAYER
 49
-0.5
 62
   256
  6
BYLAYER
  0
ACDBPLACEHOLDER
  5
560
102
{ACAD_REACTORS
330
55F
102
}
330
55F
  0
SCALE
  5
597
102
{ACAD_REACTORS
330
596
102
}
330
596
100
AcDbScale
 70
     0
300
1:1
140
1.0
141
1.0
290
     1
  0
SCALE
  5
598
102
{ACAD_REACTORS
330
596
102
}
330
596
100
AcDbScale
 70
     0
300
1/128" = 1'-0"
140
0.0078125
141
12.0
290
     0
  0
SCALE
  5
599
102
{ACAD_REACTORS
330
596
102
}
330
596
100
AcDbScale
 70
     0
300
1/64" = 1'-0"
140
0.015625
141
12.0
290
     0
  0
SCALE
  5
59A
102
{ACAD_REACTORS
330
596
102
}
330
596
100
AcDbScale
 70
     0
300
1/32" = 1'-0"
140
0.03125
141
12.0
290
     0
  0
SCALE
  5
59B
102
{ACAD_REACTORS
330
596
102
}
330
596
100
AcDbScale
 70
     0
300
1/16" = 1'-0"
140
0.0625
141
12.0
290
     0
  0
SCALE
  5
59C
102
{ACAD_REACTORS
330
596
102
}
330
596
100
AcDbScale
 70
     0
300
3/32" = 1'-0"
140
0.09375
141
12.0
290
     0
  0
SCALE
  5
59D
102
{ACAD_REACTORS
330
596
102
}
330
596
100
AcDbScale
 70
     0
300
1/8" = 1'-0"
140
0.125
141
12.0
290
     0
  0
SCALE
  5
59E
102
{ACAD_REACTORS
330
596
102
}
330
596
100
AcDbScale
 70
     0
300
3/16" = 1'-0"
140
0.1875
141
12.0
290
     0
  0
SCALE
  5
59F
102
{ACAD_REACTORS
330
596
102
}
330
596
100
AcDbScale
 70
     0
300
1/4" = 1'-0"
140
0.25
141
12.0
290
     0
  0
SCALE
  5
5A0
102
{ACAD_REACTORS
330
596
102
}
330
596
100
AcDbScale
 70
     0
300
3/8" = 1'-0"
140
0.375
141
12.0
290
     0
  0
SCALE
  5
5A1
102
{ACAD_REACTORS
330
596
102
}
330
596
100
AcDbScale
 70
     0
300
1/2" = 1'-0"
140
0.5
141
12.0
290
     0
  0
SCALE
  5
5A2
102
{ACAD_REACTORS
330
596
102
}
330
596
100
AcDbScale
 70
     0
300
3/4" = 1'-0"
140
0.75
141
12.0
290
     0
  0
SCALE
  5
5A3
102
{ACAD_REACTORS
330
596
102
}
330
596
100
AcDbScale
 70
     0
300
1" = 1'-0"
140
1.0
141
12.0
290
     0
  0
SCALE
  5
5A4
102
{ACAD_REACTORS
330
596
102
}
330
596
100
AcDbScale
 70
     0
300
1-1/2" = 1'-0"
140
1.5
141
12.0
290
     0
  0
SCALE
  5
5A5
102
{ACAD_REACTORS
330
596
102
}
330
596
100
AcDbScale
 70
     0
300
3" = 1'-0"
140
3.0
141
12.0
290
     0
  0
SCALE
  5
5A6
102
{ACAD_REACTORS
330
596
102
}
330
596
100
AcDbScale
 70
     0
300
6" = 1'-0"
140
6.0
141
12.0
290
     0
  0
SCALE
  5
5A7
102
{ACAD_REACTORS
330
596
102
}
330
596
100
AcDbScale
 70
     0
300
1'-0" = 1'-0"
140
12.0
141
12.0
290
     0
  0
ACDBSECTIONVIEWSTYLE
  5
5AB
102
{ACAD_XDICTIONARY
360
606
102
}
102
{ACAD_REACTORS
330
5AA
102
}
330
5AA
100
AcDbModelDocViewStyle
 70
     0
  3
Imperial24
290
     0
100
AcDbSectionViewStyle
 70
     0
 71
     0
 90
       78
 71
     1
340
1E6
 40
0.24
340
0
340
0
 40
0.24
300
I, O, Q, S, X, Z
 40
0.48
 90
        3
 40
0.18
 90
        1
 71
     2
340
1EA
 90
       25
340
1EA
 90
       50
 40
0.24
 40
0.0
 40
0.24
 71
     3
340
1E6
 40
0.24
 90
        1
 40
0.75
 90
        1
300
%<\AcVar ViewType \f "%tc1">% %<\AcVar ViewSectionStartId>%-%<\AcVar ViewSectionEndId>%\PSCALE %<\AcVar ViewScale \f "%sn">%
 71
     4
300
ANSI31
 40
1.0
 90
        0
290
     0
290
     0
 90
        6
 40
0.0
 40
1.570796326794896
 40
0.2617993877991494
 40
1.308996938995747
 40
-0.2617993877991494
 40
1.832595714594046
  0
TABLESTYLE
  5
595
102
{ACAD_XDICTIONARY
360
5CD
102
}
102
{ACAD_REACTORS
330
594
102
}
330
594
100
AcDbTableStyle
  3
Standard
 70
     0
 71
     0
 40
0.06
 41
0.06
280
     0
281
     0
  7
STANDARD
140
0.18
170
     2
 62
     0
 63
     7
283
     0
274
    -2
284
     1
 64
     0
275
    -2
285
     1
 65
     0
276
    -2
286
     1
 66
     0
277
    -2
287
     1
 67
     0
278
    -2
288
     1
 68
     0
279
    -2
289
     1
 69
     0
  7
STANDARD
140
0.25
170
     5
 62
     0
 63
     7
283
     0
274
    -2
284
     1
 64
     0
275
    -2
285
     1
 65
     0
276
    -2
286
     1
 66
     0
277
    -2
287
     1
 67
     0
278
    -2
288
     1
 68
     0
279
    -2
289
     1
 69
     0
  7
STANDARD
140
0.18
170
     5
 62
     0
 63
     7
283
     0
274
    -2
284
     1
 64
     0
275
    -2
285
     1
 65
     0
276
    -2
286
     1
 66
     0
277
    -2
287
     1
 67
     0
278
    -2
288
     1
 68
     0
279
    -2
289
     1
 69
     0
  0
VISUALSTYLE
  5
580
102
{ACAD_XDICTIONARY
360
5DE
102
}
102
{ACAD_REACTORS
330
57A
102
}
330
57A
100
AcDbVisualStyle
  2
2dWireframe
 70
     4
 71
     0
 72
     2
 73
     0
 90
        0
 40
-0.6
 41
-30.0
 62
     5
 63
     7
 74
     1
 91
        4
 64
     7
 65
   257
 75
     1
175
     1
 42
1.0
 92
        0
 66
   257
 43
1.0
 76
     1
 77
     6
 78
     2
 67
     7
 79
     5
170
     0
171
     0
290
     0
174
     0
 93
        1
 44
0.0
173
     0
291
     0
 45
0.0
1001
ACAD
1000
AcDbSavedByObjectVersion
1070
     0
  0
VISUALSTYLE
  5
57F
102
{ACAD_XDICTIONARY
360
5DC
102
}
102
{ACAD_REACTORS
330
57A
102
}
330
57A
100
AcDbVisualStyle
  2
Basic
 70
     7
 71
     1
 72
     0
 73
     1
 90
        0
 40
-0.6
 41
-30.0
 62
     5
 63
     7
 74
     0
 91
        4
 64
     7
 65
   257
 75
     1
175
     1
 42
1.0
 92
        8
 66
     7
 43
1.0
 76
     1
 77
     6
 78
     2
 67
     7
 79
     5
170
     0
171
     0
290
     0
174
     0
 93
        1
 44
0.0
173
     0
291
     1
 45
0.0
1001
ACAD
1000
AcDbSavedByObjectVersion
1070
     0
  0
VISUALSTYLE
  5
586
102
{ACAD_XDICTIONARY
360
5EA
102
}
102
{ACAD_REACTORS
330
57A
102
}
330
57A
100
AcDbVisualStyle
  2
Brighten
 70
    12
 71
     2
 72
     2
 73
     0
 90
        0
 40
-0.6
 41
-30.0
 62
     5
 63
     7
 74
     1
 91
        4
 64
     7
 65
   257
 75
     1
175
     1
 42
1.0
 92
        8
 66
     7
 43
1.0
 76
     1
 77
     6
 78
     2
 67
     7
 79
     5
170
     0
171
     0
290
     0
174
     0
 93
        1
 44
50.0
173
     0
291
     1
 45
0.0
1001
ACAD
1000
AcDbSavedByObjectVersion
1070
     0
  0
VISUALSTYLE
  5
58A
102
{ACAD_XDICTIONARY
360
5F2
102
}
102
{ACAD_REACTORS
330
57A
102
}
330
57A
100
AcDbVisualStyle
  2
ColorChange
 70
    16
 71
     2
 72
     2
 73
     3
 90
        0
 40
-0.6
 41
-30.0
 62
     5
 63
     8
 74
     1
 91
        4
 64
     7
 65
   257
 75
     1
175
     1
 42
1.0
 92
        8
 66
     8
 43
1.0
 76
     1
 77
     6
 78
     2
 67
     7
 79
     5
170
     0
171
     0
290
     0
174
     0
 93
        1
 44
0.0
173
     0
291
     1
 45
0.0
1001
ACAD
1000
AcDbSavedByObjectVersion
1070
     0
  0
VISUALSTYLE
  5
583
102
{ACAD_XDICTIONARY
360
5E4
102
}
102
{ACAD_REACTORS
330
57A
102
}
330
57A
100
AcDbVisualStyle
  2
Conceptual
 70
     9
 71
     3
 72
     2
 73
     0
 90
        0
 40
-0.6
 41
-30.0
 62
     5
 63
     7
 74
     2
 91
        2
 64
     7
 65
   257
 75
     1
175
     1
 42
179.0
 92
        8
 66
     7
 43
1.0
 76
     1
 77
     6
 78
     2
 67
     7
 79
     3
170
     0
171
     0
290
     0
174
     0
 93
        1
 44
0.0
173
     0
291
     0
 45
0.0
1001
ACAD
1000
AcDbSavedByObjectVersion
1070
     0
  0
VISUALSTYLE
  5
585
102
{ACAD_XDICTIONARY
360
5E8
102
}
102
{ACAD_REACTORS
330
57A
102
}
330
57A
100
AcDbVisualStyle
  2
Dim
 70
    11
 71
     2
 72
     2
 73
     0
 90
        0
 40
-0.6
 41
-30.0
 62
     5
 63
     7
 74
     1
 91
        4
 64
     7
 65
   257
 75
     1
175
     1
 42
1.0
 92
        8
 66
     7
 43
1.0
 76
     1
 77
     6
 78
     2
 67
     7
 79
     5
170
     0
171
     0
290
     0
174
     0
 93
        1
 44
-50.0
173
     0
291
     1
 45
0.0
1001
ACAD
1000
AcDbSavedByObjectVersion
1070
     0
  0
VISUALSTYLE
  5
592
102
{ACAD_XDICTIONARY
360
602
102
}
102
{ACAD_REACTORS
330
57A
102
}
330
57A
100
AcDbVisualStyle
  2
EdgeColorOff
 70
    22
 71
     2
 72
     2
 73
     0
 90
        0
 40
-0.6
 41
-30.0
 62
     5
 63
     7
 74
     1
 91
        4
 64
     7
 65
   257
 75
     1
175
     1
 42
1.0
 92
        8
 66
     7
 43
1.0
 76
     1
 77
     6
 78
     2
 67
     7
 79
     5
170
     0
171
     0
290
     0
174
     0
 93
        1
 44
0.0
173
     0
291
     1
 45
0.0
1001
ACAD
1000
AcDbSavedByObjectVersion
1070
     0
  0
VISUALSTYLE
  5
589
102
{ACAD_XDICTIONARY
360
5F0
102
}
102
{ACAD_REACTORS
330
57A
102
}
330
57A
100
AcDbVisualStyle
  2
Facepattern
 70
    15
 71
     2
 72
     2
 73
     0
 90
        0
 40
-0.6
 41
-30.0
 62
     5
 63
     7
 74
     1
 91
        4
 64
     7
 65
   257
 75
     1
175
     1
 42
1.0
 92
        8
 66
     7
 43
1.0
 76
     1
 77
     6
 78
     2
 67
     7
 79
     5
170
     0
171
     0
290
     0
174
     0
 93
        1
 44
0.0
173
     0
291
     1
 45
0.0
1001
ACAD
1000
AcDbSavedByObjectVersion
1070
     0
  0
VISUALSTYLE
  5
57B
102
{ACAD_XDICTIONARY
360
5D4
102
}
102
{ACAD_REACTORS
330
57A
102
}
330
57A
100
AcDbVisualStyle
  2
Flat
 70
     0
 71
     2
 72
     1
 73
     1
 90
        2
 40
-0.6
 41
30.0
 62
     5
 63
     7
 74
     0
 91
        0
 64
     7
 65
   257
 75
     1
175
     1
 42
1.0
 92
        8
 66
     7
 43
1.0
 76
     1
 77
     6
 78
     2
 67
     7
 79
     5
170
     0
171
     0
290
     0
174
     0
 93
       13
 44
0.0
173
     0
291
     1
 45
0.0
1001
ACAD
1000
AcDbSavedByObjectVersion
1070
     0
  0
VISUALSTYLE
  5
57C
102
{ACAD_XDICTIONARY
360
5D6
102
}
102
{ACAD_REACTORS
330
57A
102
}
330
57A
100
AcDbVisualStyle
  2
FlatWithEdges
 70
     1
 71
     2
 72
     1
 73
     1
 90
        2
 40
-0.6
 41
30.0
 62
     5
 63
     7
 74
     1
 91
        0
 64
     7
 65
   257
 75
     1
175
     1
 42
1.0
 92
        0
 66
   257
 43
1.0
 76
     1
 77
     6
 78
     2
 67
     7
 79
     5
170
     0
171
     0
290
     0
174
     0
 93
       13
 44
0.0
173
     0
291
     1
 45
0.0
1001
ACAD
1000
AcDbSavedByObjectVersion
1070
     0
  0
VISUALSTYLE
  5
57D
102
{ACAD_XDICTIONARY
360
5D8
102
}
102
{ACAD_REACTORS
330
57A
102
}
330
57A
100
AcDbVisualStyle
  2
Gouraud
 70
     2
 71
     2
 72
     2
 73
     1
 90
        2
 40
-0.6
 41
30.0
 62
     5
 63
     7
 74
     0
 91
        0
 64
     7
 65
   257
 75
     1
175
     1
 42
1.0
 92
        0
 66
     7
 43
1.0
 76
     1
 77
     6
 78
     2
 67
     7
 79
     5
170
     0
171
     0
290
     0
174
     0
 93
       13
 44
0.0
173
     0
291
     1
 45
0.0
1001
ACAD
1000
AcDbSavedByObjectVersion
1070
     0
  0
VISUALSTYLE
  5
57E
102
{ACAD_XDICTIONARY
360
5DA
102
}
102
{ACAD_REACTORS
330
57A
102
}
330
57A
100
AcDbVisualStyle
  2
GouraudWithEdges
 70
     3
 71
     2
 72
     2
 73
     1
 90
        2
 40
-0.6
 41
30.0
 62
     5
 63
     7
 74
     1
 91
        0
 64
     7
 65
   257
 75
     1
175
     1
 42
1.0
 92
        0
 66
   257
 43
1.0
 76
     1
 77
     6
 78
     2
 67
     7
 79
     5
170
     0
171
     0
290
     0
174
     0
 93
       13
 44
0.0
173
     0
291
     1
 45
0.0
1001
ACAD
1000
AcDbSavedByObjectVersion
1070
     0
  0
VISUALSTYLE
  5
582
102
{ACAD_XDICTIONARY
360
5E2
102
}
102
{ACAD_REACTORS
330
57A
102
}
330
57A
100
AcDbVisualStyle
  2
Hidden
 70
     6
 71
     1
 72
     2
 73
     2
 90
        0
 40
-0.6
 41
-30.0
 62
     5
 63
     7
 74
     2
 91
        2
 64
     7
 65
   257
 75
     2
175
     1
 42
40.0
 92
        0
 66
   257
 43
1.0
 76
     1
 77
     6
 78
     2
 67
     7
 79
     3
170
     0
171
     0
290
     0
174
     0
 93
        1
 44
0.0
173
     0
291
     0
 45
0.0
1001
ACAD
1000
AcDbSavedByObjectVersion
1070
     0
  0
VISUALSTYLE
  5
590
102
{ACAD_XDICTIONARY
360
5FE
102
}
102
{ACAD_REACTORS
330
57A
102
}
330
57A
100
AcDbVisualStyle
  2
JitterOff
 70
    20
 71
     2
 72
     2
 73
     0
 90
        0
 40
-0.6
 41
-30.0
 62
     5
 63
     7
 74
     1
 91
        4
 64
     7
 65
   257
 75
     1
175
     1
 42
1.0
 92
       10
 66
     7
 43
1.0
 76
     1
 77
     6
 78
     2
 67
     7
 79
     5
170
     0
171
     0
290
     0
174
     0
 93
        1
 44
0.0
173
     0
291
     1
 45
0.0
1001
ACAD
1000
AcDbSavedByObjectVersion
1070
     0
  0
VISUALSTYLE
  5
588
102
{ACAD_XDICTIONARY
360
5EE
102
}
102
{ACAD_REACTORS
330
57A
102
}
330
57A
100
AcDbVisualStyle
  2
Linepattern
 70
    14
 71
     2
 72
     2
 73
     0
 90
        0
 40
-0.6
 41
-30.0
 62
     5
 63
     7
 74
     1
 91
        4
 64
     7
 65
   257
 75
     7
175
     7
 42
1.0
 92
        8
 66
     7
 43
1.0
 76
     1
 77
     6
 78
     2
 67
     7
 79
     5
170
     0
171
     0
290
     0
174
     0
 93
        1
 44
0.0
173
     0
291
     1
 45
0.0
1001
ACAD
1000
AcDbSavedByObjectVersion
1070
     0
  0
VISUALSTYLE
  5
591
102
{ACAD_XDICTIONARY
360
600
102
}
102
{ACAD_REACTORS
330
57A
102
}
330
57A
100
AcDbVisualStyle
  2
OverhangOff
 70
    21
 71
     2
 72
     2
 73
     0
 90
        0
 40
-0.6
 41
-30.0
 62
     5
 63
     7
 74
     1
 91
        4
 64
     7
 65
   257
 75
     1
175
     1
 42
1.0
 92
        9
 66
     7
 43
1.0
 76
     1
 77
     6
 78
     2
 67
     7
 79
     5
170
     0
171
     0
290
     0
174
     0
 93
        1
 44
0.0
173
     0
291
     1
 45
0.0
1001
ACAD
1000
AcDbSavedByObjectVersion
1070
     0
  0
VISUALSTYLE
  5
584
102
{ACAD_XDICTIONARY
360
5E6
102
}
102
{ACAD_REACTORS
330
57A
102
}
330
57A
100
AcDbVisualStyle
  2
Realistic
 70
     8
 71
     2
 72
     3
 73
     0
 90
        2
 40
-0.6
 41
30.0
 62
     5
 63
     7
 74
     0
 91
        0
 64
     7
 65
   257
 75
     1
175
     1
 42
1.0
 92
        8
 66
   257
 43
1.0
 76
     1
 77
     6
 78
     2
 67
     7
 79
     3
170
     0
171
     0
290
     0
174
     0
 93
       13
 44
0.0
173
     0
291
     0
 45
0.0
1001
ACAD
1000
AcDbSavedByObjectVersion
1070
     0
  0
VISUALSTYLE
  5
58F
102
{ACAD_XDICTIONARY
360
5FC
102
}
102
{ACAD_REACTORS
330
57A
102
}
330
57A
100
AcDbVisualStyle
  2
Shaded
 70
    27
 71
     2
 72
     2
 73
     1
 90
        2
 40
-0.6
 41
30.0
 62
     5
 63
     7
 74
     0
 91
        4
 64
     7
 65
   257
 75
     1
175
     1
 42
1.0
 92
        8
 66
   257
 43
1.0
 76
     1
 77
     6
 78
     2
 67
     8
 79
     3
170
     0
171
     0
290
     0
174
     0
 93
        5
 44
0.0
173
     0
291
     0
 45
0.0
1001
ACAD
1000
AcDbSavedByObjectVersion
1070
     0
  0
VISUALSTYLE
  5
58E
102
{ACAD_XDICTIONARY
360
5FA
102
}
102
{ACAD_REACTORS
330
57A
102
}
330
57A
100
AcDbVisualStyle
  2
Shaded with edges
 70
    26
 71
     2
 72
     2
 73
     1
 90
        2
 40
-0.6
 41
30.0
 62
     5
 63
     7
 74
     1
 91
       10
 64
     7
 65
   257
 75
     2
175
     1
 42
1.0
 92
        8
 66
   257
 43
1.0
 76
     1
 77
     6
 78
     2
 67
     7
 79
     3
170
     0
171
     0
290
     0
174
     0
 93
        5
 44
0.0
173
     0
291
     0
 45
0.0
1001
ACAD
1000
AcDbSavedByObjectVersion
1070
     0
  0
VISUALSTYLE
  5
58B
102
{ACAD_XDICTIONARY
360
5F4
102
}
102
{ACAD_REACTORS
330
57A
102
}
330
57A
100
AcDbVisualStyle
  2
Shades of Gray
 70
    23
 71
     2
 72
     2
 73
     3
 90
        0
 40
-0.6
 41
-30.0
 62
     5
 63
     7
 74
     2
 91
        2
 64
     7
 65
     7
 75
     1
175
     1
 42
40.0
 92
        8
 66
     7
 43
1.0
 76
     1
 77
     6
 78
     2
 67
     7
 79
     3
170
     0
171
     0
290
     0
174
     0
 93
        1
 44
0.0
173
     0
291
     0
 45
0.0
1001
ACAD
1000
AcDbSavedByObjectVersion
1070
     0
  0
VISUALSTYLE
  5
58C
102
{ACAD_XDICTIONARY
360
5F6
102
}
102
{ACAD_REACTORS
330
57A
102
}
330
57A
100
AcDbVisualStyle
  2
Sketchy
 70
    24
 71
     1
 72
     2
 73
     2
 90
        0
 40
-0.6
 41
-30.0
 62
     5
 63
     7
 74
     2
 91
        2
 64
     7
 65
     7
 75
     1
175
     1
 42
40.0
 92
       11
 66
     7
 43
1.0
 76
     1
 77
     6
 78
     2
 67
     7
 79
     6
170
     0
171
     0
290
     0
174
     0
 93
        1
 44
0.0
173
     0
291
     0
 45
0.0
1001
ACAD
1000
AcDbSavedByObjectVersion
1070
     0
  0
VISUALSTYLE
  5
587
102
{ACAD_XDICTIONARY
360
5EC
102
}
102
{ACAD_REACTORS
330
57A
102
}
330
57A
100
AcDbVisualStyle
  2
Thicken
 70
    13
 71
     2
 72
     2
 73
     0
 90
        0
 40
-0.6
 41
-30.0
 62
     5
 63
     7
 74
     1
 91
        4
 64
     7
 65
   257
 75
     1
175
     1
 42
1.0
 92
       12
 66
     7
 43
1.0
 76
     1
 77
     6
 78
     2
 67
     7
 79
     5
170
     0
171
     0
290
     0
174
     0
 93
        1
 44
0.0
173
     0
291
     1
 45
0.0
1001
ACAD
1000
AcDbSavedByObjectVersion
1070
     0
  0
VISUALSTYLE
  5
581
102
{ACAD_XDICTIONARY
360
5E0
102
}
102
{ACAD_REACTORS
330
57A
102
}
330
57A
100
AcDbVisualStyle
  2
Wireframe
 70
     5
 71
     0
 72
     2
 73
     0
 90
        0
 40
-0.6
 41
-30.0
 62
     5
 63
     7
 74
     1
 91
        4
 64
     7
 65
   257
 75
     1
175
     1
 42
1.0
 92
        0
 66
   257
 43
1.0
 76
     1
 77
     6
 78
     2
 67
     7
 79
     3
170
     0
171
     0
290
     0
174
     0
 93
        1
 44
0.0
173
     0
291
     0
 45
0.0
1001
ACAD
1000
AcDbSavedByObjectVersion
1070
     0
  0
VISUALSTYLE
  5
58D
102
{ACAD_XDICTIONARY
360
5F8
102
}
102
{ACAD_REACTORS
330
57A
102
}
330
57A
100
AcDbVisualStyle
  2
X-Ray
 70
    25
 71
     2
 72
     2
 73
     1
 90
        1
 40
0.5
 41
-30.0
 62
     5
 63
     7
 74
     1
 91
        0
 64
     7
 65
   257
 75
     1
175
     1
 42
1.0
 92
        8
 66
     7
 43
1.0
 76
     1
 77
     6
 78
     2
 67
     7
 79
     3
170
     0
171
     0
290
     0
174
     0
 93
       13
 44
0.0
173
     0
291
     0
 45
0.0
1001
ACAD
1000
AcDbSavedByObjectVersion
1070
     0
  0
DICTIONARYVAR
  5
5C7
102
{ACAD_REACTORS
330
5C2
102
}
330
5C2
100
DictionaryVariables
280
     0
  1
1:1
  0
DICTIONARYVAR
  5
5C4
102
{ACAD_REACTORS
330
5C2
102
}
330
5C2
100
DictionaryVariables
280
     0
  1
STANDARD
  0
DICTIONARYVAR
  5
5C3
102
{ACAD_REACTORS
330
5C2
102
}
330
5C2
100
DictionaryVariables
280
     0
  1
STANDARD
  0
DICTIONARYVAR
  5
5C5
102
{ACAD_REACTORS
330
5C2
102
}
330
5C2
100
DictionaryVariables
280
     0
  1
Imperial24
  0
DICTIONARYVAR
  5
5C6
102
{ACAD_REACTORS
330
5C2
102
}
330
5C2
100
DictionaryVariables
280
     0
  1
Imperial24
  0
DICTIONARYVAR
  5
5CA
102
{ACAD_REACTORS
330
5C2
102
}
330
5C2
100
DictionaryVariables
280
     0
  1
1
  0
DICTIONARYVAR
  5
5C9
102
{ACAD_REACTORS
330
5C2
102
}
330
5C2
100
DictionaryVariables
280
     0
  1
0
  0
DICTIONARYVAR
  5
5C8
102
{ACAD_REACTORS
330
5C2
102
}
330
5C2
100
DictionaryVariables
280
     0
  1
127
  0
DICTIONARYVAR
  5
5CB
102
{ACAD_REACTORS
330
5C2
102
}
330
5C2
100
DictionaryVariables
280
     0
  1
2
  0
DICTIONARY
  5
608
330
5AD
100
AcDbDictionary
280
     1
281
     1
  3
ACAD_XREC_ROUNDTRIP
360
609
  0
DICTIONARY
  5
60A
330
5AE
100
AcDbDictionary
280
     1
281
     1
  3
ACAD_XREC_ROUNDTRIP
360
60B
  0
DICTIONARY
  5
60C
330
5AF
100
AcDbDictionary
280
     1
281
     1
  3
ACAD_XREC_ROUNDTRIP
360
60D
  0
DICTIONARY
  5
56B
330
56A
100
AcDbDictionary
280
     1
281
     1
  3
ACAD_XREC_ROUNDTRIP
360
5D2
  3
BUMPTILE
360
56D
  3
DIFFUSETILE
360
56C
  3
OPACITYTILE
360
570
  3
REFLECTIONTILE
360
56F
  3
REFRACTIONTILE
360
571
  3
SPECULARTILE
360
56E
  0
DICTIONARY
  5
563
330
562
100
AcDbDictionary
280
     1
281
     1
  3
ACAD_XREC_ROUNDTRIP
360
5D1
  3
BUMPTILE
360
565
  3
DIFFUSETILE
360
564
  3
OPACITYTILE
360
568
  3
REFLECTIONTILE
360
567
  3
REFRACTIONTILE
360
569
  3
SPECULARTILE
360
566
  0
DICTIONARY
  5
573
330
572
100
AcDbDictionary
280
     1
281
     1
  3
ACAD_XREC_ROUNDTRIP
360
5D3
  3
BUMPTILE
360
575
  3
DIFFUSETILE
360
574
  3
OPACITYTILE
360
578
  3
REFLECTIONTILE
360
577
  3
REFRACTIONTILE
360
579
  3
SPECULARTILE
360
576
  0
DICTIONARY
  5
606
330
5AB
100
AcDbDictionary
280
     1
281
     1
  3
ACAD_XREC_ROUNDTRIP
360
607
  0
DICTIONARY
  5
5CD
330
595
100
AcDbDictionary
280
     1
281
     1
  3
ACAD_ROUNDTRIP_2008_TABLESTYLE_CELLSTYLEMAP
360
5CE
  3
ACAD_XREC_ROUNDTRIP
360
604
  0
DICTIONARY
  5
5DE
330
580
100
AcDbDictionary
280
     1
281
     1
  3
ACAD_XREC_ROUNDTRIP
360
5DF
  0
DICTIONARY
  5
5DC
330
57F
100
AcDbDictionary
280
     1
281
     1
  3
ACAD_XREC_ROUNDTRIP
360
5DD
  0
DICTIONARY
  5
5EA
330
586
100
AcDbDictionary
280
     1
281
     1
  3
ACAD_XREC_ROUNDTRIP
360
5EB
  0
DICTIONARY
  5
5F2
330
58A
100
AcDbDictionary
280
     1
281
     1
  3
ACAD_XREC_ROUNDTRIP
360
5F3
  0
DICTIONARY
  5
5E4
330
583
100
AcDbDictionary
280
     1
281
     1
  3
ACAD_XREC_ROUNDTRIP
360
5E5
  0
DICTIONARY
  5
5E8
330
585
100
AcDbDictionary
280
     1
281
     1
  3
ACAD_XREC_ROUNDTRIP
360
5E9
  0
DICTIONARY
  5
602
330
592
100
AcDbDictionary
280
     1
281
     1
  3
ACAD_XREC_ROUNDTRIP
360
603
  0
DICTIONARY
  5
5F0
330
589
100
AcDbDictionary
280
     1
281
     1
  3
ACAD_XREC_ROUNDTRIP
360
5F1
  0
DICTIONARY
  5
5D4
330
57B
100
AcDbDictionary
280
     1
281
     1
  3
ACAD_XREC_ROUNDTRIP
360
5D5
  0
DICTIONARY
  5
5D6
330
57C
100
AcDbDictionary
280
     1
281
     1
  3
ACAD_XREC_ROUNDTRIP
360
5D7
  0
DICTIONARY
  5
5D8
330
57D
100
AcDbDictionary
280
     1
281
     1
  3
ACAD_XREC_ROUNDTRIP
360
5D9
  0
DICTIONARY
  5
5DA
330
57E
100
AcDbDictionary
280
     1
281
     1
  3
ACAD_XREC_ROUNDTRIP
360
5DB
  0
DICTIONARY
  5
5E2
330
582
100
AcDbDictionary
280
     1
281
     1
  3
ACAD_XREC_ROUNDTRIP
360
5E3
  0
DICTIONARY
  5
5FE
330
590
100
AcDbDictionary
280
     1
281
     1
  3
ACAD_XREC_ROUNDTRIP
360
5FF
  0
DICTIONARY
  5
5EE
330
588
100
AcDbDictionary
280
     1
281
     1
  3
ACAD_XREC_ROUNDTRIP
360
5EF
  0
DICTIONARY
  5
600
330
591
100
AcDbDictionary
280
     1
281
     1
  3
ACAD_XREC_ROUNDTRIP
360
601
  0
DICTIONARY
  5
5E6
330
584
100
AcDbDictionary
280
     1
281
     1
  3
ACAD_XREC_ROUNDTRIP
360
5E7
  0
DICTIONARY
  5
5FC
330
58F
100
AcDbDictionary
280
     1
281
     1
  3
ACAD_XREC_ROUNDTRIP
360
5FD
  0
DICTIONARY
  5
5FA
330
58E
100
AcDbDictionary
280
     1
281
     1
  3
ACAD_XREC_ROUNDTRIP
360
5FB
  0
DICTIONARY
  5
5F4
330
58B
100
AcDbDictionary
280
     1
281
     1
  3
ACAD_XREC_ROUNDTRIP
360
5F5
  0
DICTIONARY
  5
5F6
330
58C
100
AcDbDictionary
280
     1
281
     1
  3
ACAD_XREC_ROUNDTRIP
360
5F7
  0
DICTIONARY
  5
5EC
330
587
100
AcDbDictionary
280
     1
281
     1
  3
ACAD_XREC_ROUNDTRIP
360
5ED
  0
DICTIONARY
  5
5E0
330
581
100
AcDbDictionary
280
     1
281
     1
  3
ACAD_XREC_ROUNDTRIP
360
5E1
  0
DICTIONARY
  5
5F8
330
58D
100
AcDbDictionary
280
     1
281
     1
  3
ACAD_XREC_ROUNDTRIP
360
5F9
  0
XRECORD
  5
609
102
{ACAD_REACTORS
330
608
102
}
330
608
100
AcDbXrecord
280
     1
102
DISPLAYNAME
  1
Imperial24
102
FLAGS
 90
        0
  0
XRECORD
  5
60B
102
{ACAD_REACTORS
330
60A
102
}
330
60A
100
AcDbXrecord
280
     1
102
SHADEPLOT
 70
     0
102
SHADEPLOTRESLEVEL
 70
     2
102
SHADEPLOTCUSTOMDPI
 70
   300
  0
XRECORD
  5
60D
102
{ACAD_REACTORS
330
60C
102
}
330
60C
100
AcDbXrecord
280
     1
102
SHADEPLOT
 70
     0
102
SHADEPLOTRESLEVEL
 70
     2
102
SHADEPLOTCUSTOMDPI
 70
   300
  0
XRECORD
  5
5D2
102
{ACAD_REACTORS
330
56B
102
}
330
56B
100
AcDbXrecord
280
     1
102
MATERIAL
148
0.0
149
0.0
149
0.0
 93
        0
 94
      127
282
     0
 72
     0
 77
     0
171
     0
175
     0
179
     0
273
     0
  0
XRECORD
  5
56D
102
{ACAD_REACTORS
330
56B
102
}
330
56B
100
AcDbXrecord
280
     1
270
     1
271
     1
  0
XRECORD
  5
56C
102
{ACAD_REACTORS
330
56B
102
}
330
56B
100
AcDbXrecord
280
     1
270
     1
271
     1
  0
XRECORD
  5
570
102
{ACAD_REACTORS
330
56B
102
}
330
56B
100
AcDbXrecord
280
     1
270
     1
271
     1
  0
XRECORD
  5
56F
102
{ACAD_REACTORS
330
56B
102
}
330
56B
100
AcDbXrecord
280
     1
270
     1
271
     1
  0
XRECORD
  5
571
102
{ACAD_REACTORS
330
56B
102
}
330
56B
100
AcDbXrecord
280
     1
270
     1
271
     1
  0
XRECORD
  5
56E
102
{ACAD_REACTORS
330
56B
102
}
330
56B
100
AcDbXrecord
280
     1
270
     1
271
     1
  0
XRECORD
  5
5D1
102
{ACAD_REACTORS
330
563
102
}
330
563
100
AcDbXrecord
280
     1
102
MATERIAL
148
0.0
149
0.0
149
0.0
 93
        0
 94
      127
282
     0
 72
     0
 77
     0
171
     0
175
     0
179
     0
273
     0
  0
XRECORD
  5
565
102
{ACAD_REACTORS
330
563
102
}
330
563
100
AcDbXrecord
280
     1
270
     1
271
     1
  0
XRECORD
  5
564
102
{ACAD_REACTORS
330
563
102
}
330
563
100
AcDbXrecord
280
     1
270
     1
271
     1
  0
XRECORD
  5
568
102
{ACAD_REACTORS
330
563
102
}
330
563
100
AcDbXrecord
280
     1
270
     1
271
     1
  0
XRECORD
  5
567
102
{ACAD_REACTORS
330
563
102
}
330
563
100
AcDbXrecord
280
     1
270
     1
271
     1
  0
XRECORD
  5
569
102
{ACAD_REACTORS
330
563
102
}
330
563
100
AcDbXrecord
280
     1
270
     1
271
     1
  0
XRECORD
  5
566
102
{ACAD_REACTORS
330
563
102
}
330
563
100
AcDbXrecord
280
     1
270
     1
271
     1
  0
XRECORD
  5
5D3
102
{ACAD_REACTORS
330
573
102
}
330
573
100
AcDbXrecord
280
     1
102
MATERIAL
148
0.0
149
0.0
149
0.0
 93
        0
 94
      127
282
     0
 72
     0
 77
     0
171
     0
175
     0
179
     0
273
     0
  0
XRECORD
  5
575
102
{ACAD_REACTORS
330
573
102
}
330
573
100
AcDbXrecord
280
     1
270
     1
271
     1
  0
XRECORD
  5
574
102
{ACAD_REACTORS
330
573
102
}
330
573
100
AcDbXrecord
280
     1
270
     1
271
     1
  0
XRECORD
  5
578
102
{ACAD_REACTORS
330
573
102
}
330
573
100
AcDbXrecord
280
     1
270
     1
271
     1
  0
XRECORD
  5
577
102
{ACAD_REACTORS
330
573
102
}
330
573
100
AcDbXrecord
280
     1
270
     1
271
     1
  0
XRECORD
  5
579
102
{ACAD_REACTORS
330
573
102
}
330
573
100
AcDbXrecord
280
     1
270
     1
271
     1
  0
XRECORD
  5
576
102
{ACAD_REACTORS
330
573
102
}
330
573
100
AcDbXrecord
280
     1
270
     1
271
     1
  0
XRECORD
  5
607
102
{ACAD_REACTORS
330
606
102
}
330
606
100
AcDbXrecord
280
     1
102
DISPLAYNAME
  1
Imperial24
102
FLAGS
 90
        0
  0
CELLSTYLEMAP
  5
5CE
102
{ACAD_REACTORS
330
5CD
102
}
330
5CD
100
AcDbCellStyleMap
 90
        3
300
CELLSTYLE
  1
TABLEFORMAT_BEGIN
 90
        5
170
     1
 91
        0
 92
    32768
 62
   257
 93
        1
300
CONTENTFORMAT
  1
CONTENTFORMAT_BEGIN
 90
        0
 91
        0
 92
      512
 93
        0
300

 40
0.0
140
1.0
 94
        5
 62
     0
340
1E6
144
0.25
309
CONTENTFORMAT_END
171
     0
 94
        0
309
TABLEFORMAT_END
  1
CELLSTYLE_BEGIN
 90
        1
 91
        1
300
_TITLE
309
CELLSTYLE_END
300
CELLSTYLE
  1
TABLEFORMAT_BEGIN
 90
        5
170
     1
 91
        0
 92
        0
 62
   257
 93
        1
300
CONTENTFORMAT
  1
CONTENTFORMAT_BEGIN
 90
        0
 91
        0
 92
      512
 93
        0
300

 40
0.0
140
1.0
 94
        5
 62
     0
340
1E6
144
0.18
309
CONTENTFORMAT_END
171
     0
 94
        0
309
TABLEFORMAT_END
  1
CELLSTYLE_BEGIN
 90
        2
 91
        1
300
_HEADER
309
CELLSTYLE_END
300
CELLSTYLE
  1
TABLEFORMAT_BEGIN
 90
        5
170
     1
 91
        0
 92
        0
 62
   257
 93
        1
300
CONTENTFORMAT
  1
CONTENTFORMAT_BEGIN
 90
        0
 91
        0
 92
      512
 93
        0
300

 40
0.0
140
1.0
 94
        2
 62
     0
340
1E6
144
0.18
309
CONTENTFORMAT_END
171
     0
 94
        0
309
TABLEFORMAT_END
  1
CELLSTYLE_BEGIN
 90
        3
 91
        2
300
_DATA
309
CELLSTYLE_END
  0
XRECORD
  5
604
102
{ACAD_REACTORS
330
5CD
102
}
330
5CD
100
AcDbXrecord
280
     1
102
ACAD_ROUNDTRIP_PRE2007_TABLESTYLE
 90
      512
 91
        0
  1

 92
      512
 93
        0
  2

 94
      512
 95
        0
  3

  0
XRECORD
  5
5DF
102
{ACAD_REACTORS
330
5DE
102
}
330
5DE
100
AcDbXrecord
280
     1
102
RTVSPost2010Prop28
280
     1
102
RTVSPost2010PropOp28
 70
     1
102
RTVSPost2010Prop29
280
     1
102
RTVSPost2010PropOp29
 70
     1
102
RTVSPost2010Prop30
280
     0
102
RTVSPost2010PropOp30
 70
     1
102
RTVSPost2010Prop31
280
     0
102
RTVSPost2010PropOp31
 70
     1
102
RTVSPost2010Prop32
280
     0
102
RTVSPost2010PropOp32
 70
     1
102
RTVSPost2010Prop33
280
     0
102
RTVSPost2010PropOp33
 70
     1
102
RTVSPost2010Prop34
280
     0
102
RTVSPost2010PropOp34
 70
     1
102
RTVSPost2010Prop35
280
     0
102
RTVSPost2010PropOp35
 70
     1
102
RTVSPost2010Prop36
280
     0
102
RTVSPost2010PropOp36
 70
     1
102
RTVSPost2010Prop37
 90
       50
102
RTVSPost2010PropOp37
 70
     1
102
RTVSPost2010Prop38
140
0.0
102
RTVSPost2010PropOp38
 70
     1
102
RTVSPost2010Prop39
140
1.0
102
RTVSPost2010PropOp39
 70
     1
102
RTVSPost2010Prop40
 90
        0
102
RTVSPost2010PropOp40
 70
     1
102
RTVSPost2010Prop41ColorIndex
 90
       18
102
RTVSPost2010Prop41ColorRGB
 90
        0
102
RTVSPost2010PropOp41
 70
     1
102
RTVSPost2010Prop42
 90
       50
102
RTVSPost2010PropOp42
 70
     1
102
RTVSPost2010Prop43
 90
        3
102
RTVSPost2010PropOp43
 70
     1
102
RTVSPost2010Prop44ColorIndex
 90
        5
102
RTVSPost2010Prop44ColorRGB
 90
      255
102
RTVSPost2010PropOp44
 70
     1
102
RTVSPost2010Prop45
280
     0
102
RTVSPost2010PropOp45
 70
     1
102
RTVSPost2010Prop46
 90
       50
102
RTVSPost2010PropOp46
 70
     1
102
RTVSPost2010Prop47
 90
       50
102
RTVSPost2010PropOp47
 70
     1
102
RTVSPost2010Prop48
 90
       50
102
RTVSPost2010PropOp48
 70
     1
102
RTVSPost2010Prop49
280
     0
102
RTVSPost2010PropOp49
 70
     1
102
RTVSPost2010Prop50
 90
       50
102
RTVSPost2010PropOp50
 70
     1
102
RTVSPost2010Prop51ColorIndex
 90
      256
102
RTVSPost2010Prop51ColorRGB
 90
-16777216
102
RTVSPost2010PropOp51
 70
     0
102
RTVSPost2010Prop52
140
1.0
102
RTVSPost2010PropOp52
 70
     0
102
RTVSPost2010Prop53
 90
        2
102
RTVSPost2010PropOp53
 70
     1
102
RTVSPost2010Prop54
  1
strokes_ogs.tif
102
RTVSPost2010PropOp54
 70
     1
102
RTVSPost2010Prop55
280
     0
102
RTVSPost2010PropOp55
 70
     1
102
RTVSPost2010Prop56
140
1.0
102
RTVSPost2010PropOp56
 70
     1
102
RTVSPost2010Prop57
140
1.0
102
RTVSPost2010PropOp57
 70
     1
102
RTVSPropertyOp0
 70
     1
102
RTVSPropertyOp1
 70
     1
102
RTVSPropertyOp2
 70
     1
102
RTVSPropertyOp3
 70
     1
102
RTVSPropertyOp4
 70
     1
102
RTVSPropertyOp5
 70
     1
102
RTVSPropertyOp6
 70
     1
102
RTVSPropertyOp7
 70
     1
102
RTVSPropertyOp8
 70
     1
102
RTVSPropertyOp9
 70
     1
102
RTVSPropertyOp10
 70
     1
102
RTVSPropertyOp11
 70
     1
102
RTVSPropertyOp12
 70
     1
102
RTVSPropertyOp13
 70
     1
102
RTVSPropertyOp14
 70
     1
102
RTVSPropertyOp15
 70
     1
102
RTVSPropertyOp16
 70
     1
102
RTVSPropertyOp17
 70
     1
102
RTVSPropertyOp18
 70
     1
102
RTVSPropertyOp19
 70
     1
102
RTVSPropertyOp20
 70
     1
102
RTVSPropertyOp21
 70
     1
102
RTVSPropertyOp22
 70
     1
102
RTVSPropertyOp23
 70
     1
102
RTVSPropertyOp24
 70
     1
102
RTVSPropertyOp25
 70
     1
102
RTVSPropertyOp26
 70
     1
102
RTVSPropertyOp27
 70
     1
102
RTVSPropertyOp28
 70
     1
102
RTVSPropertyOp29
 70
     1
102
RTVSPropertyOp30
 70
     1
102
RTVSPropertyOp31
 70
     1
102
RTVSPropertyOp32
 70
     1
102
RTVSPropertyOp33
 70
     1
102
RTVSPropertyOp34
 70
     1
102
RTVSPropertyOp35
 70
     1
102
RTVSPropertyOp36
 70
     1
102
RTVSPropertyOp37
 70
     1
102
RTVSPropertyOp38
 70
     1
102
RTVSPropertyOp39
 70
     1
102
RTVSPropertyOp40
 70
     1
102
RTVSPropertyOp41
 70
     1
102
RTVSPropertyOp42
 70
     1
102
RTVSPropertyOp43
 70
     1
102
RTVSPropertyOp44
 70
     1
102
RTVSPropertyOp45
 70
     1
102
RTVSPropertyOp46
 70
     1
102
RTVSPropertyOp47
 70
     1
102
RTVSPropertyOp48
 70
     1
102
RTVSPropertyOp49
 70
     1
102
RTVSPropertyOp50
 70
     1
102
RTVSPropertyOp51
 70
     0
102
RTVSPropertyOp52
 70
     0
102
RTVSPropertyOp53
 70
     1
102
RTVSPropertyOp54
 70
     1
102
RTVSPropertyOp55
 70
     1
102
RTVSPropertyOp56
 70
     1
102
RTVSPropertyOp57
 70
     1
102
RTVSPropertyOp58
 70
     1
102
RTVSPropertyOp59
 70
     1
102
RTVSPropertyOp60
 70
     1
102
RTVSPropertyOp61
 70
     1
102
RTVSPropertyOp62
 70
     1
  0
XRECORD
  5
5DD
102
{ACAD_REACTORS
330
5DC
102
}
330
5DC
100
AcDbXrecord
280
     1
102
RTVSPost2010Prop28
280
     0
102
RTVSPost2010PropOp28
 70
     1
102
RTVSPost2010Prop29
280
     1
102
RTVSPost2010PropOp29
 70
     1
102
RTVSPost2010Prop30
280
     1
102
RTVSPost2010PropOp30
 70
     1
102
RTVSPost2010Prop31
280
     0
102
RTVSPost2010PropOp31
 70
     1
102
RTVSPost2010Prop32
280
     0
102
RTVSPost2010PropOp32
 70
     1
102
RTVSPost2010Prop33
280
     0
102
RTVSPost2010PropOp33
 70
     1
102
RTVSPost2010Prop34
280
     0
102
RTVSPost2010PropOp34
 70
     1
102
RTVSPost2010Prop35
280
     0
102
RTVSPost2010PropOp35
 70
     1
102
RTVSPost2010Prop36
280
     0
102
RTVSPost2010PropOp36
 70
     1
102
RTVSPost2010Prop37
 90
       50
102
RTVSPost2010PropOp37
 70
     1
102
RTVSPost2010Prop38
140
0.0
102
RTVSPost2010PropOp38
 70
     1
102
RTVSPost2010Prop39
140
1.0
102
RTVSPost2010PropOp39
 70
     1
102
RTVSPost2010Prop40
 90
        0
102
RTVSPost2010PropOp40
 70
     1
102
RTVSPost2010Prop41ColorIndex
 90
       18
102
RTVSPost2010Prop41ColorRGB
 90
        0
102
RTVSPost2010PropOp41
 70
     1
102
RTVSPost2010Prop42
 90
       50
102
RTVSPost2010PropOp42
 70
     1
102
RTVSPost2010Prop43
 90
        3
102
RTVSPost2010PropOp43
 70
     1
102
RTVSPost2010Prop44ColorIndex
 90
        5
102
RTVSPost2010Prop44ColorRGB
 90
      255
102
RTVSPost2010PropOp44
 70
     1
102
RTVSPost2010Prop45
280
     0
102
RTVSPost2010PropOp45
 70
     1
102
RTVSPost2010Prop46
 90
       50
102
RTVSPost2010PropOp46
 70
     1
102
RTVSPost2010Prop47
 90
       50
102
RTVSPost2010PropOp47
 70
     1
102
RTVSPost2010Prop48
 90
       50
102
RTVSPost2010PropOp48
 70
     1
102
RTVSPost2010Prop49
280
     0
102
RTVSPost2010PropOp49
 70
     1
102
RTVSPost2010Prop50
 90
       50
102
RTVSPost2010PropOp50
 70
     1
102
RTVSPost2010Prop51ColorIndex
 90
      256
102
RTVSPost2010Prop51ColorRGB
 90
-16777216
102
RTVSPost2010PropOp51
 70
     0
102
RTVSPost2010Prop52
140
1.0
102
RTVSPost2010PropOp52
 70
     0
102
RTVSPost2010Prop53
 90
        2
102
RTVSPost2010PropOp53
 70
     1
102
RTVSPost2010Prop54
  1
strokes_ogs.tif
102
RTVSPost2010PropOp54
 70
     1
102
RTVSPost2010Prop55
280
     0
102
RTVSPost2010PropOp55
 70
     1
102
RTVSPost2010Prop56
140
1.0
102
RTVSPost2010PropOp56
 70
     1
102
RTVSPost2010Prop57
140
1.0
102
RTVSPost2010PropOp57
 70
     1
102
RTVSPropertyOp0
 70
     1
102
RTVSPropertyOp1
 70
     1
102
RTVSPropertyOp2
 70
     1
102
RTVSPropertyOp3
 70
     1
102
RTVSPropertyOp4
 70
     1
102
RTVSPropertyOp5
 70
     1
102
RTVSPropertyOp6
 70
     1
102
RTVSPropertyOp7
 70
     1
102
RTVSPropertyOp8
 70
     1
102
RTVSPropertyOp9
 70
     1
102
RTVSPropertyOp10
 70
     1
102
RTVSPropertyOp11
 70
     1
102
RTVSPropertyOp12
 70
     1
102
RTVSPropertyOp13
 70
     1
102
RTVSPropertyOp14
 70
     1
102
RTVSPropertyOp15
 70
     1
102
RTVSPropertyOp16
 70
     1
102
RTVSPropertyOp17
 70
     1
102
RTVSPropertyOp18
 70
     1
102
RTVSPropertyOp19
 70
     1
102
RTVSPropertyOp20
 70
     1
102
RTVSPropertyOp21
 70
     1
102
RTVSPropertyOp22
 70
     1
102
RTVSPropertyOp23
 70
     1
102
RTVSPropertyOp24
 70
     1
102
RTVSPropertyOp25
 70
     1
102
RTVSPropertyOp26
 70
     1
102
RTVSPropertyOp27
 70
     1
102
RTVSPropertyOp28
 70
     1
102
RTVSPropertyOp29
 70
     1
102
RTVSPropertyOp30
 70
     1
102
RTVSPropertyOp31
 70
     1
102
RTVSPropertyOp32
 70
     1
102
RTVSPropertyOp33
 70
     1
102
RTVSPropertyOp34
 70
     1
102
RTVSPropertyOp35
 70
     1
102
RTVSPropertyOp36
 70
     1
102
RTVSPropertyOp37
 70
     1
102
RTVSPropertyOp38
 70
     1
102
RTVSPropertyOp39
 70
     1
102
RTVSPropertyOp40
 70
     1
102
RTVSPropertyOp41
 70
     1
102
RTVSPropertyOp42
 70
     1
102
RTVSPropertyOp43
 70
     1
102
RTVSPropertyOp44
 70
     1
102
RTVSPropertyOp45
 70
     1
102
RTVSPropertyOp46
 70
     1
102
RTVSPropertyOp47
 70
     1
102
RTVSPropertyOp48
 70
     1
102
RTVSPropertyOp49
 70
     1
102
RTVSPropertyOp50
 70
     1
102
RTVSPropertyOp51
 70
     0
102
RTVSPropertyOp52
 70
     0
102
RTVSPropertyOp53
 70
     1
102
RTVSPropertyOp54
 70
     1
102
RTVSPropertyOp55
 70
     1
102
RTVSPropertyOp56
 70
     1
102
RTVSPropertyOp57
 70
     1
102
RTVSPropertyOp58
 70
     1
102
RTVSPropertyOp59
 70
     1
102
RTVSPropertyOp60
 70
     1
102
RTVSPropertyOp61
 70
     1
102
RTVSPropertyOp62
 70
     1
  0
XRECORD
  5
5EB
102
{ACAD_REACTORS
330
5EA
102
}
330
5EA
100
AcDbXrecord
280
     1
102
RTVSPost2010Prop28
280
     0
102
RTVSPost2010PropOp28
 70
     1
102
RTVSPost2010Prop29
280
     1
102
RTVSPost2010PropOp29
 70
     1
102
RTVSPost2010Prop30
280
     1
102
RTVSPost2010PropOp30
 70
     1
102
RTVSPost2010Prop31
280
     0
102
RTVSPost2010PropOp31
 70
     1
102
RTVSPost2010Prop32
280
     0
102
RTVSPost2010PropOp32
 70
     1
102
RTVSPost2010Prop33
280
     0
102
RTVSPost2010PropOp33
 70
     1
102
RTVSPost2010Prop34
280
     0
102
RTVSPost2010PropOp34
 70
     1
102
RTVSPost2010Prop35
280
     0
102
RTVSPost2010PropOp35
 70
     1
102
RTVSPost2010Prop36
280
     0
102
RTVSPost2010PropOp36
 70
     1
102
RTVSPost2010Prop37
 90
       50
102
RTVSPost2010PropOp37
 70
     1
102
RTVSPost2010Prop38
140
0.0
102
RTVSPost2010PropOp38
 70
     1
102
RTVSPost2010Prop39
140
1.0
102
RTVSPost2010PropOp39
 70
     1
102
RTVSPost2010Prop40
 90
        0
102
RTVSPost2010PropOp40
 70
     1
102
RTVSPost2010Prop41ColorIndex
 90
       18
102
RTVSPost2010Prop41ColorRGB
 90
        0
102
RTVSPost2010PropOp41
 70
     1
102
RTVSPost2010Prop42
 90
       50
102
RTVSPost2010PropOp42
 70
     1
102
RTVSPost2010Prop43
 90
        3
102
RTVSPost2010PropOp43
 70
     1
102
RTVSPost2010Prop44ColorIndex
 90
        5
102
RTVSPost2010Prop44ColorRGB
 90
      255
102
RTVSPost2010PropOp44
 70
     1
102
RTVSPost2010Prop45
280
     0
102
RTVSPost2010PropOp45
 70
     1
102
RTVSPost2010Prop46
 90
       50
102
RTVSPost2010PropOp46
 70
     1
102
RTVSPost2010Prop47
 90
       50
102
RTVSPost2010PropOp47
 70
     1
102
RTVSPost2010Prop48
 90
       50
102
RTVSPost2010PropOp48
 70
     1
102
RTVSPost2010Prop49
280
     0
102
RTVSPost2010PropOp49
 70
     1
102
RTVSPost2010Prop50
 90
       50
102
RTVSPost2010PropOp50
 70
     1
102
RTVSPost2010Prop51ColorIndex
 90
      256
102
RTVSPost2010Prop51ColorRGB
 90
-16777216
102
RTVSPost2010PropOp51
 70
     0
102
RTVSPost2010Prop52
140
1.0
102
RTVSPost2010PropOp52
 70
     0
102
RTVSPost2010Prop53
 90
        2
102
RTVSPost2010PropOp53
 70
     1
102
RTVSPost2010Prop54
  1
strokes_ogs.tif
102
RTVSPost2010PropOp54
 70
     1
102
RTVSPost2010Prop55
280
     0
102
RTVSPost2010PropOp55
 70
     1
102
RTVSPost2010Prop56
140
1.0
102
RTVSPost2010PropOp56
 70
     1
102
RTVSPost2010Prop57
140
1.0
102
RTVSPost2010PropOp57
 70
     1
102
RTVSPropertyOp0
 70
     1
102
RTVSPropertyOp1
 70
     1
102
RTVSPropertyOp2
 70
     1
102
RTVSPropertyOp3
 70
     1
102
RTVSPropertyOp4
 70
     1
102
RTVSPropertyOp5
 70
     1
102
RTVSPropertyOp6
 70
     1
102
RTVSPropertyOp7
 70
     1
102
RTVSPropertyOp8
 70
     1
102
RTVSPropertyOp9
 70
     1
102
RTVSPropertyOp10
 70
     1
102
RTVSPropertyOp11
 70
     1
102
RTVSPropertyOp12
 70
     1
102
RTVSPropertyOp13
 70
     1
102
RTVSPropertyOp14
 70
     1
102
RTVSPropertyOp15
 70
     1
102
RTVSPropertyOp16
 70
     1
102
RTVSPropertyOp17
 70
     1
102
RTVSPropertyOp18
 70
     1
102
RTVSPropertyOp19
 70
     1
102
RTVSPropertyOp20
 70
     1
102
RTVSPropertyOp21
 70
     1
102
RTVSPropertyOp22
 70
     1
102
RTVSPropertyOp23
 70
     1
102
RTVSPropertyOp24
 70
     1
102
RTVSPropertyOp25
 70
     1
102
RTVSPropertyOp26
 70
     1
102
RTVSPropertyOp27
 70
     1
102
RTVSPropertyOp28
 70
     1
102
RTVSPropertyOp29
 70
     1
102
RTVSPropertyOp30
 70
     1
102
RTVSPropertyOp31
 70
     1
102
RTVSPropertyOp32
 70
     1
102
RTVSPropertyOp33
 70
     1
102
RTVSPropertyOp34
 70
     1
102
RTVSPropertyOp35
 70
     1
102
RTVSPropertyOp36
 70
     1
102
RTVSPropertyOp37
 70
     1
102
RTVSPropertyOp38
 70
     1
102
RTVSPropertyOp39
 70
     1
102
RTVSPropertyOp40
 70
     1
102
RTVSPropertyOp41
 70
     1
102
RTVSPropertyOp42
 70
     1
102
RTVSPropertyOp43
 70
     1
102
RTVSPropertyOp44
 70
     1
102
RTVSPropertyOp45
 70
     1
102
RTVSPropertyOp46
 70
     1
102
RTVSPropertyOp47
 70
     1
102
RTVSPropertyOp48
 70
     1
102
RTVSPropertyOp49
 70
     1
102
RTVSPropertyOp50
 70
     1
102
RTVSPropertyOp51
 70
     0
102
RTVSPropertyOp52
 70
     0
102
RTVSPropertyOp53
 70
     1
102
RTVSPropertyOp54
 70
     1
102
RTVSPropertyOp55
 70
     1
102
RTVSPropertyOp56
 70
     1
102
RTVSPropertyOp57
 70
     1
102
RTVSPropertyOp58
 70
     1
102
RTVSPropertyOp59
 70
     1
102
RTVSPropertyOp60
 70
     1
102
RTVSPropertyOp61
 70
     1
102
RTVSPropertyOp62
 70
     1
  0
XRECORD
  5
5F3
102
{ACAD_REACTORS
330
5F2
102
}
330
5F2
100
AcDbXrecord
280
     1
102
RTVSPost2010Prop28
280
     0
102
RTVSPost2010PropOp28
 70
     1
102
RTVSPost2010Prop29
280
     1
102
RTVSPost2010PropOp29
 70
     1
102
RTVSPost2010Prop30
280
     1
102
RTVSPost2010PropOp30
 70
     1
102
RTVSPost2010Prop31
280
     0
102
RTVSPost2010PropOp31
 70
     1
102
RTVSPost2010Prop32
280
     0
102
RTVSPost2010PropOp32
 70
     1
102
RTVSPost2010Prop33
280
     0
102
RTVSPost2010PropOp33
 70
     1
102
RTVSPost2010Prop34
280
     0
102
RTVSPost2010PropOp34
 70
     1
102
RTVSPost2010Prop35
280
     0
102
RTVSPost2010PropOp35
 70
     1
102
RTVSPost2010Prop36
280
     0
102
RTVSPost2010PropOp36
 70
     1
102
RTVSPost2010Prop37
 90
       50
102
RTVSPost2010PropOp37
 70
     1
102
RTVSPost2010Prop38
140
0.0
102
RTVSPost2010PropOp38
 70
     1
102
RTVSPost2010Prop39
140
1.0
102
RTVSPost2010PropOp39
 70
     1
102
RTVSPost2010Prop40
 90
        0
102
RTVSPost2010PropOp40
 70
     1
102
RTVSPost2010Prop41ColorIndex
 90
       18
102
RTVSPost2010Prop41ColorRGB
 90
        0
102
RTVSPost2010PropOp41
 70
     1
102
RTVSPost2010Prop42
 90
       50
102
RTVSPost2010PropOp42
 70
     1
102
RTVSPost2010Prop43
 90
        3
102
RTVSPost2010PropOp43
 70
     1
102
RTVSPost2010Prop44ColorIndex
 90
        5
102
RTVSPost2010Prop44ColorRGB
 90
      255
102
RTVSPost2010PropOp44
 70
     1
102
RTVSPost2010Prop45
280
     0
102
RTVSPost2010PropOp45
 70
     1
102
RTVSPost2010Prop46
 90
       50
102
RTVSPost2010PropOp46
 70
     1
102
RTVSPost2010Prop47
 90
       50
102
RTVSPost2010PropOp47
 70
     1
102
RTVSPost2010Prop48
 90
       50
102
RTVSPost2010PropOp48
 70
     1
102
RTVSPost2010Prop49
280
     0
102
RTVSPost2010PropOp49
 70
     1
102
RTVSPost2010Prop50
 90
       50
102
RTVSPost2010PropOp50
 70
     1
102
RTVSPost2010Prop51ColorIndex
 90
      256
102
RTVSPost2010Prop51ColorRGB
 90
-16777216
102
RTVSPost2010PropOp51
 70
     0
102
RTVSPost2010Prop52
140
1.0
102
RTVSPost2010PropOp52
 70
     0
102
RTVSPost2010Prop53
 90
        2
102
RTVSPost2010PropOp53
 70
     1
102
RTVSPost2010Prop54
  1
strokes_ogs.tif
102
RTVSPost2010PropOp54
 70
     1
102
RTVSPost2010Prop55
280
     0
102
RTVSPost2010PropOp55
 70
     1
102
RTVSPost2010Prop56
140
1.0
102
RTVSPost2010PropOp56
 70
     1
102
RTVSPost2010Prop57
140
1.0
102
RTVSPost2010PropOp57
 70
     1
102
RTVSPropertyOp0
 70
     1
102
RTVSPropertyOp1
 70
     1
102
RTVSPropertyOp2
 70
     1
102
RTVSPropertyOp3
 70
     1
102
RTVSPropertyOp4
 70
     1
102
RTVSPropertyOp5
 70
     1
102
RTVSPropertyOp6
 70
     1
102
RTVSPropertyOp7
 70
     1
102
RTVSPropertyOp8
 70
     1
102
RTVSPropertyOp9
 70
     1
102
RTVSPropertyOp10
 70
     1
102
RTVSPropertyOp11
 70
     1
102
RTVSPropertyOp12
 70
     1
102
RTVSPropertyOp13
 70
     1
102
RTVSPropertyOp14
 70
     1
102
RTVSPropertyOp15
 70
     1
102
RTVSPropertyOp16
 70
     1
102
RTVSPropertyOp17
 70
     1
102
RTVSPropertyOp18
 70
     1
102
RTVSPropertyOp19
 70
     1
102
RTVSPropertyOp20
 70
     1
102
RTVSPropertyOp21
 70
     1
102
RTVSPropertyOp22
 70
     1
102
RTVSPropertyOp23
 70
     1
102
RTVSPropertyOp24
 70
     1
102
RTVSPropertyOp25
 70
     1
102
RTVSPropertyOp26
 70
     1
102
RTVSPropertyOp27
 70
     1
102
RTVSPropertyOp28
 70
     1
102
RTVSPropertyOp29
 70
     1
102
RTVSPropertyOp30
 70
     1
102
RTVSPropertyOp31
 70
     1
102
RTVSPropertyOp32
 70
     1
102
RTVSPropertyOp33
 70
     1
102
RTVSPropertyOp34
 70
     1
102
RTVSPropertyOp35
 70
     1
102
RTVSPropertyOp36
 70
     1
102
RTVSPropertyOp37
 70
     1
102
RTVSPropertyOp38
 70
     1
102
RTVSPropertyOp39
 70
     1
102
RTVSPropertyOp40
 70
     1
102
RTVSPropertyOp41
 70
     1
102
RTVSPropertyOp42
 70
     1
102
RTVSPropertyOp43
 70
     1
102
RTVSPropertyOp44
 70
     1
102
RTVSPropertyOp45
 70
     1
102
RTVSPropertyOp46
 70
     1
102
RTVSPropertyOp47
 70
     1
102
RTVSPropertyOp48
 70
     1
102
RTVSPropertyOp49
 70
     1
102
RTVSPropertyOp50
 70
     1
102
RTVSPropertyOp51
 70
     0
102
RTVSPropertyOp52
 70
     0
102
RTVSPropertyOp53
 70
     1
102
RTVSPropertyOp54
 70
     1
102
RTVSPropertyOp55
 70
     1
102
RTVSPropertyOp56
 70
     1
102
RTVSPropertyOp57
 70
     1
102
RTVSPropertyOp58
 70
     1
102
RTVSPropertyOp59
 70
     1
102
RTVSPropertyOp60
 70
     1
102
RTVSPropertyOp61
 70
     1
102
RTVSPropertyOp62
 70
     1
  0
XRECORD
  5
5E5
102
{ACAD_REACTORS
330
5E4
102
}
330
5E4
100
AcDbXrecord
280
     1
102
RTVSPost2010Prop28
280
     0
102
RTVSPost2010PropOp28
 70
     1
102
RTVSPost2010Prop29
280
     1
102
RTVSPost2010PropOp29
 70
     1
102
RTVSPost2010Prop30
280
     1
102
RTVSPost2010PropOp30
 70
     1
102
RTVSPost2010Prop31
280
     0
102
RTVSPost2010PropOp31
 70
     1
102
RTVSPost2010Prop32
280
     0
102
RTVSPost2010PropOp32
 70
     1
102
RTVSPost2010Prop33
280
     0
102
RTVSPost2010PropOp33
 70
     1
102
RTVSPost2010Prop34
280
     0
102
RTVSPost2010PropOp34
 70
     1
102
RTVSPost2010Prop35
280
     0
102
RTVSPost2010PropOp35
 70
     1
102
RTVSPost2010Prop36
280
     0
102
RTVSPost2010PropOp36
 70
     1
102
RTVSPost2010Prop37
 90
       50
102
RTVSPost2010PropOp37
 70
     1
102
RTVSPost2010Prop38
140
0.0
102
RTVSPost2010PropOp38
 70
     1
102
RTVSPost2010Prop39
140
1.0
102
RTVSPost2010PropOp39
 70
     1
102
RTVSPost2010Prop40
 90
        0
102
RTVSPost2010PropOp40
 70
     1
102
RTVSPost2010Prop41ColorIndex
 90
       18
102
RTVSPost2010Prop41ColorRGB
 90
        0
102
RTVSPost2010PropOp41
 70
     1
102
RTVSPost2010Prop42
 90
       50
102
RTVSPost2010PropOp42
 70
     1
102
RTVSPost2010Prop43
 90
        3
102
RTVSPost2010PropOp43
 70
     1
102
RTVSPost2010Prop44ColorIndex
 90
        5
102
RTVSPost2010Prop44ColorRGB
 90
      255
102
RTVSPost2010PropOp44
 70
     1
102
RTVSPost2010Prop45
280
     0
102
RTVSPost2010PropOp45
 70
     1
102
RTVSPost2010Prop46
 90
       50
102
RTVSPost2010PropOp46
 70
     1
102
RTVSPost2010Prop47
 90
       50
102
RTVSPost2010PropOp47
 70
     1
102
RTVSPost2010Prop48
 90
       50
102
RTVSPost2010PropOp48
 70
     1
102
RTVSPost2010Prop49
280
     0
102
RTVSPost2010PropOp49
 70
     1
102
RTVSPost2010Prop50
 90
       50
102
RTVSPost2010PropOp50
 70
     1
102
RTVSPost2010Prop51ColorIndex
 90
      256
102
RTVSPost2010Prop51ColorRGB
 90
-16777216
102
RTVSPost2010PropOp51
 70
     0
102
RTVSPost2010Prop52
140
1.0
102
RTVSPost2010PropOp52
 70
     0
102
RTVSPost2010Prop53
 90
        2
102
RTVSPost2010PropOp53
 70
     1
102
RTVSPost2010Prop54
  1
strokes_ogs.tif
102
RTVSPost2010PropOp54
 70
     1
102
RTVSPost2010Prop55
280
     0
102
RTVSPost2010PropOp55
 70
     1
102
RTVSPost2010Prop56
140
1.0
102
RTVSPost2010PropOp56
 70
     1
102
RTVSPost2010Prop57
140
1.0
102
RTVSPost2010PropOp57
 70
     1
102
RTVSPropertyOp0
 70
     1
102
RTVSPropertyOp1
 70
     1
102
RTVSPropertyOp2
 70
     1
102
RTVSPropertyOp3
 70
     1
102
RTVSPropertyOp4
 70
     1
102
RTVSPropertyOp5
 70
     1
102
RTVSPropertyOp6
 70
     1
102
RTVSPropertyOp7
 70
     1
102
RTVSPropertyOp8
 70
     1
102
RTVSPropertyOp9
 70
     1
102
RTVSPropertyOp10
 70
     1
102
RTVSPropertyOp11
 70
     1
102
RTVSPropertyOp12
 70
     1
102
RTVSPropertyOp13
 70
     1
102
RTVSPropertyOp14
 70
     1
102
RTVSPropertyOp15
 70
     1
102
RTVSPropertyOp16
 70
     1
102
RTVSPropertyOp17
 70
     1
102
RTVSPropertyOp18
 70
     1
102
RTVSPropertyOp19
 70
     1
102
RTVSPropertyOp20
 70
     1
102
RTVSPropertyOp21
 70
     1
102
RTVSPropertyOp22
 70
     1
102
RTVSPropertyOp23
 70
     1
102
RTVSPropertyOp24
 70
     1
102
RTVSPropertyOp25
 70
     1
102
RTVSPropertyOp26
 70
     1
102
RTVSPropertyOp27
 70
     1
102
RTVSPropertyOp28
 70
     1
102
RTVSPropertyOp29
 70
     1
102
RTVSPropertyOp30
 70
     1
102
RTVSPropertyOp31
 70
     1
102
RTVSPropertyOp32
 70
     1
102
RTVSPropertyOp33
 70
     1
102
RTVSPropertyOp34
 70
     1
102
RTVSPropertyOp35
 70
     1
102
RTVSPropertyOp36
 70
     1
102
RTVSPropertyOp37
 70
     1
102
RTVSPropertyOp38
 70
     1
102
RTVSPropertyOp39
 70
     1
102
RTVSPropertyOp40
 70
     1
102
RTVSPropertyOp41
 70
     1
102
RTVSPropertyOp42
 70
     1
102
RTVSPropertyOp43
 70
     1
102
RTVSPropertyOp44
 70
     1
102
RTVSPropertyOp45
 70
     1
102
RTVSPropertyOp46
 70
     1
102
RTVSPropertyOp47
 70
     1
102
RTVSPropertyOp48
 70
     1
102
RTVSPropertyOp49
 70
     1
102
RTVSPropertyOp50
 70
     1
102
RTVSPropertyOp51
 70
     0
102
RTVSPropertyOp52
 70
     0
102
RTVSPropertyOp53
 70
     1
102
RTVSPropertyOp54
 70
     1
102
RTVSPropertyOp55
 70
     1
102
RTVSPropertyOp56
 70
     1
102
RTVSPropertyOp57
 70
     1
102
RTVSPropertyOp58
 70
     1
102
RTVSPropertyOp59
 70
     1
102
RTVSPropertyOp60
 70
     1
102
RTVSPropertyOp61
 70
     1
102
RTVSPropertyOp62
 70
     1
  0
XRECORD
  5
5E9
102
{ACAD_REACTORS
330
5E8
102
}
330
5E8
100
AcDbXrecord
280
     1
102
RTVSPost2010Prop28
280
     0
102
RTVSPost2010PropOp28
 70
     1
102
RTVSPost2010Prop29
280
     1
102
RTVSPost2010PropOp29
 70
     1
102
RTVSPost2010Prop30
280
     1
102
RTVSPost2010PropOp30
 70
     1
102
RTVSPost2010Prop31
280
     0
102
RTVSPost2010PropOp31
 70
     1
102
RTVSPost2010Prop32
280
     0
102
RTVSPost2010PropOp32
 70
     1
102
RTVSPost2010Prop33
280
     0
102
RTVSPost2010PropOp33
 70
     1
102
RTVSPost2010Prop34
280
     0
102
RTVSPost2010PropOp34
 70
     1
102
RTVSPost2010Prop35
280
     0
102
RTVSPost2010PropOp35
 70
     1
102
RTVSPost2010Prop36
280
     0
102
RTVSPost2010PropOp36
 70
     1
102
RTVSPost2010Prop37
 90
       50
102
RTVSPost2010PropOp37
 70
     1
102
RTVSPost2010Prop38
140
0.0
102
RTVSPost2010PropOp38
 70
     1
102
RTVSPost2010Prop39
140
1.0
102
RTVSPost2010PropOp39
 70
     1
102
RTVSPost2010Prop40
 90
        0
102
RTVSPost2010PropOp40
 70
     1
102
RTVSPost2010Prop41ColorIndex
 90
       18
102
RTVSPost2010Prop41ColorRGB
 90
        0
102
RTVSPost2010PropOp41
 70
     1
102
RTVSPost2010Prop42
 90
       50
102
RTVSPost2010PropOp42
 70
     1
102
RTVSPost2010Prop43
 90
        3
102
RTVSPost2010PropOp43
 70
     1
102
RTVSPost2010Prop44ColorIndex
 90
        5
102
RTVSPost2010Prop44ColorRGB
 90
      255
102
RTVSPost2010PropOp44
 70
     1
102
RTVSPost2010Prop45
280
     0
102
RTVSPost2010PropOp45
 70
     1
102
RTVSPost2010Prop46
 90
       50
102
RTVSPost2010PropOp46
 70
     1
102
RTVSPost2010Prop47
 90
       50
102
RTVSPost2010PropOp47
 70
     1
102
RTVSPost2010Prop48
 90
       50
102
RTVSPost2010PropOp48
 70
     1
102
RTVSPost2010Prop49
280
     0
102
RTVSPost2010PropOp49
 70
     1
102
RTVSPost2010Prop50
 90
       50
102
RTVSPost2010PropOp50
 70
     1
102
RTVSPost2010Prop51ColorIndex
 90
      256
102
RTVSPost2010Prop51ColorRGB
 90
-16777216
102
RTVSPost2010PropOp51
 70
     0
102
RTVSPost2010Prop52
140
1.0
102
RTVSPost2010PropOp52
 70
     0
102
RTVSPost2010Prop53
 90
        2
102
RTVSPost2010PropOp53
 70
     1
102
RTVSPost2010Prop54
  1
strokes_ogs.tif
102
RTVSPost2010PropOp54
 70
     1
102
RTVSPost2010Prop55
280
     0
102
RTVSPost2010PropOp55
 70
     1
102
RTVSPost2010Prop56
140
1.0
102
RTVSPost2010PropOp56
 70
     1
102
RTVSPost2010Prop57
140
1.0
102
RTVSPost2010PropOp57
 70
     1
102
RTVSPropertyOp0
 70
     1
102
RTVSPropertyOp1
 70
     1
102
RTVSPropertyOp2
 70
     1
102
RTVSPropertyOp3
 70
     1
102
RTVSPropertyOp4
 70
     1
102
RTVSPropertyOp5
 70
     1
102
RTVSPropertyOp6
 70
     1
102
RTVSPropertyOp7
 70
     1
102
RTVSPropertyOp8
 70
     1
102
RTVSPropertyOp9
 70
     1
102
RTVSPropertyOp10
 70
     1
102
RTVSPropertyOp11
 70
     1
102
RTVSPropertyOp12
 70
     1
102
RTVSPropertyOp13
 70
     1
102
RTVSPropertyOp14
 70
     1
102
RTVSPropertyOp15
 70
     1
102
RTVSPropertyOp16
 70
     1
102
RTVSPropertyOp17
 70
     1
102
RTVSPropertyOp18
 70
     1
102
RTVSPropertyOp19
 70
     1
102
RTVSPropertyOp20
 70
     1
102
RTVSPropertyOp21
 70
     1
102
RTVSPropertyOp22
 70
     1
102
RTVSPropertyOp23
 70
     1
102
RTVSPropertyOp24
 70
     1
102
RTVSPropertyOp25
 70
     1
102
RTVSPropertyOp26
 70
     1
102
RTVSPropertyOp27
 70
     1
102
RTVSPropertyOp28
 70
     1
102
RTVSPropertyOp29
 70
     1
102
RTVSPropertyOp30
 70
     1
102
RTVSPropertyOp31
 70
     1
102
RTVSPropertyOp32
 70
     1
102
RTVSPropertyOp33
 70
     1
102
RTVSPropertyOp34
 70
     1
102
RTVSPropertyOp35
 70
     1
102
RTVSPropertyOp36
 70
     1
102
RTVSPropertyOp37
 70
     1
102
RTVSPropertyOp38
 70
     1
102
RTVSPropertyOp39
 70
     1
102
RTVSPropertyOp40
 70
     1
102
RTVSPropertyOp41
 70
     1
102
RTVSPropertyOp42
 70
     1
102
RTVSPropertyOp43
 70
     1
102
RTVSPropertyOp44
 70
     1
102
RTVSPropertyOp45
 70
     1
102
RTVSPropertyOp46
 70
     1
102
RTVSPropertyOp47
 70
     1
102
RTVSPropertyOp48
 70
     1
102
RTVSPropertyOp49
 70
     1
102
RTVSPropertyOp50
 70
     1
102
RTVSPropertyOp51
 70
     0
102
RTVSPropertyOp52
 70
     0
102
RTVSPropertyOp53
 70
     1
102
RTVSPropertyOp54
 70
     1
102
RTVSPropertyOp55
 70
     1
102
RTVSPropertyOp56
 70
     1
102
RTVSPropertyOp57
 70
     1
102
RTVSPropertyOp58
 70
     1
102
RTVSPropertyOp59
 70
     1
102
RTVSPropertyOp60
 70
     1
102
RTVSPropertyOp61
 70
     1
102
RTVSPropertyOp62
 70
     1
  0
XRECORD
  5
603
102
{ACAD_REACTORS
330
602
102
}
330
602
100
AcDbXrecord
280
     1
102
RTVSPost2010Prop28
280
     0
102
RTVSPost2010PropOp28
 70
     1
102
RTVSPost2010Prop29
280
     1
102
RTVSPost2010PropOp29
 70
     1
102
RTVSPost2010Prop30
280
     1
102
RTVSPost2010PropOp30
 70
     1
102
RTVSPost2010Prop31
280
     0
102
RTVSPost2010PropOp31
 70
     1
102
RTVSPost2010Prop32
280
     0
102
RTVSPost2010PropOp32
 70
     1
102
RTVSPost2010Prop33
280
     0
102
RTVSPost2010PropOp33
 70
     1
102
RTVSPost2010Prop34
280
     0
102
RTVSPost2010PropOp34
 70
     1
102
RTVSPost2010Prop35
280
     0
102
RTVSPost2010PropOp35
 70
     1
102
RTVSPost2010Prop36
280
     0
102
RTVSPost2010PropOp36
 70
     1
102
RTVSPost2010Prop37
 90
       50
102
RTVSPost2010PropOp37
 70
     0
102
RTVSPost2010Prop38
140
0.0
102
RTVSPost2010PropOp38
 70
     0
102
RTVSPost2010Prop39
140
1.0
102
RTVSPost2010PropOp39
 70
     0
102
RTVSPost2010Prop40
 90
        0
102
RTVSPost2010PropOp40
 70
     0
102
RTVSPost2010Prop41ColorIndex
 90
       18
102
RTVSPost2010Prop41ColorRGB
 90
        0
102
RTVSPost2010PropOp41
 70
     0
102
RTVSPost2010Prop42
 90
       50
102
RTVSPost2010PropOp42
 70
     0
102
RTVSPost2010Prop43
 90
        3
102
RTVSPost2010PropOp43
 70
     0
102
RTVSPost2010Prop44ColorIndex
 90
        5
102
RTVSPost2010Prop44ColorRGB
 90
      255
102
RTVSPost2010PropOp44
 70
     0
102
RTVSPost2010Prop45
280
     0
102
RTVSPost2010PropOp45
 70
     1
102
RTVSPost2010Prop46
 90
       50
102
RTVSPost2010PropOp46
 70
     0
102
RTVSPost2010Prop47
 90
       50
102
RTVSPost2010PropOp47
 70
     0
102
RTVSPost2010Prop48
 90
       50
102
RTVSPost2010PropOp48
 70
     0
102
RTVSPost2010Prop49
280
     0
102
RTVSPost2010PropOp49
 70
     1
102
RTVSPost2010Prop50
 90
       50
102
RTVSPost2010PropOp50
 70
     0
102
RTVSPost2010Prop51ColorIndex
 90
      256
102
RTVSPost2010Prop51ColorRGB
 90
-16777216
102
RTVSPost2010PropOp51
 70
     0
102
RTVSPost2010Prop52
140
1.0
102
RTVSPost2010PropOp52
 70
     0
102
RTVSPost2010Prop53
 90
        2
102
RTVSPost2010PropOp53
 70
     0
102
RTVSPost2010Prop54
  1
strokes_ogs.tif
102
RTVSPost2010PropOp54
 70
     0
102
RTVSPost2010Prop55
280
     0
102
RTVSPost2010PropOp55
 70
     1
102
RTVSPost2010Prop56
140
1.0
102
RTVSPost2010PropOp56
 70
     0
102
RTVSPost2010Prop57
140
1.0
102
RTVSPost2010PropOp57
 70
     0
102
RTVSPropertyOp0
 70
     0
102
RTVSPropertyOp1
 70
     0
102
RTVSPropertyOp2
 70
     0
102
RTVSPropertyOp3
 70
     0
102
RTVSPropertyOp4
 70
     0
102
RTVSPropertyOp5
 70
     0
102
RTVSPropertyOp6
 70
     0
102
RTVSPropertyOp7
 70
     0
102
RTVSPropertyOp8
 70
     0
102
RTVSPropertyOp9
 70
     0
102
RTVSPropertyOp10
 70
     0
102
RTVSPropertyOp11
 70
     0
102
RTVSPropertyOp12
 70
     0
102
RTVSPropertyOp13
 70
     0
102
RTVSPropertyOp14
 70
     2
102
RTVSPropertyOp15
 70
     0
102
RTVSPropertyOp16
 70
     0
102
RTVSPropertyOp17
 70
     0
102
RTVSPropertyOp18
 70
     0
102
RTVSPropertyOp19
 70
     0
102
RTVSPropertyOp20
 70
     0
102
RTVSPropertyOp21
 70
     0
102
RTVSPropertyOp22
 70
     0
102
RTVSPropertyOp23
 70
     0
102
RTVSPropertyOp24
 70
     0
102
RTVSPropertyOp25
 70
     0
102
RTVSPropertyOp26
 70
     0
102
RTVSPropertyOp27
 70
     0
102
RTVSPropertyOp28
 70
     1
102
RTVSPropertyOp29
 70
     1
102
RTVSPropertyOp30
 70
     1
102
RTVSPropertyOp31
 70
     1
102
RTVSPropertyOp32
 70
     1
102
RTVSPropertyOp33
 70
     1
102
RTVSPropertyOp34
 70
     1
102
RTVSPropertyOp35
 70
     1
102
RTVSPropertyOp36
 70
     1
102
RTVSPropertyOp37
 70
     0
102
RTVSPropertyOp38
 70
     0
102
RTVSPropertyOp39
 70
     0
102
RTVSPropertyOp40
 70
     0
102
RTVSPropertyOp41
 70
     0
102
RTVSPropertyOp42
 70
     0
102
RTVSPropertyOp43
 70
     0
102
RTVSPropertyOp44
 70
     0
102
RTVSPropertyOp45
 70
     1
102
RTVSPropertyOp46
 70
     0
102
RTVSPropertyOp47
 70
     0
102
RTVSPropertyOp48
 70
     0
102
RTVSPropertyOp49
 70
     1
102
RTVSPropertyOp50
 70
     0
102
RTVSPropertyOp51
 70
     0
102
RTVSPropertyOp52
 70
     0
102
RTVSPropertyOp53
 70
     0
102
RTVSPropertyOp54
 70
     0
102
RTVSPropertyOp55
 70
     1
102
RTVSPropertyOp56
 70
     0
102
RTVSPropertyOp57
 70
     0
102
RTVSPropertyOp58
 70
     0
102
RTVSPropertyOp59
 70
     0
102
RTVSPropertyOp60
 70
     0
102
RTVSPropertyOp61
 70
     0
102
RTVSPropertyOp62
 70
     0
  0
XRECORD
  5
5F1
102
{ACAD_REACTORS
330
5F0
102
}
330
5F0
100
AcDbXrecord
280
     1
102
RTVSPost2010Prop28
280
     0
102
RTVSPost2010PropOp28
 70
     1
102
RTVSPost2010Prop29
280
     1
102
RTVSPost2010PropOp29
 70
     1
102
RTVSPost2010Prop30
280
     1
102
RTVSPost2010PropOp30
 70
     1
102
RTVSPost2010Prop31
280
     0
102
RTVSPost2010PropOp31
 70
     1
102
RTVSPost2010Prop32
280
     0
102
RTVSPost2010PropOp32
 70
     1
102
RTVSPost2010Prop33
280
     0
102
RTVSPost2010PropOp33
 70
     1
102
RTVSPost2010Prop34
280
     0
102
RTVSPost2010PropOp34
 70
     1
102
RTVSPost2010Prop35
280
     0
102
RTVSPost2010PropOp35
 70
     1
102
RTVSPost2010Prop36
280
     0
102
RTVSPost2010PropOp36
 70
     1
102
RTVSPost2010Prop37
 90
       50
102
RTVSPost2010PropOp37
 70
     1
102
RTVSPost2010Prop38
140
0.0
102
RTVSPost2010PropOp38
 70
     1
102
RTVSPost2010Prop39
140
1.0
102
RTVSPost2010PropOp39
 70
     1
102
RTVSPost2010Prop40
 90
        0
102
RTVSPost2010PropOp40
 70
     1
102
RTVSPost2010Prop41ColorIndex
 90
       18
102
RTVSPost2010Prop41ColorRGB
 90
        0
102
RTVSPost2010PropOp41
 70
     1
102
RTVSPost2010Prop42
 90
       50
102
RTVSPost2010PropOp42
 70
     1
102
RTVSPost2010Prop43
 90
        3
102
RTVSPost2010PropOp43
 70
     1
102
RTVSPost2010Prop44ColorIndex
 90
        5
102
RTVSPost2010Prop44ColorRGB
 90
      255
102
RTVSPost2010PropOp44
 70
     1
102
RTVSPost2010Prop45
280
     0
102
RTVSPost2010PropOp45
 70
     1
102
RTVSPost2010Prop46
 90
       50
102
RTVSPost2010PropOp46
 70
     1
102
RTVSPost2010Prop47
 90
       50
102
RTVSPost2010PropOp47
 70
     1
102
RTVSPost2010Prop48
 90
       50
102
RTVSPost2010PropOp48
 70
     1
102
RTVSPost2010Prop49
280
     0
102
RTVSPost2010PropOp49
 70
     1
102
RTVSPost2010Prop50
 90
       50
102
RTVSPost2010PropOp50
 70
     1
102
RTVSPost2010Prop51ColorIndex
 90
      256
102
RTVSPost2010Prop51ColorRGB
 90
-16777216
102
RTVSPost2010PropOp51
 70
     0
102
RTVSPost2010Prop52
140
1.0
102
RTVSPost2010PropOp52
 70
     0
102
RTVSPost2010Prop53
 90
        2
102
RTVSPost2010PropOp53
 70
     1
102
RTVSPost2010Prop54
  1
strokes_ogs.tif
102
RTVSPost2010PropOp54
 70
     1
102
RTVSPost2010Prop55
280
     0
102
RTVSPost2010PropOp55
 70
     1
102
RTVSPost2010Prop56
140
1.0
102
RTVSPost2010PropOp56
 70
     1
102
RTVSPost2010Prop57
140
1.0
102
RTVSPost2010PropOp57
 70
     1
102
RTVSPropertyOp0
 70
     1
102
RTVSPropertyOp1
 70
     1
102
RTVSPropertyOp2
 70
     1
102
RTVSPropertyOp3
 70
     1
102
RTVSPropertyOp4
 70
     1
102
RTVSPropertyOp5
 70
     1
102
RTVSPropertyOp6
 70
     1
102
RTVSPropertyOp7
 70
     1
102
RTVSPropertyOp8
 70
     1
102
RTVSPropertyOp9
 70
     1
102
RTVSPropertyOp10
 70
     1
102
RTVSPropertyOp11
 70
     1
102
RTVSPropertyOp12
 70
     1
102
RTVSPropertyOp13
 70
     1
102
RTVSPropertyOp14
 70
     1
102
RTVSPropertyOp15
 70
     1
102
RTVSPropertyOp16
 70
     1
102
RTVSPropertyOp17
 70
     1
102
RTVSPropertyOp18
 70
     1
102
RTVSPropertyOp19
 70
     1
102
RTVSPropertyOp20
 70
     1
102
RTVSPropertyOp21
 70
     1
102
RTVSPropertyOp22
 70
     1
102
RTVSPropertyOp23
 70
     1
102
RTVSPropertyOp24
 70
     1
102
RTVSPropertyOp25
 70
     1
102
RTVSPropertyOp26
 70
     1
102
RTVSPropertyOp27
 70
     1
102
RTVSPropertyOp28
 70
     1
102
RTVSPropertyOp29
 70
     1
102
RTVSPropertyOp30
 70
     1
102
RTVSPropertyOp31
 70
     1
102
RTVSPropertyOp32
 70
     1
102
RTVSPropertyOp33
 70
     1
102
RTVSPropertyOp34
 70
     1
102
RTVSPropertyOp35
 70
     1
102
RTVSPropertyOp36
 70
     1
102
RTVSPropertyOp37
 70
     1
102
RTVSPropertyOp38
 70
     1
102
RTVSPropertyOp39
 70
     1
102
RTVSPropertyOp40
 70
     1
102
RTVSPropertyOp41
 70
     1
102
RTVSPropertyOp42
 70
     1
102
RTVSPropertyOp43
 70
     1
102
RTVSPropertyOp44
 70
     1
102
RTVSPropertyOp45
 70
     1
102
RTVSPropertyOp46
 70
     1
102
RTVSPropertyOp47
 70
     1
102
RTVSPropertyOp48
 70
     1
102
RTVSPropertyOp49
 70
     1
102
RTVSPropertyOp50
 70
     1
102
RTVSPropertyOp51
 70
     0
102
RTVSPropertyOp52
 70
     0
102
RTVSPropertyOp53
 70
     1
102
RTVSPropertyOp54
 70
     1
102
RTVSPropertyOp55
 70
     1
102
RTVSPropertyOp56
 70
     1
102
RTVSPropertyOp57
 70
     1
102
RTVSPropertyOp58
 70
     1
102
RTVSPropertyOp59
 70
     1
102
RTVSPropertyOp60
 70
     1
102
RTVSPropertyOp61
 70
     1
102
RTVSPropertyOp62
 70
     1
  0
XRECORD
  5
5D5
102
{ACAD_REACTORS
330
5D4
102
}
330
5D4
100
AcDbXrecord
280
     1
102
RTVSPost2010Prop28
280
     0
102
RTVSPost2010PropOp28
 70
     1
102
RTVSPost2010Prop29
280
     1
102
RTVSPost2010PropOp29
 70
     1
102
RTVSPost2010Prop30
280
     1
102
RTVSPost2010PropOp30
 70
     1
102
RTVSPost2010Prop31
280
     0
102
RTVSPost2010PropOp31
 70
     1
102
RTVSPost2010Prop32
280
     0
102
RTVSPost2010PropOp32
 70
     1
102
RTVSPost2010Prop33
280
     0
102
RTVSPost2010PropOp33
 70
     1
102
RTVSPost2010Prop34
280
     0
102
RTVSPost2010PropOp34
 70
     1
102
RTVSPost2010Prop35
280
     0
102
RTVSPost2010PropOp35
 70
     1
102
RTVSPost2010Prop36
280
     0
102
RTVSPost2010PropOp36
 70
     1
102
RTVSPost2010Prop37
 90
       50
102
RTVSPost2010PropOp37
 70
     1
102
RTVSPost2010Prop38
140
0.0
102
RTVSPost2010PropOp38
 70
     1
102
RTVSPost2010Prop39
140
1.0
102
RTVSPost2010PropOp39
 70
     1
102
RTVSPost2010Prop40
 90
        0
102
RTVSPost2010PropOp40
 70
     1
102
RTVSPost2010Prop41ColorIndex
 90
       18
102
RTVSPost2010Prop41ColorRGB
 90
        0
102
RTVSPost2010PropOp41
 70
     1
102
RTVSPost2010Prop42
 90
       50
102
RTVSPost2010PropOp42
 70
     1
102
RTVSPost2010Prop43
 90
        3
102
RTVSPost2010PropOp43
 70
     1
102
RTVSPost2010Prop44ColorIndex
 90
        5
102
RTVSPost2010Prop44ColorRGB
 90
      255
102
RTVSPost2010PropOp44
 70
     1
102
RTVSPost2010Prop45
280
     0
102
RTVSPost2010PropOp45
 70
     1
102
RTVSPost2010Prop46
 90
       50
102
RTVSPost2010PropOp46
 70
     1
102
RTVSPost2010Prop47
 90
       50
102
RTVSPost2010PropOp47
 70
     1
102
RTVSPost2010Prop48
 90
       50
102
RTVSPost2010PropOp48
 70
     1
102
RTVSPost2010Prop49
280
     0
102
RTVSPost2010PropOp49
 70
     1
102
RTVSPost2010Prop50
 90
       50
102
RTVSPost2010PropOp50
 70
     1
102
RTVSPost2010Prop51ColorIndex
 90
      256
102
RTVSPost2010Prop51ColorRGB
 90
-16777216
102
RTVSPost2010PropOp51
 70
     0
102
RTVSPost2010Prop52
140
1.0
102
RTVSPost2010PropOp52
 70
     0
102
RTVSPost2010Prop53
 90
        2
102
RTVSPost2010PropOp53
 70
     1
102
RTVSPost2010Prop54
  1
strokes_ogs.tif
102
RTVSPost2010PropOp54
 70
     1
102
RTVSPost2010Prop55
280
     0
102
RTVSPost2010PropOp55
 70
     1
102
RTVSPost2010Prop56
140
1.0
102
RTVSPost2010PropOp56
 70
     1
102
RTVSPost2010Prop57
140
1.0
102
RTVSPost2010PropOp57
 70
     1
102
RTVSPropertyOp0
 70
     1
102
RTVSPropertyOp1
 70
     1
102
RTVSPropertyOp2
 70
     1
102
RTVSPropertyOp3
 70
     1
102
RTVSPropertyOp4
 70
     1
102
RTVSPropertyOp5
 70
     1
102
RTVSPropertyOp6
 70
     1
102
RTVSPropertyOp7
 70
     1
102
RTVSPropertyOp8
 70
     1
102
RTVSPropertyOp9
 70
     1
102
RTVSPropertyOp10
 70
     1
102
RTVSPropertyOp11
 70
     1
102
RTVSPropertyOp12
 70
     1
102
RTVSPropertyOp13
 70
     1
102
RTVSPropertyOp14
 70
     1
102
RTVSPropertyOp15
 70
     1
102
RTVSPropertyOp16
 70
     1
102
RTVSPropertyOp17
 70
     1
102
RTVSPropertyOp18
 70
     1
102
RTVSPropertyOp19
 70
     1
102
RTVSPropertyOp20
 70
     1
102
RTVSPropertyOp21
 70
     1
102
RTVSPropertyOp22
 70
     1
102
RTVSPropertyOp23
 70
     1
102
RTVSPropertyOp24
 70
     1
102
RTVSPropertyOp25
 70
     1
102
RTVSPropertyOp26
 70
     1
102
RTVSPropertyOp27
 70
     1
102
RTVSPropertyOp28
 70
     1
102
RTVSPropertyOp29
 70
     1
102
RTVSPropertyOp30
 70
     1
102
RTVSPropertyOp31
 70
     1
102
RTVSPropertyOp32
 70
     1
102
RTVSPropertyOp33
 70
     1
102
RTVSPropertyOp34
 70
     1
102
RTVSPropertyOp35
 70
     1
102
RTVSPropertyOp36
 70
     1
102
RTVSPropertyOp37
 70
     1
102
RTVSPropertyOp38
 70
     1
102
RTVSPropertyOp39
 70
     1
102
RTVSPropertyOp40
 70
     1
102
RTVSPropertyOp41
 70
     1
102
RTVSPropertyOp42
 70
     1
102
RTVSPropertyOp43
 70
     1
102
RTVSPropertyOp44
 70
     1
102
RTVSPropertyOp45
 70
     1
102
RTVSPropertyOp46
 70
     1
102
RTVSPropertyOp47
 70
     1
102
RTVSPropertyOp48
 70
     1
102
RTVSPropertyOp49
 70
     1
102
RTVSPropertyOp50
 70
     1
102
RTVSPropertyOp51
 70
     0
102
RTVSPropertyOp52
 70
     0
102
RTVSPropertyOp53
 70
     1
102
RTVSPropertyOp54
 70
     1
102
RTVSPropertyOp55
 70
     1
102
RTVSPropertyOp56
 70
     1
102
RTVSPropertyOp57
 70
     1
102
RTVSPropertyOp58
 70
     1
102
RTVSPropertyOp59
 70
     1
102
RTVSPropertyOp60
 70
     1
102
RTVSPropertyOp61
 70
     1
102
RTVSPropertyOp62
 70
     1
  0
XRECORD
  5
5D7
102
{ACAD_REACTORS
330
5D6
102
}
330
5D6
100
AcDbXrecord
280
     1
102
RTVSPost2010Prop28
280
     0
102
RTVSPost2010PropOp28
 70
     1
102
RTVSPost2010Prop29
280
     1
102
RTVSPost2010PropOp29
 70
     1
102
RTVSPost2010Prop30
280
     1
102
RTVSPost2010PropOp30
 70
     1
102
RTVSPost2010Prop31
280
     0
102
RTVSPost2010PropOp31
 70
     1
102
RTVSPost2010Prop32
280
     0
102
RTVSPost2010PropOp32
 70
     1
102
RTVSPost2010Prop33
280
     0
102
RTVSPost2010PropOp33
 70
     1
102
RTVSPost2010Prop34
280
     0
102
RTVSPost2010PropOp34
 70
     1
102
RTVSPost2010Prop35
280
     0
102
RTVSPost2010PropOp35
 70
     1
102
RTVSPost2010Prop36
280
     0
102
RTVSPost2010PropOp36
 70
     1
102
RTVSPost2010Prop37
 90
       50
102
RTVSPost2010PropOp37
 70
     1
102
RTVSPost2010Prop38
140
0.0
102
RTVSPost2010PropOp38
 70
     1
102
RTVSPost2010Prop39
140
1.0
102
RTVSPost2010PropOp39
 70
     1
102
RTVSPost2010Prop40
 90
        0
102
RTVSPost2010PropOp40
 70
     1
102
RTVSPost2010Prop41ColorIndex
 90
       18
102
RTVSPost2010Prop41ColorRGB
 90
        0
102
RTVSPost2010PropOp41
 70
     1
102
RTVSPost2010Prop42
 90
       50
102
RTVSPost2010PropOp42
 70
     1
102
RTVSPost2010Prop43
 90
        3
102
RTVSPost2010PropOp43
 70
     1
102
RTVSPost2010Prop44ColorIndex
 90
        5
102
RTVSPost2010Prop44ColorRGB
 90
      255
102
RTVSPost2010PropOp44
 70
     1
102
RTVSPost2010Prop45
280
     0
102
RTVSPost2010PropOp45
 70
     1
102
RTVSPost2010Prop46
 90
       50
102
RTVSPost2010PropOp46
 70
     1
102
RTVSPost2010Prop47
 90
       50
102
RTVSPost2010PropOp47
 70
     1
102
RTVSPost2010Prop48
 90
       50
102
RTVSPost2010PropOp48
 70
     1
102
RTVSPost2010Prop49
280
     0
102
RTVSPost2010PropOp49
 70
     1
102
RTVSPost2010Prop50
 90
       50
102
RTVSPost2010PropOp50
 70
     1
102
RTVSPost2010Prop51ColorIndex
 90
      256
102
RTVSPost2010Prop51ColorRGB
 90
-16777216
102
RTVSPost2010PropOp51
 70
     0
102
RTVSPost2010Prop52
140
1.0
102
RTVSPost2010PropOp52
 70
     0
102
RTVSPost2010Prop53
 90
        2
102
RTVSPost2010PropOp53
 70
     1
102
RTVSPost2010Prop54
  1
strokes_ogs.tif
102
RTVSPost2010PropOp54
 70
     1
102
RTVSPost2010Prop55
280
     0
102
RTVSPost2010PropOp55
 70
     1
102
RTVSPost2010Prop56
140
1.0
102
RTVSPost2010PropOp56
 70
     1
102
RTVSPost2010Prop57
140
1.0
102
RTVSPost2010PropOp57
 70
     1
102
RTVSPropertyOp0
 70
     1
102
RTVSPropertyOp1
 70
     1
102
RTVSPropertyOp2
 70
     1
102
RTVSPropertyOp3
 70
     1
102
RTVSPropertyOp4
 70
     1
102
RTVSPropertyOp5
 70
     1
102
RTVSPropertyOp6
 70
     1
102
RTVSPropertyOp7
 70
     1
102
RTVSPropertyOp8
 70
     1
102
RTVSPropertyOp9
 70
     1
102
RTVSPropertyOp10
 70
     1
102
RTVSPropertyOp11
 70
     1
102
RTVSPropertyOp12
 70
     1
102
RTVSPropertyOp13
 70
     1
102
RTVSPropertyOp14
 70
     1
102
RTVSPropertyOp15
 70
     1
102
RTVSPropertyOp16
 70
     1
102
RTVSPropertyOp17
 70
     1
102
RTVSPropertyOp18
 70
     1
102
RTVSPropertyOp19
 70
     1
102
RTVSPropertyOp20
 70
     1
102
RTVSPropertyOp21
 70
     1
102
RTVSPropertyOp22
 70
     1
102
RTVSPropertyOp23
 70
     1
102
RTVSPropertyOp24
 70
     1
102
RTVSPropertyOp25
 70
     1
102
RTVSPropertyOp26
 70
     1
102
RTVSPropertyOp27
 70
     1
102
RTVSPropertyOp28
 70
     1
102
RTVSPropertyOp29
 70
     1
102
RTVSPropertyOp30
 70
     1
102
RTVSPropertyOp31
 70
     1
102
RTVSPropertyOp32
 70
     1
102
RTVSPropertyOp33
 70
     1
102
RTVSPropertyOp34
 70
     1
102
RTVSPropertyOp35
 70
     1
102
RTVSPropertyOp36
 70
     1
102
RTVSPropertyOp37
 70
     1
102
RTVSPropertyOp38
 70
     1
102
RTVSPropertyOp39
 70
     1
102
RTVSPropertyOp40
 70
     1
102
RTVSPropertyOp41
 70
     1
102
RTVSPropertyOp42
 70
     1
102
RTVSPropertyOp43
 70
     1
102
RTVSPropertyOp44
 70
     1
102
RTVSPropertyOp45
 70
     1
102
RTVSPropertyOp46
 70
     1
102
RTVSPropertyOp47
 70
     1
102
RTVSPropertyOp48
 70
     1
102
RTVSPropertyOp49
 70
     1
102
RTVSPropertyOp50
 70
     1
102
RTVSPropertyOp51
 70
     0
102
RTVSPropertyOp52
 70
     0
102
RTVSPropertyOp53
 70
     1
102
RTVSPropertyOp54
 70
     1
102
RTVSPropertyOp55
 70
     1
102
RTVSPropertyOp56
 70
     1
102
RTVSPropertyOp57
 70
     1
102
RTVSPropertyOp58
 70
     1
102
RTVSPropertyOp59
 70
     1
102
RTVSPropertyOp60
 70
     1
102
RTVSPropertyOp61
 70
     1
102
RTVSPropertyOp62
 70
     1
  0
XRECORD
  5
5D9
102
{ACAD_REACTORS
330
5D8
102
}
330
5D8
100
AcDbXrecord
280
     1
102
RTVSPost2010Prop28
280
     0
102
RTVSPost2010PropOp28
 70
     1
102
RTVSPost2010Prop29
280
     1
102
RTVSPost2010PropOp29
 70
     1
102
RTVSPost2010Prop30
280
     1
102
RTVSPost2010PropOp30
 70
     1
102
RTVSPost2010Prop31
280
     0
102
RTVSPost2010PropOp31
 70
     1
102
RTVSPost2010Prop32
280
     0
102
RTVSPost2010PropOp32
 70
     1
102
RTVSPost2010Prop33
280
     0
102
RTVSPost2010PropOp33
 70
     1
102
RTVSPost2010Prop34
280
     0
102
RTVSPost2010PropOp34
 70
     1
102
RTVSPost2010Prop35
280
     0
102
RTVSPost2010PropOp35
 70
     1
102
RTVSPost2010Prop36
280
     0
102
RTVSPost2010PropOp36
 70
     1
102
RTVSPost2010Prop37
 90
       50
102
RTVSPost2010PropOp37
 70
     1
102
RTVSPost2010Prop38
140
0.0
102
RTVSPost2010PropOp38
 70
     1
102
RTVSPost2010Prop39
140
1.0
102
RTVSPost2010PropOp39
 70
     1
102
RTVSPost2010Prop40
 90
        0
102
RTVSPost2010PropOp40
 70
     1
102
RTVSPost2010Prop41ColorIndex
 90
       18
102
RTVSPost2010Prop41ColorRGB
 90
        0
102
RTVSPost2010PropOp41
 70
     1
102
RTVSPost2010Prop42
 90
       50
102
RTVSPost2010PropOp42
 70
     1
102
RTVSPost2010Prop43
 90
        3
102
RTVSPost2010PropOp43
 70
     1
102
RTVSPost2010Prop44ColorIndex
 90
        5
102
RTVSPost2010Prop44ColorRGB
 90
      255
102
RTVSPost2010PropOp44
 70
     1
102
RTVSPost2010Prop45
280
     0
102
RTVSPost2010PropOp45
 70
     1
102
RTVSPost2010Prop46
 90
       50
102
RTVSPost2010PropOp46
 70
     1
102
RTVSPost2010Prop47
 90
       50
102
RTVSPost2010PropOp47
 70
     1
102
RTVSPost2010Prop48
 90
       50
102
RTVSPost2010PropOp48
 70
     1
102
RTVSPost2010Prop49
280
     0
102
RTVSPost2010PropOp49
 70
     1
102
RTVSPost2010Prop50
 90
       50
102
RTVSPost2010PropOp50
 70
     1
102
RTVSPost2010Prop51ColorIndex
 90
      256
102
RTVSPost2010Prop51ColorRGB
 90
-16777216
102
RTVSPost2010PropOp51
 70
     0
102
RTVSPost2010Prop52
140
1.0
102
RTVSPost2010PropOp52
 70
     0
102
RTVSPost2010Prop53
 90
        2
102
RTVSPost2010PropOp53
 70
     1
102
RTVSPost2010Prop54
  1
strokes_ogs.tif
102
RTVSPost2010PropOp54
 70
     1
102
RTVSPost2010Prop55
280
     0
102
RTVSPost2010PropOp55
 70
     1
102
RTVSPost2010Prop56
140
1.0
102
RTVSPost2010PropOp56
 70
     1
102
RTVSPost2010Prop57
140
1.0
102
RTVSPost2010PropOp57
 70
     1
102
RTVSPropertyOp0
 70
     1
102
RTVSPropertyOp1
 70
     1
102
RTVSPropertyOp2
 70
     1
102
RTVSPropertyOp3
 70
     1
102
RTVSPropertyOp4
 70
     1
102
RTVSPropertyOp5
 70
     1
102
RTVSPropertyOp6
 70
     1
102
RTVSPropertyOp7
 70
     1
102
RTVSPropertyOp8
 70
     1
102
RTVSPropertyOp9
 70
     1
102
RTVSPropertyOp10
 70
     1
102
RTVSPropertyOp11
 70
     1
102
RTVSPropertyOp12
 70
     1
102
RTVSPropertyOp13
 70
     1
102
RTVSPropertyOp14
 70
     1
102
RTVSPropertyOp15
 70
     1
102
RTVSPropertyOp16
 70
     1
102
RTVSPropertyOp17
 70
     1
102
RTVSPropertyOp18
 70
     1
102
RTVSPropertyOp19
 70
     1
102
RTVSPropertyOp20
 70
     1
102
RTVSPropertyOp21
 70
     1
102
RTVSPropertyOp22
 70
     1
102
RTVSPropertyOp23
 70
     1
102
RTVSPropertyOp24
 70
     1
102
RTVSPropertyOp25
 70
     1
102
RTVSPropertyOp26
 70
     1
102
RTVSPropertyOp27
 70
     1
102
RTVSPropertyOp28
 70
     1
102
RTVSPropertyOp29
 70
     1
102
RTVSPropertyOp30
 70
     1
102
RTVSPropertyOp31
 70
     1
102
RTVSPropertyOp32
 70
     1
102
RTVSPropertyOp33
 70
     1
102
RTVSPropertyOp34
 70
     1
102
RTVSPropertyOp35
 70
     1
102
RTVSPropertyOp36
 70
     1
102
RTVSPropertyOp37
 70
     1
102
RTVSPropertyOp38
 70
     1
102
RTVSPropertyOp39
 70
     1
102
RTVSPropertyOp40
 70
     1
102
RTVSPropertyOp41
 70
     1
102
RTVSPropertyOp42
 70
     1
102
RTVSPropertyOp43
 70
     1
102
RTVSPropertyOp44
 70
     1
102
RTVSPropertyOp45
 70
     1
102
RTVSPropertyOp46
 70
     1
102
RTVSPropertyOp47
 70
     1
102
RTVSPropertyOp48
 70
     1
102
RTVSPropertyOp49
 70
     1
102
RTVSPropertyOp50
 70
     1
102
RTVSPropertyOp51
 70
     0
102
RTVSPropertyOp52
 70
     0
102
RTVSPropertyOp53
 70
     1
102
RTVSPropertyOp54
 70
     1
102
RTVSPropertyOp55
 70
     1
102
RTVSPropertyOp56
 70
     1
102
RTVSPropertyOp57
 70
     1
102
RTVSPropertyOp58
 70
     1
102
RTVSPropertyOp59
 70
     1
102
RTVSPropertyOp60
 70
     1
102
RTVSPropertyOp61
 70
     1
102
RTVSPropertyOp62
 70
     1
  0
XRECORD
  5
5DB
102
{ACAD_REACTORS
330
5DA
102
}
330
5DA
100
AcDbXrecord
280
     1
102
RTVSPost2010Prop28
280
     0
102
RTVSPost2010PropOp28
 70
     1
102
RTVSPost2010Prop29
280
     1
102
RTVSPost2010PropOp29
 70
     1
102
RTVSPost2010Prop30
280
     1
102
RTVSPost2010PropOp30
 70
     1
102
RTVSPost2010Prop31
280
     0
102
RTVSPost2010PropOp31
 70
     1
102
RTVSPost2010Prop32
280
     0
102
RTVSPost2010PropOp32
 70
     1
102
RTVSPost2010Prop33
280
     0
102
RTVSPost2010PropOp33
 70
     1
102
RTVSPost2010Prop34
280
     0
102
RTVSPost2010PropOp34
 70
     1
102
RTVSPost2010Prop35
280
     0
102
RTVSPost2010PropOp35
 70
     1
102
RTVSPost2010Prop36
280
     0
102
RTVSPost2010PropOp36
 70
     1
102
RTVSPost2010Prop37
 90
       50
102
RTVSPost2010PropOp37
 70
     1
102
RTVSPost2010Prop38
140
0.0
102
RTVSPost2010PropOp38
 70
     1
102
RTVSPost2010Prop39
140
1.0
102
RTVSPost2010PropOp39
 70
     1
102
RTVSPost2010Prop40
 90
        0
102
RTVSPost2010PropOp40
 70
     1
102
RTVSPost2010Prop41ColorIndex
 90
       18
102
RTVSPost2010Prop41ColorRGB
 90
        0
102
RTVSPost2010PropOp41
 70
     1
102
RTVSPost2010Prop42
 90
       50
102
RTVSPost2010PropOp42
 70
     1
102
RTVSPost2010Prop43
 90
        3
102
RTVSPost2010PropOp43
 70
     1
102
RTVSPost2010Prop44ColorIndex
 90
        5
102
RTVSPost2010Prop44ColorRGB
 90
      255
102
RTVSPost2010PropOp44
 70
     1
102
RTVSPost2010Prop45
280
     0
102
RTVSPost2010PropOp45
 70
     1
102
RTVSPost2010Prop46
 90
       50
102
RTVSPost2010PropOp46
 70
     1
102
RTVSPost2010Prop47
 90
       50
102
RTVSPost2010PropOp47
 70
     1
102
RTVSPost2010Prop48
 90
       50
102
RTVSPost2010PropOp48
 70
     1
102
RTVSPost2010Prop49
280
     0
102
RTVSPost2010PropOp49
 70
     1
102
RTVSPost2010Prop50
 90
       50
102
RTVSPost2010PropOp50
 70
     1
102
RTVSPost2010Prop51ColorIndex
 90
      256
102
RTVSPost2010Prop51ColorRGB
 90
-16777216
102
RTVSPost2010PropOp51
 70
     0
102
RTVSPost2010Prop52
140
1.0
102
RTVSPost2010PropOp52
 70
     0
102
RTVSPost2010Prop53
 90
        2
102
RTVSPost2010PropOp53
 70
     1
102
RTVSPost2010Prop54
  1
strokes_ogs.tif
102
RTVSPost2010PropOp54
 70
     1
102
RTVSPost2010Prop55
280
     0
102
RTVSPost2010PropOp55
 70
     1
102
RTVSPost2010Prop56
140
1.0
102
RTVSPost2010PropOp56
 70
     1
102
RTVSPost2010Prop57
140
1.0
102
RTVSPost2010PropOp57
 70
     1
102
RTVSPropertyOp0
 70
     1
102
RTVSPropertyOp1
 70
     1
102
RTVSPropertyOp2
 70
     1
102
RTVSPropertyOp3
 70
     1
102
RTVSPropertyOp4
 70
     1
102
RTVSPropertyOp5
 70
     1
102
RTVSPropertyOp6
 70
     1
102
RTVSPropertyOp7
 70
     1
102
RTVSPropertyOp8
 70
     1
102
RTVSPropertyOp9
 70
     1
102
RTVSPropertyOp10
 70
     1
102
RTVSPropertyOp11
 70
     1
102
RTVSPropertyOp12
 70
     1
102
RTVSPropertyOp13
 70
     1
102
RTVSPropertyOp14
 70
     1
102
RTVSPropertyOp15
 70
     1
102
RTVSPropertyOp16
 70
     1
102
RTVSPropertyOp17
 70
     1
102
RTVSPropertyOp18
 70
     1
102
RTVSPropertyOp19
 70
     1
102
RTVSPropertyOp20
 70
     1
102
RTVSPropertyOp21
 70
     1
102
RTVSPropertyOp22
 70
     1
102
RTVSPropertyOp23
 70
     1
102
RTVSPropertyOp24
 70
     1
102
RTVSPropertyOp25
 70
     1
102
RTVSPropertyOp26
 70
     1
102
RTVSPropertyOp27
 70
     1
102
RTVSPropertyOp28
 70
     1
102
RTVSPropertyOp29
 70
     1
102
RTVSPropertyOp30
 70
     1
102
RTVSPropertyOp31
 70
     1
102
RTVSPropertyOp32
 70
     1
102
RTVSPropertyOp33
 70
     1
102
RTVSPropertyOp34
 70
     1
102
RTVSPropertyOp35
 70
     1
102
RTVSPropertyOp36
 70
     1
102
RTVSPropertyOp37
 70
     1
102
RTVSPropertyOp38
 70
     1
102
RTVSPropertyOp39
 70
     1
102
RTVSPropertyOp40
 70
     1
102
RTVSPropertyOp41
 70
     1
102
RTVSPropertyOp42
 70
     1
102
RTVSPropertyOp43
 70
     1
102
RTVSPropertyOp44
 70
     1
102
RTVSPropertyOp45
 70
     1
102
RTVSPropertyOp46
 70
     1
102
RTVSPropertyOp47
 70
     1
102
RTVSPropertyOp48
 70
     1
102
RTVSPropertyOp49
 70
     1
102
RTVSPropertyOp50
 70
     1
102
RTVSPropertyOp51
 70
     0
102
RTVSPropertyOp52
 70
     0
102
RTVSPropertyOp53
 70
     1
102
RTVSPropertyOp54
 70
     1
102
RTVSPropertyOp55
 70
     1
102
RTVSPropertyOp56
 70
     1
102
RTVSPropertyOp57
 70
     1
102
RTVSPropertyOp58
 70
     1
102
RTVSPropertyOp59
 70
     1
102
RTVSPropertyOp60
 70
     1
102
RTVSPropertyOp61
 70
     1
102
RTVSPropertyOp62
 70
     1
  0
XRECORD
  5
5E3
102
{ACAD_REACTORS
330
5E2
102
}
330
5E2
100
AcDbXrecord
280
     1
102
RTVSPost2010Prop28
280
     0
102
RTVSPost2010PropOp28
 70
     1
102
RTVSPost2010Prop29
280
     1
102
RTVSPost2010PropOp29
 70
     1
102
RTVSPost2010Prop30
280
     1
102
RTVSPost2010PropOp30
 70
     1
102
RTVSPost2010Prop31
280
     0
102
RTVSPost2010PropOp31
 70
     1
102
RTVSPost2010Prop32
280
     0
102
RTVSPost2010PropOp32
 70
     1
102
RTVSPost2010Prop33
280
     0
102
RTVSPost2010PropOp33
 70
     1
102
RTVSPost2010Prop34
280
     0
102
RTVSPost2010PropOp34
 70
     1
102
RTVSPost2010Prop35
280
     0
102
RTVSPost2010PropOp35
 70
     1
102
RTVSPost2010Prop36
280
     0
102
RTVSPost2010PropOp36
 70
     1
102
RTVSPost2010Prop37
 90
       50
102
RTVSPost2010PropOp37
 70
     1
102
RTVSPost2010Prop38
140
0.0
102
RTVSPost2010PropOp38
 70
     1
102
RTVSPost2010Prop39
140
1.0
102
RTVSPost2010PropOp39
 70
     1
102
RTVSPost2010Prop40
 90
        0
102
RTVSPost2010PropOp40
 70
     1
102
RTVSPost2010Prop41ColorIndex
 90
       18
102
RTVSPost2010Prop41ColorRGB
 90
        0
102
RTVSPost2010PropOp41
 70
     1
102
RTVSPost2010Prop42
 90
       50
102
RTVSPost2010PropOp42
 70
     1
102
RTVSPost2010Prop43
 90
        3
102
RTVSPost2010PropOp43
 70
     1
102
RTVSPost2010Prop44ColorIndex
 90
        5
102
RTVSPost2010Prop44ColorRGB
 90
      255
102
RTVSPost2010PropOp44
 70
     1
102
RTVSPost2010Prop45
280
     0
102
RTVSPost2010PropOp45
 70
     1
102
RTVSPost2010Prop46
 90
       50
102
RTVSPost2010PropOp46
 70
     1
102
RTVSPost2010Prop47
 90
       50
102
RTVSPost2010PropOp47
 70
     1
102
RTVSPost2010Prop48
 90
       50
102
RTVSPost2010PropOp48
 70
     1
102
RTVSPost2010Prop49
280
     0
102
RTVSPost2010PropOp49
 70
     1
102
RTVSPost2010Prop50
 90
       50
102
RTVSPost2010PropOp50
 70
     1
102
RTVSPost2010Prop51ColorIndex
 90
      256
102
RTVSPost2010Prop51ColorRGB
 90
-16777216
102
RTVSPost2010PropOp51
 70
     0
102
RTVSPost2010Prop52
140
1.0
102
RTVSPost2010PropOp52
 70
     0
102
RTVSPost2010Prop53
 90
        2
102
RTVSPost2010PropOp53
 70
     1
102
RTVSPost2010Prop54
  1
strokes_ogs.tif
102
RTVSPost2010PropOp54
 70
     1
102
RTVSPost2010Prop55
280
     0
102
RTVSPost2010PropOp55
 70
     1
102
RTVSPost2010Prop56
140
1.0
102
RTVSPost2010PropOp56
 70
     1
102
RTVSPost2010Prop57
140
1.0
102
RTVSPost2010PropOp57
 70
     1
102
RTVSPropertyOp0
 70
     1
102
RTVSPropertyOp1
 70
     1
102
RTVSPropertyOp2
 70
     1
102
RTVSPropertyOp3
 70
     1
102
RTVSPropertyOp4
 70
     1
102
RTVSPropertyOp5
 70
     1
102
RTVSPropertyOp6
 70
     1
102
RTVSPropertyOp7
 70
     1
102
RTVSPropertyOp8
 70
     1
102
RTVSPropertyOp9
 70
     1
102
RTVSPropertyOp10
 70
     1
102
RTVSPropertyOp11
 70
     1
102
RTVSPropertyOp12
 70
     1
102
RTVSPropertyOp13
 70
     1
102
RTVSPropertyOp14
 70
     1
102
RTVSPropertyOp15
 70
     1
102
RTVSPropertyOp16
 70
     1
102
RTVSPropertyOp17
 70
     1
102
RTVSPropertyOp18
 70
     1
102
RTVSPropertyOp19
 70
     1
102
RTVSPropertyOp20
 70
     1
102
RTVSPropertyOp21
 70
     1
102
RTVSPropertyOp22
 70
     1
102
RTVSPropertyOp23
 70
     1
102
RTVSPropertyOp24
 70
     1
102
RTVSPropertyOp25
 70
     1
102
RTVSPropertyOp26
 70
     1
102
RTVSPropertyOp27
 70
     1
102
RTVSPropertyOp28
 70
     1
102
RTVSPropertyOp29
 70
     1
102
RTVSPropertyOp30
 70
     1
102
RTVSPropertyOp31
 70
     1
102
RTVSPropertyOp32
 70
     1
102
RTVSPropertyOp33
 70
     1
102
RTVSPropertyOp34
 70
     1
102
RTVSPropertyOp35
 70
     1
102
RTVSPropertyOp36
 70
     1
102
RTVSPropertyOp37
 70
     1
102
RTVSPropertyOp38
 70
     1
102
RTVSPropertyOp39
 70
     1
102
RTVSPropertyOp40
 70
     1
102
RTVSPropertyOp41
 70
     1
102
RTVSPropertyOp42
 70
     1
102
RTVSPropertyOp43
 70
     1
102
RTVSPropertyOp44
 70
     1
102
RTVSPropertyOp45
 70
     1
102
RTVSPropertyOp46
 70
     1
102
RTVSPropertyOp47
 70
     1
102
RTVSPropertyOp48
 70
     1
102
RTVSPropertyOp49
 70
     1
102
RTVSPropertyOp50
 70
     1
102
RTVSPropertyOp51
 70
     0
102
RTVSPropertyOp52
 70
     0
102
RTVSPropertyOp53
 70
     1
102
RTVSPropertyOp54
 70
     1
102
RTVSPropertyOp55
 70
     1
102
RTVSPropertyOp56
 70
     1
102
RTVSPropertyOp57
 70
     1
102
RTVSPropertyOp58
 70
     1
102
RTVSPropertyOp59
 70
     1
102
RTVSPropertyOp60
 70
     1
102
RTVSPropertyOp61
 70
     1
102
RTVSPropertyOp62
 70
     1
  0
XRECORD
  5
5FF
102
{ACAD_REACTORS
330
5FE
102
}
330
5FE
100
AcDbXrecord
280
     1
102
RTVSPost2010Prop28
280
     0
102
RTVSPost2010PropOp28
 70
     1
102
RTVSPost2010Prop29
280
     1
102
RTVSPost2010PropOp29
 70
     1
102
RTVSPost2010Prop30
280
     1
102
RTVSPost2010PropOp30
 70
     1
102
RTVSPost2010Prop31
280
     0
102
RTVSPost2010PropOp31
 70
     1
102
RTVSPost2010Prop32
280
     0
102
RTVSPost2010PropOp32
 70
     1
102
RTVSPost2010Prop33
280
     0
102
RTVSPost2010PropOp33
 70
     1
102
RTVSPost2010Prop34
280
     0
102
RTVSPost2010PropOp34
 70
     1
102
RTVSPost2010Prop35
280
     0
102
RTVSPost2010PropOp35
 70
     1
102
RTVSPost2010Prop36
280
     0
102
RTVSPost2010PropOp36
 70
     1
102
RTVSPost2010Prop37
 90
       50
102
RTVSPost2010PropOp37
 70
     0
102
RTVSPost2010Prop38
140
0.0
102
RTVSPost2010PropOp38
 70
     0
102
RTVSPost2010Prop39
140
1.0
102
RTVSPost2010PropOp39
 70
     0
102
RTVSPost2010Prop40
 90
        0
102
RTVSPost2010PropOp40
 70
     0
102
RTVSPost2010Prop41ColorIndex
 90
       18
102
RTVSPost2010Prop41ColorRGB
 90
        0
102
RTVSPost2010PropOp41
 70
     0
102
RTVSPost2010Prop42
 90
       50
102
RTVSPost2010PropOp42
 70
     0
102
RTVSPost2010Prop43
 90
        3
102
RTVSPost2010PropOp43
 70
     0
102
RTVSPost2010Prop44ColorIndex
 90
        5
102
RTVSPost2010Prop44ColorRGB
 90
      255
102
RTVSPost2010PropOp44
 70
     0
102
RTVSPost2010Prop45
280
     0
102
RTVSPost2010PropOp45
 70
     1
102
RTVSPost2010Prop46
 90
       50
102
RTVSPost2010PropOp46
 70
     0
102
RTVSPost2010Prop47
 90
       50
102
RTVSPost2010PropOp47
 70
     0
102
RTVSPost2010Prop48
 90
       50
102
RTVSPost2010PropOp48
 70
     0
102
RTVSPost2010Prop49
280
     0
102
RTVSPost2010PropOp49
 70
     1
102
RTVSPost2010Prop50
 90
       50
102
RTVSPost2010PropOp50
 70
     0
102
RTVSPost2010Prop51ColorIndex
 90
      256
102
RTVSPost2010Prop51ColorRGB
 90
-16777216
102
RTVSPost2010PropOp51
 70
     0
102
RTVSPost2010Prop52
140
1.0
102
RTVSPost2010PropOp52
 70
     0
102
RTVSPost2010Prop53
 90
        2
102
RTVSPost2010PropOp53
 70
     0
102
RTVSPost2010Prop54
  1
strokes_ogs.tif
102
RTVSPost2010PropOp54
 70
     0
102
RTVSPost2010Prop55
280
     0
102
RTVSPost2010PropOp55
 70
     1
102
RTVSPost2010Prop56
140
1.0
102
RTVSPost2010PropOp56
 70
     0
102
RTVSPost2010Prop57
140
1.0
102
RTVSPost2010PropOp57
 70
     0
102
RTVSPropertyOp0
 70
     0
102
RTVSPropertyOp1
 70
     0
102
RTVSPropertyOp2
 70
     0
102
RTVSPropertyOp3
 70
     0
102
RTVSPropertyOp4
 70
     0
102
RTVSPropertyOp5
 70
     0
102
RTVSPropertyOp6
 70
     0
102
RTVSPropertyOp7
 70
     0
102
RTVSPropertyOp8
 70
     0
102
RTVSPropertyOp9
 70
     0
102
RTVSPropertyOp10
 70
     0
102
RTVSPropertyOp11
 70
     0
102
RTVSPropertyOp12
 70
     0
102
RTVSPropertyOp13
 70
     0
102
RTVSPropertyOp14
 70
     2
102
RTVSPropertyOp15
 70
     0
102
RTVSPropertyOp16
 70
     0
102
RTVSPropertyOp17
 70
     0
102
RTVSPropertyOp18
 70
     0
102
RTVSPropertyOp19
 70
     0
102
RTVSPropertyOp20
 70
     0
102
RTVSPropertyOp21
 70
     0
102
RTVSPropertyOp22
 70
     0
102
RTVSPropertyOp23
 70
     0
102
RTVSPropertyOp24
 70
     0
102
RTVSPropertyOp25
 70
     0
102
RTVSPropertyOp26
 70
     0
102
RTVSPropertyOp27
 70
     0
102
RTVSPropertyOp28
 70
     1
102
RTVSPropertyOp29
 70
     1
102
RTVSPropertyOp30
 70
     1
102
RTVSPropertyOp31
 70
     1
102
RTVSPropertyOp32
 70
     1
102
RTVSPropertyOp33
 70
     1
102
RTVSPropertyOp34
 70
     1
102
RTVSPropertyOp35
 70
     1
102
RTVSPropertyOp36
 70
     1
102
RTVSPropertyOp37
 70
     0
102
RTVSPropertyOp38
 70
     0
102
RTVSPropertyOp39
 70
     0
102
RTVSPropertyOp40
 70
     0
102
RTVSPropertyOp41
 70
     0
102
RTVSPropertyOp42
 70
     0
102
RTVSPropertyOp43
 70
     0
102
RTVSPropertyOp44
 70
     0
102
RTVSPropertyOp45
 70
     1
102
RTVSPropertyOp46
 70
     0
102
RTVSPropertyOp47
 70
     0
102
RTVSPropertyOp48
 70
     0
102
RTVSPropertyOp49
 70
     1
102
RTVSPropertyOp50
 70
     0
102
RTVSPropertyOp51
 70
     0
102
RTVSPropertyOp52
 70
     0
102
RTVSPropertyOp53
 70
     0
102
RTVSPropertyOp54
 70
     0
102
RTVSPropertyOp55
 70
     1
102
RTVSPropertyOp56
 70
     0
102
RTVSPropertyOp57
 70
     0
102
RTVSPropertyOp58
 70
     0
102
RTVSPropertyOp59
 70
     0
102
RTVSPropertyOp60
 70
     0
102
RTVSPropertyOp61
 70
     0
102
RTVSPropertyOp62
 70
     0
  0
XRECORD
  5
5EF
102
{ACAD_REACTORS
330
5EE
102
}
330
5EE
100
AcDbXrecord
280
     1
102
RTVSPost2010Prop28
280
     0
102
RTVSPost2010PropOp28
 70
     1
102
RTVSPost2010Prop29
280
     1
102
RTVSPost2010PropOp29
 70
     1
102
RTVSPost2010Prop30
280
     1
102
RTVSPost2010PropOp30
 70
     1
102
RTVSPost2010Prop31
280
     0
102
RTVSPost2010PropOp31
 70
     1
102
RTVSPost2010Prop32
280
     0
102
RTVSPost2010PropOp32
 70
     1
102
RTVSPost2010Prop33
280
     0
102
RTVSPost2010PropOp33
 70
     1
102
RTVSPost2010Prop34
280
     0
102
RTVSPost2010PropOp34
 70
     1
102
RTVSPost2010Prop35
280
     0
102
RTVSPost2010PropOp35
 70
     1
102
RTVSPost2010Prop36
280
     0
102
RTVSPost2010PropOp36
 70
     1
102
RTVSPost2010Prop37
 90
       50
102
RTVSPost2010PropOp37
 70
     1
102
RTVSPost2010Prop38
140
0.0
102
RTVSPost2010PropOp38
 70
     1
102
RTVSPost2010Prop39
140
1.0
102
RTVSPost2010PropOp39
 70
     1
102
RTVSPost2010Prop40
 90
        0
102
RTVSPost2010PropOp40
 70
     1
102
RTVSPost2010Prop41ColorIndex
 90
       18
102
RTVSPost2010Prop41ColorRGB
 90
        0
102
RTVSPost2010PropOp41
 70
     1
102
RTVSPost2010Prop42
 90
       50
102
RTVSPost2010PropOp42
 70
     1
102
RTVSPost2010Prop43
 90
        3
102
RTVSPost2010PropOp43
 70
     1
102
RTVSPost2010Prop44ColorIndex
 90
        5
102
RTVSPost2010Prop44ColorRGB
 90
      255
102
RTVSPost2010PropOp44
 70
     1
102
RTVSPost2010Prop45
280
     0
102
RTVSPost2010PropOp45
 70
     1
102
RTVSPost2010Prop46
 90
       50
102
RTVSPost2010PropOp46
 70
     1
102
RTVSPost2010Prop47
 90
       50
102
RTVSPost2010PropOp47
 70
     1
102
RTVSPost2010Prop48
 90
       50
102
RTVSPost2010PropOp48
 70
     1
102
RTVSPost2010Prop49
280
     0
102
RTVSPost2010PropOp49
 70
     1
102
RTVSPost2010Prop50
 90
       50
102
RTVSPost2010PropOp50
 70
     1
102
RTVSPost2010Prop51ColorIndex
 90
      256
102
RTVSPost2010Prop51ColorRGB
 90
-16777216
102
RTVSPost2010PropOp51
 70
     0
102
RTVSPost2010Prop52
140
1.0
102
RTVSPost2010PropOp52
 70
     0
102
RTVSPost2010Prop53
 90
        2
102
RTVSPost2010PropOp53
 70
     1
102
RTVSPost2010Prop54
  1
strokes_ogs.tif
102
RTVSPost2010PropOp54
 70
     1
102
RTVSPost2010Prop55
280
     0
102
RTVSPost2010PropOp55
 70
     1
102
RTVSPost2010Prop56
140
1.0
102
RTVSPost2010PropOp56
 70
     1
102
RTVSPost2010Prop57
140
1.0
102
RTVSPost2010PropOp57
 70
     1
102
RTVSPropertyOp0
 70
     1
102
RTVSPropertyOp1
 70
     1
102
RTVSPropertyOp2
 70
     1
102
RTVSPropertyOp3
 70
     1
102
RTVSPropertyOp4
 70
     1
102
RTVSPropertyOp5
 70
     1
102
RTVSPropertyOp6
 70
     1
102
RTVSPropertyOp7
 70
     1
102
RTVSPropertyOp8
 70
     1
102
RTVSPropertyOp9
 70
     1
102
RTVSPropertyOp10
 70
     1
102
RTVSPropertyOp11
 70
     1
102
RTVSPropertyOp12
 70
     1
102
RTVSPropertyOp13
 70
     1
102
RTVSPropertyOp14
 70
     1
102
RTVSPropertyOp15
 70
     1
102
RTVSPropertyOp16
 70
     1
102
RTVSPropertyOp17
 70
     1
102
RTVSPropertyOp18
 70
     1
102
RTVSPropertyOp19
 70
     1
102
RTVSPropertyOp20
 70
     1
102
RTVSPropertyOp21
 70
     1
102
RTVSPropertyOp22
 70
     1
102
RTVSPropertyOp23
 70
     1
102
RTVSPropertyOp24
 70
     1
102
RTVSPropertyOp25
 70
     1
102
RTVSPropertyOp26
 70
     1
102
RTVSPropertyOp27
 70
     1
102
RTVSPropertyOp28
 70
     1
102
RTVSPropertyOp29
 70
     1
102
RTVSPropertyOp30
 70
     1
102
RTVSPropertyOp31
 70
     1
102
RTVSPropertyOp32
 70
     1
102
RTVSPropertyOp33
 70
     1
102
RTVSPropertyOp34
 70
     1
102
RTVSPropertyOp35
 70
     1
102
RTVSPropertyOp36
 70
     1
102
RTVSPropertyOp37
 70
     1
102
RTVSPropertyOp38
 70
     1
102
RTVSPropertyOp39
 70
     1
102
RTVSPropertyOp40
 70
     1
102
RTVSPropertyOp41
 70
     1
102
RTVSPropertyOp42
 70
     1
102
RTVSPropertyOp43
 70
     1
102
RTVSPropertyOp44
 70
     1
102
RTVSPropertyOp45
 70
     1
102
RTVSPropertyOp46
 70
     1
102
RTVSPropertyOp47
 70
     1
102
RTVSPropertyOp48
 70
     1
102
RTVSPropertyOp49
 70
     1
102
RTVSPropertyOp50
 70
     1
102
RTVSPropertyOp51
 70
     0
102
RTVSPropertyOp52
 70
     0
102
RTVSPropertyOp53
 70
     1
102
RTVSPropertyOp54
 70
     1
102
RTVSPropertyOp55
 70
     1
102
RTVSPropertyOp56
 70
     1
102
RTVSPropertyOp57
 70
     1
102
RTVSPropertyOp58
 70
     1
102
RTVSPropertyOp59
 70
     1
102
RTVSPropertyOp60
 70
     1
102
RTVSPropertyOp61
 70
     1
102
RTVSPropertyOp62
 70
     1
  0
XRECORD
  5
601
102
{ACAD_REACTORS
330
600
102
}
330
600
100
AcDbXrecord
280
     1
102
RTVSPost2010Prop28
280
     0
102
RTVSPost2010PropOp28
 70
     1
102
RTVSPost2010Prop29
280
     1
102
RTVSPost2010PropOp29
 70
     1
102
RTVSPost2010Prop30
280
     1
102
RTVSPost2010PropOp30
 70
     1
102
RTVSPost2010Prop31
280
     0
102
RTVSPost2010PropOp31
 70
     1
102
RTVSPost2010Prop32
280
     0
102
RTVSPost2010PropOp32
 70
     1
102
RTVSPost2010Prop33
280
     0
102
RTVSPost2010PropOp33
 70
     1
102
RTVSPost2010Prop34
280
     0
102
RTVSPost2010PropOp34
 70
     1
102
RTVSPost2010Prop35
280
     0
102
RTVSPost2010PropOp35
 70
     1
102
RTVSPost2010Prop36
280
     0
102
RTVSPost2010PropOp36
 70
     1
102
RTVSPost2010Prop37
 90
       50
102
RTVSPost2010PropOp37
 70
     0
102
RTVSPost2010Prop38
140
0.0
102
RTVSPost2010PropOp38
 70
     0
102
RTVSPost2010Prop39
140
1.0
102
RTVSPost2010PropOp39
 70
     0
102
RTVSPost2010Prop40
 90
        0
102
RTVSPost2010PropOp40
 70
     0
102
RTVSPost2010Prop41ColorIndex
 90
       18
102
RTVSPost2010Prop41ColorRGB
 90
        0
102
RTVSPost2010PropOp41
 70
     0
102
RTVSPost2010Prop42
 90
       50
102
RTVSPost2010PropOp42
 70
     0
102
RTVSPost2010Prop43
 90
        3
102
RTVSPost2010PropOp43
 70
     0
102
RTVSPost2010Prop44ColorIndex
 90
        5
102
RTVSPost2010Prop44ColorRGB
 90
      255
102
RTVSPost2010PropOp44
 70
     0
102
RTVSPost2010Prop45
280
     0
102
RTVSPost2010PropOp45
 70
     1
102
RTVSPost2010Prop46
 90
       50
102
RTVSPost2010PropOp46
 70
     0
102
RTVSPost2010Prop47
 90
       50
102
RTVSPost2010PropOp47
 70
     0
102
RTVSPost2010Prop48
 90
       50
102
RTVSPost2010PropOp48
 70
     0
102
RTVSPost2010Prop49
280
     0
102
RTVSPost2010PropOp49
 70
     1
102
RTVSPost2010Prop50
 90
       50
102
RTVSPost2010PropOp50
 70
     0
102
RTVSPost2010Prop51ColorIndex
 90
      256
102
RTVSPost2010Prop51ColorRGB
 90
-16777216
102
RTVSPost2010PropOp51
 70
     0
102
RTVSPost2010Prop52
140
1.0
102
RTVSPost2010PropOp52
 70
     0
102
RTVSPost2010Prop53
 90
        2
102
RTVSPost2010PropOp53
 70
     0
102
RTVSPost2010Prop54
  1
strokes_ogs.tif
102
RTVSPost2010PropOp54
 70
     0
102
RTVSPost2010Prop55
280
     0
102
RTVSPost2010PropOp55
 70
     1
102
RTVSPost2010Prop56
140
1.0
102
RTVSPost2010PropOp56
 70
     0
102
RTVSPost2010Prop57
140
1.0
102
RTVSPost2010PropOp57
 70
     0
102
RTVSPropertyOp0
 70
     0
102
RTVSPropertyOp1
 70
     0
102
RTVSPropertyOp2
 70
     0
102
RTVSPropertyOp3
 70
     0
102
RTVSPropertyOp4
 70
     0
102
RTVSPropertyOp5
 70
     0
102
RTVSPropertyOp6
 70
     0
102
RTVSPropertyOp7
 70
     0
102
RTVSPropertyOp8
 70
     0
102
RTVSPropertyOp9
 70
     0
102
RTVSPropertyOp10
 70
     0
102
RTVSPropertyOp11
 70
     0
102
RTVSPropertyOp12
 70
     0
102
RTVSPropertyOp13
 70
     0
102
RTVSPropertyOp14
 70
     2
102
RTVSPropertyOp15
 70
     0
102
RTVSPropertyOp16
 70
     0
102
RTVSPropertyOp17
 70
     0
102
RTVSPropertyOp18
 70
     0
102
RTVSPropertyOp19
 70
     0
102
RTVSPropertyOp20
 70
     0
102
RTVSPropertyOp21
 70
     0
102
RTVSPropertyOp22
 70
     0
102
RTVSPropertyOp23
 70
     0
102
RTVSPropertyOp24
 70
     0
102
RTVSPropertyOp25
 70
     0
102
RTVSPropertyOp26
 70
     0
102
RTVSPropertyOp27
 70
     0
102
RTVSPropertyOp28
 70
     1
102
RTVSPropertyOp29
 70
     1
102
RTVSPropertyOp30
 70
     1
102
RTVSPropertyOp31
 70
     1
102
RTVSPropertyOp32
 70
     1
102
RTVSPropertyOp33
 70
     1
102
RTVSPropertyOp34
 70
     1
102
RTVSPropertyOp35
 70
     1
102
RTVSPropertyOp36
 70
     1
102
RTVSPropertyOp37
 70
     0
102
RTVSPropertyOp38
 70
     0
102
RTVSPropertyOp39
 70
     0
102
RTVSPropertyOp40
 70
     0
102
RTVSPropertyOp41
 70
     0
102
RTVSPropertyOp42
 70
     0
102
RTVSPropertyOp43
 70
     0
102
RTVSPropertyOp44
 70
     0
102
RTVSPropertyOp45
 70
     1
102
RTVSPropertyOp46
 70
     0
102
RTVSPropertyOp47
 70
     0
102
RTVSPropertyOp48
 70
     0
102
RTVSPropertyOp49
 70
     1
102
RTVSPropertyOp50
 70
     0
102
RTVSPropertyOp51
 70
     0
102
RTVSPropertyOp52
 70
     0
102
RTVSPropertyOp53
 70
     0
102
RTVSPropertyOp54
 70
     0
102
RTVSPropertyOp55
 70
     1
102
RTVSPropertyOp56
 70
     0
102
RTVSPropertyOp57
 70
     0
102
RTVSPropertyOp58
 70
     0
102
RTVSPropertyOp59
 70
     0
102
RTVSPropertyOp60
 70
     0
102
RTVSPropertyOp61
 70
     0
102
RTVSPropertyOp62
 70
     0
  0
XRECORD
  5
5E7
102
{ACAD_REACTORS
330
5E6
102
}
330
5E6
100
AcDbXrecord
280
     1
102
RTVSPost2010Prop28
280
     0
102
RTVSPost2010PropOp28
 70
     1
102
RTVSPost2010Prop29
280
     1
102
RTVSPost2010PropOp29
 70
     1
102
RTVSPost2010Prop30
280
     1
102
RTVSPost2010PropOp30
 70
     1
102
RTVSPost2010Prop31
280
     0
102
RTVSPost2010PropOp31
 70
     1
102
RTVSPost2010Prop32
280
     0
102
RTVSPost2010PropOp32
 70
     1
102
RTVSPost2010Prop33
280
     0
102
RTVSPost2010PropOp33
 70
     1
102
RTVSPost2010Prop34
280
     0
102
RTVSPost2010PropOp34
 70
     1
102
RTVSPost2010Prop35
280
     0
102
RTVSPost2010PropOp35
 70
     1
102
RTVSPost2010Prop36
280
     0
102
RTVSPost2010PropOp36
 70
     1
102
RTVSPost2010Prop37
 90
       50
102
RTVSPost2010PropOp37
 70
     1
102
RTVSPost2010Prop38
140
0.0
102
RTVSPost2010PropOp38
 70
     1
102
RTVSPost2010Prop39
140
1.0
102
RTVSPost2010PropOp39
 70
     1
102
RTVSPost2010Prop40
 90
        0
102
RTVSPost2010PropOp40
 70
     1
102
RTVSPost2010Prop41ColorIndex
 90
       18
102
RTVSPost2010Prop41ColorRGB
 90
        0
102
RTVSPost2010PropOp41
 70
     1
102
RTVSPost2010Prop42
 90
       50
102
RTVSPost2010PropOp42
 70
     1
102
RTVSPost2010Prop43
 90
        3
102
RTVSPost2010PropOp43
 70
     1
102
RTVSPost2010Prop44ColorIndex
 90
        5
102
RTVSPost2010Prop44ColorRGB
 90
      255
102
RTVSPost2010PropOp44
 70
     1
102
RTVSPost2010Prop45
280
     0
102
RTVSPost2010PropOp45
 70
     1
102
RTVSPost2010Prop46
 90
       50
102
RTVSPost2010PropOp46
 70
     1
102
RTVSPost2010Prop47
 90
       50
102
RTVSPost2010PropOp47
 70
     1
102
RTVSPost2010Prop48
 90
       50
102
RTVSPost2010PropOp48
 70
     1
102
RTVSPost2010Prop49
280
     0
102
RTVSPost2010PropOp49
 70
     1
102
RTVSPost2010Prop50
 90
       50
102
RTVSPost2010PropOp50
 70
     1
102
RTVSPost2010Prop51ColorIndex
 90
      256
102
RTVSPost2010Prop51ColorRGB
 90
-16777216
102
RTVSPost2010PropOp51
 70
     0
102
RTVSPost2010Prop52
140
1.0
102
RTVSPost2010PropOp52
 70
     0
102
RTVSPost2010Prop53
 90
        2
102
RTVSPost2010PropOp53
 70
     1
102
RTVSPost2010Prop54
  1
strokes_ogs.tif
102
RTVSPost2010PropOp54
 70
     1
102
RTVSPost2010Prop55
280
     0
102
RTVSPost2010PropOp55
 70
     1
102
RTVSPost2010Prop56
140
1.0
102
RTVSPost2010PropOp56
 70
     1
102
RTVSPost2010Prop57
140
1.0
102
RTVSPost2010PropOp57
 70
     1
102
RTVSPropertyOp0
 70
     1
102
RTVSPropertyOp1
 70
     1
102
RTVSPropertyOp2
 70
     1
102
RTVSPropertyOp3
 70
     1
102
RTVSPropertyOp4
 70
     1
102
RTVSPropertyOp5
 70
     1
102
RTVSPropertyOp6
 70
     1
102
RTVSPropertyOp7
 70
     1
102
RTVSPropertyOp8
 70
     1
102
RTVSPropertyOp9
 70
     1
102
RTVSPropertyOp10
 70
     1
102
RTVSPropertyOp11
 70
     1
102
RTVSPropertyOp12
 70
     1
102
RTVSPropertyOp13
 70
     1
102
RTVSPropertyOp14
 70
     1
102
RTVSPropertyOp15
 70
     1
102
RTVSPropertyOp16
 70
     1
102
RTVSPropertyOp17
 70
     1
102
RTVSPropertyOp18
 70
     1
102
RTVSPropertyOp19
 70
     1
102
RTVSPropertyOp20
 70
     1
102
RTVSPropertyOp21
 70
     1
102
RTVSPropertyOp22
 70
     1
102
RTVSPropertyOp23
 70
     1
102
RTVSPropertyOp24
 70
     1
102
RTVSPropertyOp25
 70
     1
102
RTVSPropertyOp26
 70
     1
102
RTVSPropertyOp27
 70
     1
102
RTVSPropertyOp28
 70
     1
102
RTVSPropertyOp29
 70
     1
102
RTVSPropertyOp30
 70
     1
102
RTVSPropertyOp31
 70
     1
102
RTVSPropertyOp32
 70
     1
102
RTVSPropertyOp33
 70
     1
102
RTVSPropertyOp34
 70
     1
102
RTVSPropertyOp35
 70
     1
102
RTVSPropertyOp36
 70
     1
102
RTVSPropertyOp37
 70
     1
102
RTVSPropertyOp38
 70
     1
102
RTVSPropertyOp39
 70
     1
102
RTVSPropertyOp40
 70
     1
102
RTVSPropertyOp41
 70
     1
102
RTVSPropertyOp42
 70
     1
102
RTVSPropertyOp43
 70
     1
102
RTVSPropertyOp44
 70
     1
102
RTVSPropertyOp45
 70
     1
102
RTVSPropertyOp46
 70
     1
102
RTVSPropertyOp47
 70
     1
102
RTVSPropertyOp48
 70
     1
102
RTVSPropertyOp49
 70
     1
102
RTVSPropertyOp50
 70
     1
102
RTVSPropertyOp51
 70
     0
102
RTVSPropertyOp52
 70
     0
102
RTVSPropertyOp53
 70
     1
102
RTVSPropertyOp54
 70
     1
102
RTVSPropertyOp55
 70
     1
102
RTVSPropertyOp56
 70
     1
102
RTVSPropertyOp57
 70
     1
102
RTVSPropertyOp58
 70
     1
102
RTVSPropertyOp59
 70
     1
102
RTVSPropertyOp60
 70
     1
102
RTVSPropertyOp61
 70
     1
102
RTVSPropertyOp62
 70
     1
  0
XRECORD
  5
5FD
102
{ACAD_REACTORS
330
5FC
102
}
330
5FC
100
AcDbXrecord
280
     1
102
RTVSPost2010Prop28
280
     0
102
RTVSPost2010PropOp28
 70
     1
102
RTVSPost2010Prop29
280
     1
102
RTVSPost2010PropOp29
 70
     1
102
RTVSPost2010Prop30
280
     1
102
RTVSPost2010PropOp30
 70
     1
102
RTVSPost2010Prop31
280
     0
102
RTVSPost2010PropOp31
 70
     1
102
RTVSPost2010Prop32
280
     0
102
RTVSPost2010PropOp32
 70
     1
102
RTVSPost2010Prop33
280
     0
102
RTVSPost2010PropOp33
 70
     1
102
RTVSPost2010Prop34
280
     0
102
RTVSPost2010PropOp34
 70
     1
102
RTVSPost2010Prop35
280
     0
102
RTVSPost2010PropOp35
 70
     1
102
RTVSPost2010Prop36
280
     0
102
RTVSPost2010PropOp36
 70
     1
102
RTVSPost2010Prop37
 90
       50
102
RTVSPost2010PropOp37
 70
     1
102
RTVSPost2010Prop38
140
0.0
102
RTVSPost2010PropOp38
 70
     1
102
RTVSPost2010Prop39
140
1.0
102
RTVSPost2010PropOp39
 70
     1
102
RTVSPost2010Prop40
 90
        0
102
RTVSPost2010PropOp40
 70
     1
102
RTVSPost2010Prop41ColorIndex
 90
       18
102
RTVSPost2010Prop41ColorRGB
 90
        0
102
RTVSPost2010PropOp41
 70
     1
102
RTVSPost2010Prop42
 90
       50
102
RTVSPost2010PropOp42
 70
     1
102
RTVSPost2010Prop43
 90
        3
102
RTVSPost2010PropOp43
 70
     1
102
RTVSPost2010Prop44ColorIndex
 90
        5
102
RTVSPost2010Prop44ColorRGB
 90
      255
102
RTVSPost2010PropOp44
 70
     1
102
RTVSPost2010Prop45
280
     0
102
RTVSPost2010PropOp45
 70
     1
102
RTVSPost2010Prop46
 90
       50
102
RTVSPost2010PropOp46
 70
     1
102
RTVSPost2010Prop47
 90
       50
102
RTVSPost2010PropOp47
 70
     1
102
RTVSPost2010Prop48
 90
       50
102
RTVSPost2010PropOp48
 70
     1
102
RTVSPost2010Prop49
280
     0
102
RTVSPost2010PropOp49
 70
     1
102
RTVSPost2010Prop50
 90
       50
102
RTVSPost2010PropOp50
 70
     1
102
RTVSPost2010Prop51ColorIndex
 90
      256
102
RTVSPost2010Prop51ColorRGB
 90
-16777216
102
RTVSPost2010PropOp51
 70
     0
102
RTVSPost2010Prop52
140
1.0
102
RTVSPost2010PropOp52
 70
     0
102
RTVSPost2010Prop53
 90
        2
102
RTVSPost2010PropOp53
 70
     1
102
RTVSPost2010Prop54
  1
strokes_ogs.tif
102
RTVSPost2010PropOp54
 70
     1
102
RTVSPost2010Prop55
280
     0
102
RTVSPost2010PropOp55
 70
     1
102
RTVSPost2010Prop56
140
1.0
102
RTVSPost2010PropOp56
 70
     1
102
RTVSPost2010Prop57
140
1.0
102
RTVSPost2010PropOp57
 70
     1
102
RTVSPropertyOp0
 70
     1
102
RTVSPropertyOp1
 70
     1
102
RTVSPropertyOp2
 70
     1
102
RTVSPropertyOp3
 70
     1
102
RTVSPropertyOp4
 70
     1
102
RTVSPropertyOp5
 70
     1
102
RTVSPropertyOp6
 70
     1
102
RTVSPropertyOp7
 70
     1
102
RTVSPropertyOp8
 70
     1
102
RTVSPropertyOp9
 70
     1
102
RTVSPropertyOp10
 70
     1
102
RTVSPropertyOp11
 70
     1
102
RTVSPropertyOp12
 70
     1
102
RTVSPropertyOp13
 70
     1
102
RTVSPropertyOp14
 70
     1
102
RTVSPropertyOp15
 70
     1
102
RTVSPropertyOp16
 70
     1
102
RTVSPropertyOp17
 70
     1
102
RTVSPropertyOp18
 70
     1
102
RTVSPropertyOp19
 70
     1
102
RTVSPropertyOp20
 70
     1
102
RTVSPropertyOp21
 70
     1
102
RTVSPropertyOp22
 70
     1
102
RTVSPropertyOp23
 70
     1
102
RTVSPropertyOp24
 70
     1
102
RTVSPropertyOp25
 70
     1
102
RTVSPropertyOp26
 70
     1
102
RTVSPropertyOp27
 70
     1
102
RTVSPropertyOp28
 70
     1
102
RTVSPropertyOp29
 70
     1
102
RTVSPropertyOp30
 70
     1
102
RTVSPropertyOp31
 70
     1
102
RTVSPropertyOp32
 70
     1
102
RTVSPropertyOp33
 70
     1
102
RTVSPropertyOp34
 70
     1
102
RTVSPropertyOp35
 70
     1
102
RTVSPropertyOp36
 70
     1
102
RTVSPropertyOp37
 70
     1
102
RTVSPropertyOp38
 70
     1
102
RTVSPropertyOp39
 70
     1
102
RTVSPropertyOp40
 70
     1
102
RTVSPropertyOp41
 70
     1
102
RTVSPropertyOp42
 70
     1
102
RTVSPropertyOp43
 70
     1
102
RTVSPropertyOp44
 70
     1
102
RTVSPropertyOp45
 70
     1
102
RTVSPropertyOp46
 70
     1
102
RTVSPropertyOp47
 70
     1
102
RTVSPropertyOp48
 70
     1
102
RTVSPropertyOp49
 70
     1
102
RTVSPropertyOp50
 70
     1
102
RTVSPropertyOp51
 70
     0
102
RTVSPropertyOp52
 70
     0
102
RTVSPropertyOp53
 70
     1
102
RTVSPropertyOp54
 70
     1
102
RTVSPropertyOp55
 70
     1
102
RTVSPropertyOp56
 70
     1
102
RTVSPropertyOp57
 70
     1
102
RTVSPropertyOp58
 70
     1
102
RTVSPropertyOp59
 70
     1
102
RTVSPropertyOp60
 70
     1
102
RTVSPropertyOp61
 70
     1
102
RTVSPropertyOp62
 70
     1
  0
XRECORD
  5
5FB
102
{ACAD_REACTORS
330
5FA
102
}
330
5FA
100
AcDbXrecord
280
     1
102
RTVSPost2010Prop28
280
     0
102
RTVSPost2010PropOp28
 70
     1
102
RTVSPost2010Prop29
280
     1
102
RTVSPost2010PropOp29
 70
     1
102
RTVSPost2010Prop30
280
     1
102
RTVSPost2010PropOp30
 70
     1
102
RTVSPost2010Prop31
280
     0
102
RTVSPost2010PropOp31
 70
     1
102
RTVSPost2010Prop32
280
     0
102
RTVSPost2010PropOp32
 70
     1
102
RTVSPost2010Prop33
280
     0
102
RTVSPost2010PropOp33
 70
     1
102
RTVSPost2010Prop34
280
     0
102
RTVSPost2010PropOp34
 70
     1
102
RTVSPost2010Prop35
280
     0
102
RTVSPost2010PropOp35
 70
     1
102
RTVSPost2010Prop36
280
     0
102
RTVSPost2010PropOp36
 70
     1
102
RTVSPost2010Prop37
 90
       50
102
RTVSPost2010PropOp37
 70
     1
102
RTVSPost2010Prop38
140
0.0
102
RTVSPost2010PropOp38
 70
     1
102
RTVSPost2010Prop39
140
1.0
102
RTVSPost2010PropOp39
 70
     1
102
RTVSPost2010Prop40
 90
        0
102
RTVSPost2010PropOp40
 70
     1
102
RTVSPost2010Prop41ColorIndex
 90
       18
102
RTVSPost2010Prop41ColorRGB
 90
        0
102
RTVSPost2010PropOp41
 70
     1
102
RTVSPost2010Prop42
 90
       50
102
RTVSPost2010PropOp42
 70
     1
102
RTVSPost2010Prop43
 90
        3
102
RTVSPost2010PropOp43
 70
     1
102
RTVSPost2010Prop44ColorIndex
 90
        5
102
RTVSPost2010Prop44ColorRGB
 90
      255
102
RTVSPost2010PropOp44
 70
     1
102
RTVSPost2010Prop45
280
     0
102
RTVSPost2010PropOp45
 70
     1
102
RTVSPost2010Prop46
 90
       50
102
RTVSPost2010PropOp46
 70
     1
102
RTVSPost2010Prop47
 90
       50
102
RTVSPost2010PropOp47
 70
     1
102
RTVSPost2010Prop48
 90
       50
102
RTVSPost2010PropOp48
 70
     1
102
RTVSPost2010Prop49
280
     0
102
RTVSPost2010PropOp49
 70
     1
102
RTVSPost2010Prop50
 90
       50
102
RTVSPost2010PropOp50
 70
     1
102
RTVSPost2010Prop51ColorIndex
 90
      256
102
RTVSPost2010Prop51ColorRGB
 90
-16777216
102
RTVSPost2010PropOp51
 70
     0
102
RTVSPost2010Prop52
140
1.0
102
RTVSPost2010PropOp52
 70
     0
102
RTVSPost2010Prop53
 90
        2
102
RTVSPost2010PropOp53
 70
     1
102
RTVSPost2010Prop54
  1
strokes_ogs.tif
102
RTVSPost2010PropOp54
 70
     1
102
RTVSPost2010Prop55
280
     0
102
RTVSPost2010PropOp55
 70
     1
102
RTVSPost2010Prop56
140
1.0
102
RTVSPost2010PropOp56
 70
     1
102
RTVSPost2010Prop57
140
1.0
102
RTVSPost2010PropOp57
 70
     1
102
RTVSPropertyOp0
 70
     1
102
RTVSPropertyOp1
 70
     1
102
RTVSPropertyOp2
 70
     1
102
RTVSPropertyOp3
 70
     1
102
RTVSPropertyOp4
 70
     1
102
RTVSPropertyOp5
 70
     1
102
RTVSPropertyOp6
 70
     1
102
RTVSPropertyOp7
 70
     1
102
RTVSPropertyOp8
 70
     1
102
RTVSPropertyOp9
 70
     1
102
RTVSPropertyOp10
 70
     1
102
RTVSPropertyOp11
 70
     1
102
RTVSPropertyOp12
 70
     1
102
RTVSPropertyOp13
 70
     1
102
RTVSPropertyOp14
 70
     1
102
RTVSPropertyOp15
 70
     1
102
RTVSPropertyOp16
 70
     1
102
RTVSPropertyOp17
 70
     1
102
RTVSPropertyOp18
 70
     1
102
RTVSPropertyOp19
 70
     1
102
RTVSPropertyOp20
 70
     1
102
RTVSPropertyOp21
 70
     1
102
RTVSPropertyOp22
 70
     1
102
RTVSPropertyOp23
 70
     1
102
RTVSPropertyOp24
 70
     1
102
RTVSPropertyOp25
 70
     1
102
RTVSPropertyOp26
 70
     1
102
RTVSPropertyOp27
 70
     1
102
RTVSPropertyOp28
 70
     1
102
RTVSPropertyOp29
 70
     1
102
RTVSPropertyOp30
 70
     1
102
RTVSPropertyOp31
 70
     1
102
RTVSPropertyOp32
 70
     1
102
RTVSPropertyOp33
 70
     1
102
RTVSPropertyOp34
 70
     1
102
RTVSPropertyOp35
 70
     1
102
RTVSPropertyOp36
 70
     1
102
RTVSPropertyOp37
 70
     1
102
RTVSPropertyOp38
 70
     1
102
RTVSPropertyOp39
 70
     1
102
RTVSPropertyOp40
 70
     1
102
RTVSPropertyOp41
 70
     1
102
RTVSPropertyOp42
 70
     1
102
RTVSPropertyOp43
 70
     1
102
RTVSPropertyOp44
 70
     1
102
RTVSPropertyOp45
 70
     1
102
RTVSPropertyOp46
 70
     1
102
RTVSPropertyOp47
 70
     1
102
RTVSPropertyOp48
 70
     1
102
RTVSPropertyOp49
 70
     1
102
RTVSPropertyOp50
 70
     1
102
RTVSPropertyOp51
 70
     0
102
RTVSPropertyOp52
 70
     0
102
RTVSPropertyOp53
 70
     1
102
RTVSPropertyOp54
 70
     1
102
RTVSPropertyOp55
 70
     1
102
RTVSPropertyOp56
 70
     1
102
RTVSPropertyOp57
 70
     1
102
RTVSPropertyOp58
 70
     1
102
RTVSPropertyOp59
 70
     1
102
RTVSPropertyOp60
 70
     1
102
RTVSPropertyOp61
 70
     1
102
RTVSPropertyOp62
 70
     1
  0
XRECORD
  5
5F5
102
{ACAD_REACTORS
330
5F4
102
}
330
5F4
100
AcDbXrecord
280
     1
102
RTVSPost2010Prop28
280
     0
102
RTVSPost2010PropOp28
 70
     1
102
RTVSPost2010Prop29
280
     1
102
RTVSPost2010PropOp29
 70
     1
102
RTVSPost2010Prop30
280
     1
102
RTVSPost2010PropOp30
 70
     1
102
RTVSPost2010Prop31
280
     0
102
RTVSPost2010PropOp31
 70
     1
102
RTVSPost2010Prop32
280
     0
102
RTVSPost2010PropOp32
 70
     1
102
RTVSPost2010Prop33
280
     0
102
RTVSPost2010PropOp33
 70
     1
102
RTVSPost2010Prop34
280
     0
102
RTVSPost2010PropOp34
 70
     1
102
RTVSPost2010Prop35
280
     0
102
RTVSPost2010PropOp35
 70
     1
102
RTVSPost2010Prop36
280
     0
102
RTVSPost2010PropOp36
 70
     1
102
RTVSPost2010Prop37
 90
       50
102
RTVSPost2010PropOp37
 70
     1
102
RTVSPost2010Prop38
140
0.0
102
RTVSPost2010PropOp38
 70
     1
102
RTVSPost2010Prop39
140
1.0
102
RTVSPost2010PropOp39
 70
     1
102
RTVSPost2010Prop40
 90
        0
102
RTVSPost2010PropOp40
 70
     1
102
RTVSPost2010Prop41ColorIndex
 90
       18
102
RTVSPost2010Prop41ColorRGB
 90
        0
102
RTVSPost2010PropOp41
 70
     1
102
RTVSPost2010Prop42
 90
       50
102
RTVSPost2010PropOp42
 70
     1
102
RTVSPost2010Prop43
 90
        3
102
RTVSPost2010PropOp43
 70
     1
102
RTVSPost2010Prop44ColorIndex
 90
        5
102
RTVSPost2010Prop44ColorRGB
 90
      255
102
RTVSPost2010PropOp44
 70
     1
102
RTVSPost2010Prop45
280
     0
102
RTVSPost2010PropOp45
 70
     1
102
RTVSPost2010Prop46
 90
       50
102
RTVSPost2010PropOp46
 70
     1
102
RTVSPost2010Prop47
 90
       50
102
RTVSPost2010PropOp47
 70
     1
102
RTVSPost2010Prop48
 90
       50
102
RTVSPost2010PropOp48
 70
     1
102
RTVSPost2010Prop49
280
     0
102
RTVSPost2010PropOp49
 70
     1
102
RTVSPost2010Prop50
 90
       50
102
RTVSPost2010PropOp50
 70
     1
102
RTVSPost2010Prop51ColorIndex
 90
      256
102
RTVSPost2010Prop51ColorRGB
 90
-16777216
102
RTVSPost2010PropOp51
 70
     0
102
RTVSPost2010Prop52
140
1.0
102
RTVSPost2010PropOp52
 70
     0
102
RTVSPost2010Prop53
 90
        2
102
RTVSPost2010PropOp53
 70
     1
102
RTVSPost2010Prop54
  1
strokes_ogs.tif
102
RTVSPost2010PropOp54
 70
     1
102
RTVSPost2010Prop55
280
     0
102
RTVSPost2010PropOp55
 70
     1
102
RTVSPost2010Prop56
140
1.0
102
RTVSPost2010PropOp56
 70
     1
102
RTVSPost2010Prop57
140
1.0
102
RTVSPost2010PropOp57
 70
     1
102
RTVSPropertyOp0
 70
     1
102
RTVSPropertyOp1
 70
     1
102
RTVSPropertyOp2
 70
     1
102
RTVSPropertyOp3
 70
     1
102
RTVSPropertyOp4
 70
     1
102
RTVSPropertyOp5
 70
     1
102
RTVSPropertyOp6
 70
     1
102
RTVSPropertyOp7
 70
     1
102
RTVSPropertyOp8
 70
     1
102
RTVSPropertyOp9
 70
     1
102
RTVSPropertyOp10
 70
     1
102
RTVSPropertyOp11
 70
     1
102
RTVSPropertyOp12
 70
     1
102
RTVSPropertyOp13
 70
     1
102
RTVSPropertyOp14
 70
     1
102
RTVSPropertyOp15
 70
     1
102
RTVSPropertyOp16
 70
     1
102
RTVSPropertyOp17
 70
     1
102
RTVSPropertyOp18
 70
     1
102
RTVSPropertyOp19
 70
     1
102
RTVSPropertyOp20
 70
     1
102
RTVSPropertyOp21
 70
     1
102
RTVSPropertyOp22
 70
     1
102
RTVSPropertyOp23
 70
     1
102
RTVSPropertyOp24
 70
     1
102
RTVSPropertyOp25
 70
     1
102
RTVSPropertyOp26
 70
     1
102
RTVSPropertyOp27
 70
     1
102
RTVSPropertyOp28
 70
     1
102
RTVSPropertyOp29
 70
     1
102
RTVSPropertyOp30
 70
     1
102
RTVSPropertyOp31
 70
     1
102
RTVSPropertyOp32
 70
     1
102
RTVSPropertyOp33
 70
     1
102
RTVSPropertyOp34
 70
     1
102
RTVSPropertyOp35
 70
     1
102
RTVSPropertyOp36
 70
     1
102
RTVSPropertyOp37
 70
     1
102
RTVSPropertyOp38
 70
     1
102
RTVSPropertyOp39
 70
     1
102
RTVSPropertyOp40
 70
     1
102
RTVSPropertyOp41
 70
     1
102
RTVSPropertyOp42
 70
     1
102
RTVSPropertyOp43
 70
     1
102
RTVSPropertyOp44
 70
     1
102
RTVSPropertyOp45
 70
     1
102
RTVSPropertyOp46
 70
     1
102
RTVSPropertyOp47
 70
     1
102
RTVSPropertyOp48
 70
     1
102
RTVSPropertyOp49
 70
     1
102
RTVSPropertyOp50
 70
     1
102
RTVSPropertyOp51
 70
     0
102
RTVSPropertyOp52
 70
     0
102
RTVSPropertyOp53
 70
     1
102
RTVSPropertyOp54
 70
     1
102
RTVSPropertyOp55
 70
     1
102
RTVSPropertyOp56
 70
     1
102
RTVSPropertyOp57
 70
     1
102
RTVSPropertyOp58
 70
     1
102
RTVSPropertyOp59
 70
     1
102
RTVSPropertyOp60
 70
     1
102
RTVSPropertyOp61
 70
     1
102
RTVSPropertyOp62
 70
     1
  0
XRECORD
  5
5F7
102
{ACAD_REACTORS
330
5F6
102
}
330
5F6
100
AcDbXrecord
280
     1
102
RTVSPost2010Prop28
280
     0
102
RTVSPost2010PropOp28
 70
     1
102
RTVSPost2010Prop29
280
     1
102
RTVSPost2010PropOp29
 70
     1
102
RTVSPost2010Prop30
280
     1
102
RTVSPost2010PropOp30
 70
     1
102
RTVSPost2010Prop31
280
     0
102
RTVSPost2010PropOp31
 70
     1
102
RTVSPost2010Prop32
280
     0
102
RTVSPost2010PropOp32
 70
     1
102
RTVSPost2010Prop33
280
     0
102
RTVSPost2010PropOp33
 70
     1
102
RTVSPost2010Prop34
280
     0
102
RTVSPost2010PropOp34
 70
     1
102
RTVSPost2010Prop35
280
     0
102
RTVSPost2010PropOp35
 70
     1
102
RTVSPost2010Prop36
280
     0
102
RTVSPost2010PropOp36
 70
     1
102
RTVSPost2010Prop37
 90
       50
102
RTVSPost2010PropOp37
 70
     1
102
RTVSPost2010Prop38
140
0.0
102
RTVSPost2010PropOp38
 70
     1
102
RTVSPost2010Prop39
140
1.0
102
RTVSPost2010PropOp39
 70
     1
102
RTVSPost2010Prop40
 90
        0
102
RTVSPost2010PropOp40
 70
     1
102
RTVSPost2010Prop41ColorIndex
 90
       18
102
RTVSPost2010Prop41ColorRGB
 90
        0
102
RTVSPost2010PropOp41
 70
     1
102
RTVSPost2010Prop42
 90
       50
102
RTVSPost2010PropOp42
 70
     1
102
RTVSPost2010Prop43
 90
        3
102
RTVSPost2010PropOp43
 70
     1
102
RTVSPost2010Prop44ColorIndex
 90
        5
102
RTVSPost2010Prop44ColorRGB
 90
      255
102
RTVSPost2010PropOp44
 70
     1
102
RTVSPost2010Prop45
280
     0
102
RTVSPost2010PropOp45
 70
     1
102
RTVSPost2010Prop46
 90
       50
102
RTVSPost2010PropOp46
 70
     1
102
RTVSPost2010Prop47
 90
       50
102
RTVSPost2010PropOp47
 70
     1
102
RTVSPost2010Prop48
 90
       50
102
RTVSPost2010PropOp48
 70
     1
102
RTVSPost2010Prop49
280
     0
102
RTVSPost2010PropOp49
 70
     1
102
RTVSPost2010Prop50
 90
       50
102
RTVSPost2010PropOp50
 70
     1
102
RTVSPost2010Prop51ColorIndex
 90
      256
102
RTVSPost2010Prop51ColorRGB
 90
-16777216
102
RTVSPost2010PropOp51
 70
     0
102
RTVSPost2010Prop52
140
1.0
102
RTVSPost2010PropOp52
 70
     0
102
RTVSPost2010Prop53
 90
        2
102
RTVSPost2010PropOp53
 70
     1
102
RTVSPost2010Prop54
  1
strokes_ogs.tif
102
RTVSPost2010PropOp54
 70
     1
102
RTVSPost2010Prop55
280
     0
102
RTVSPost2010PropOp55
 70
     1
102
RTVSPost2010Prop56
140
1.0
102
RTVSPost2010PropOp56
 70
     1
102
RTVSPost2010Prop57
140
1.0
102
RTVSPost2010PropOp57
 70
     1
102
RTVSPropertyOp0
 70
     1
102
RTVSPropertyOp1
 70
     1
102
RTVSPropertyOp2
 70
     1
102
RTVSPropertyOp3
 70
     1
102
RTVSPropertyOp4
 70
     1
102
RTVSPropertyOp5
 70
     1
102
RTVSPropertyOp6
 70
     1
102
RTVSPropertyOp7
 70
     1
102
RTVSPropertyOp8
 70
     1
102
RTVSPropertyOp9
 70
     1
102
RTVSPropertyOp10
 70
     1
102
RTVSPropertyOp11
 70
     1
102
RTVSPropertyOp12
 70
     1
102
RTVSPropertyOp13
 70
     1
102
RTVSPropertyOp14
 70
     1
102
RTVSPropertyOp15
 70
     1
102
RTVSPropertyOp16
 70
     1
102
RTVSPropertyOp17
 70
     1
102
RTVSPropertyOp18
 70
     1
102
RTVSPropertyOp19
 70
     1
102
RTVSPropertyOp20
 70
     1
102
RTVSPropertyOp21
 70
     1
102
RTVSPropertyOp22
 70
     1
102
RTVSPropertyOp23
 70
     1
102
RTVSPropertyOp24
 70
     1
102
RTVSPropertyOp25
 70
     1
102
RTVSPropertyOp26
 70
     1
102
RTVSPropertyOp27
 70
     1
102
RTVSPropertyOp28
 70
     1
102
RTVSPropertyOp29
 70
     1
102
RTVSPropertyOp30
 70
     1
102
RTVSPropertyOp31
 70
     1
102
RTVSPropertyOp32
 70
     1
102
RTVSPropertyOp33
 70
     1
102
RTVSPropertyOp34
 70
     1
102
RTVSPropertyOp35
 70
     1
102
RTVSPropertyOp36
 70
     1
102
RTVSPropertyOp37
 70
     1
102
RTVSPropertyOp38
 70
     1
102
RTVSPropertyOp39
 70
     1
102
RTVSPropertyOp40
 70
     1
102
RTVSPropertyOp41
 70
     1
102
RTVSPropertyOp42
 70
     1
102
RTVSPropertyOp43
 70
     1
102
RTVSPropertyOp44
 70
     1
102
RTVSPropertyOp45
 70
     1
102
RTVSPropertyOp46
 70
     1
102
RTVSPropertyOp47
 70
     1
102
RTVSPropertyOp48
 70
     1
102
RTVSPropertyOp49
 70
     1
102
RTVSPropertyOp50
 70
     1
102
RTVSPropertyOp51
 70
     0
102
RTVSPropertyOp52
 70
     0
102
RTVSPropertyOp53
 70
     1
102
RTVSPropertyOp54
 70
     1
102
RTVSPropertyOp55
 70
     1
102
RTVSPropertyOp56
 70
     1
102
RTVSPropertyOp57
 70
     1
102
RTVSPropertyOp58
 70
     1
102
RTVSPropertyOp59
 70
     1
102
RTVSPropertyOp60
 70
     1
102
RTVSPropertyOp61
 70
     1
102
RTVSPropertyOp62
 70
     1
  0
XRECORD
  5
5ED
102
{ACAD_REACTORS
330
5EC
102
}
330
5EC
100
AcDbXrecord
280
     1
102
RTVSPost2010Prop28
280
     0
102
RTVSPost2010PropOp28
 70
     1
102
RTVSPost2010Prop29
280
     1
102
RTVSPost2010PropOp29
 70
     1
102
RTVSPost2010Prop30
280
     1
102
RTVSPost2010PropOp30
 70
     1
102
RTVSPost2010Prop31
280
     0
102
RTVSPost2010PropOp31
 70
     1
102
RTVSPost2010Prop32
280
     0
102
RTVSPost2010PropOp32
 70
     1
102
RTVSPost2010Prop33
280
     0
102
RTVSPost2010PropOp33
 70
     1
102
RTVSPost2010Prop34
280
     0
102
RTVSPost2010PropOp34
 70
     1
102
RTVSPost2010Prop35
280
     0
102
RTVSPost2010PropOp35
 70
     1
102
RTVSPost2010Prop36
280
     0
102
RTVSPost2010PropOp36
 70
     1
102
RTVSPost2010Prop37
 90
       50
102
RTVSPost2010PropOp37
 70
     1
102
RTVSPost2010Prop38
140
0.0
102
RTVSPost2010PropOp38
 70
     1
102
RTVSPost2010Prop39
140
1.0
102
RTVSPost2010PropOp39
 70
     1
102
RTVSPost2010Prop40
 90
        0
102
RTVSPost2010PropOp40
 70
     1
102
RTVSPost2010Prop41ColorIndex
 90
       18
102
RTVSPost2010Prop41ColorRGB
 90
        0
102
RTVSPost2010PropOp41
 70
     1
102
RTVSPost2010Prop42
 90
       50
102
RTVSPost2010PropOp42
 70
     1
102
RTVSPost2010Prop43
 90
        3
102
RTVSPost2010PropOp43
 70
     1
102
RTVSPost2010Prop44ColorIndex
 90
        5
102
RTVSPost2010Prop44ColorRGB
 90
      255
102
RTVSPost2010PropOp44
 70
     1
102
RTVSPost2010Prop45
280
     0
102
RTVSPost2010PropOp45
 70
     1
102
RTVSPost2010Prop46
 90
       50
102
RTVSPost2010PropOp46
 70
     1
102
RTVSPost2010Prop47
 90
       50
102
RTVSPost2010PropOp47
 70
     1
102
RTVSPost2010Prop48
 90
       50
102
RTVSPost2010PropOp48
 70
     1
102
RTVSPost2010Prop49
280
     0
102
RTVSPost2010PropOp49
 70
     1
102
RTVSPost2010Prop50
 90
       50
102
RTVSPost2010PropOp50
 70
     1
102
RTVSPost2010Prop51ColorIndex
 90
      256
102
RTVSPost2010Prop51ColorRGB
 90
-16777216
102
RTVSPost2010PropOp51
 70
     0
102
RTVSPost2010Prop52
140
1.0
102
RTVSPost2010PropOp52
 70
     0
102
RTVSPost2010Prop53
 90
        2
102
RTVSPost2010PropOp53
 70
     1
102
RTVSPost2010Prop54
  1
strokes_ogs.tif
102
RTVSPost2010PropOp54
 70
     1
102
RTVSPost2010Prop55
280
     0
102
RTVSPost2010PropOp55
 70
     1
102
RTVSPost2010Prop56
140
1.0
102
RTVSPost2010PropOp56
 70
     1
102
RTVSPost2010Prop57
140
1.0
102
RTVSPost2010PropOp57
 70
     1
102
RTVSPropertyOp0
 70
     1
102
RTVSPropertyOp1
 70
     1
102
RTVSPropertyOp2
 70
     1
102
RTVSPropertyOp3
 70
     1
102
RTVSPropertyOp4
 70
     1
102
RTVSPropertyOp5
 70
     1
102
RTVSPropertyOp6
 70
     1
102
RTVSPropertyOp7
 70
     1
102
RTVSPropertyOp8
 70
     1
102
RTVSPropertyOp9
 70
     1
102
RTVSPropertyOp10
 70
     1
102
RTVSPropertyOp11
 70
     1
102
RTVSPropertyOp12
 70
     1
102
RTVSPropertyOp13
 70
     1
102
RTVSPropertyOp14
 70
     1
102
RTVSPropertyOp15
 70
     1
102
RTVSPropertyOp16
 70
     1
102
RTVSPropertyOp17
 70
     1
102
RTVSPropertyOp18
 70
     1
102
RTVSPropertyOp19
 70
     1
102
RTVSPropertyOp20
 70
     1
102
RTVSPropertyOp21
 70
     1
102
RTVSPropertyOp22
 70
     1
102
RTVSPropertyOp23
 70
     1
102
RTVSPropertyOp24
 70
     1
102
RTVSPropertyOp25
 70
     1
102
RTVSPropertyOp26
 70
     1
102
RTVSPropertyOp27
 70
     1
102
RTVSPropertyOp28
 70
     1
102
RTVSPropertyOp29
 70
     1
102
RTVSPropertyOp30
 70
     1
102
RTVSPropertyOp31
 70
     1
102
RTVSPropertyOp32
 70
     1
102
RTVSPropertyOp33
 70
     1
102
RTVSPropertyOp34
 70
     1
102
RTVSPropertyOp35
 70
     1
102
RTVSPropertyOp36
 70
     1
102
RTVSPropertyOp37
 70
     1
102
RTVSPropertyOp38
 70
     1
102
RTVSPropertyOp39
 70
     1
102
RTVSPropertyOp40
 70
     1
102
RTVSPropertyOp41
 70
     1
102
RTVSPropertyOp42
 70
     1
102
RTVSPropertyOp43
 70
     1
102
RTVSPropertyOp44
 70
     1
102
RTVSPropertyOp45
 70
     1
102
RTVSPropertyOp46
 70
     1
102
RTVSPropertyOp47
 70
     1
102
RTVSPropertyOp48
 70
     1
102
RTVSPropertyOp49
 70
     1
102
RTVSPropertyOp50
 70
     1
102
RTVSPropertyOp51
 70
     0
102
RTVSPropertyOp52
 70
     0
102
RTVSPropertyOp53
 70
     1
102
RTVSPropertyOp54
 70
     1
102
RTVSPropertyOp55
 70
     1
102
RTVSPropertyOp56
 70
     1
102
RTVSPropertyOp57
 70
     1
102
RTVSPropertyOp58
 70
     1
102
RTVSPropertyOp59
 70
     1
102
RTVSPropertyOp60
 70
     1
102
RTVSPropertyOp61
 70
     1
102
RTVSPropertyOp62
 70
     1
  0
XRECORD
  5
5E1
102
{ACAD_REACTORS
330
5E0
102
}
330
5E0
100
AcDbXrecord
280
     1
102
RTVSPost2010Prop28
280
     0
102
RTVSPost2010PropOp28
 70
     1
102
RTVSPost2010Prop29
280
     1
102
RTVSPost2010PropOp29
 70
     1
102
RTVSPost2010Prop30
280
     1
102
RTVSPost2010PropOp30
 70
     1
102
RTVSPost2010Prop31
280
     0
102
RTVSPost2010PropOp31
 70
     1
102
RTVSPost2010Prop32
280
     0
102
RTVSPost2010PropOp32
 70
     1
102
RTVSPost2010Prop33
280
     0
102
RTVSPost2010PropOp33
 70
     1
102
RTVSPost2010Prop34
280
     0
102
RTVSPost2010PropOp34
 70
     1
102
RTVSPost2010Prop35
280
     0
102
RTVSPost2010PropOp35
 70
     1
102
RTVSPost2010Prop36
280
     0
102
RTVSPost2010PropOp36
 70
     1
102
RTVSPost2010Prop37
 90
       50
102
RTVSPost2010PropOp37
 70
     1
102
RTVSPost2010Prop38
140
0.0
102
RTVSPost2010PropOp38
 70
     1
102
RTVSPost2010Prop39
140
1.0
102
RTVSPost2010PropOp39
 70
     1
102
RTVSPost2010Prop40
 90
        0
102
RTVSPost2010PropOp40
 70
     1
102
RTVSPost2010Prop41ColorIndex
 90
       18
102
RTVSPost2010Prop41ColorRGB
 90
        0
102
RTVSPost2010PropOp41
 70
     1
102
RTVSPost2010Prop42
 90
       50
102
RTVSPost2010PropOp42
 70
     1
102
RTVSPost2010Prop43
 90
        3
102
RTVSPost2010PropOp43
 70
     1
102
RTVSPost2010Prop44ColorIndex
 90
        5
102
RTVSPost2010Prop44ColorRGB
 90
      255
102
RTVSPost2010PropOp44
 70
     1
102
RTVSPost2010Prop45
280
     0
102
RTVSPost2010PropOp45
 70
     1
102
RTVSPost2010Prop46
 90
       50
102
RTVSPost2010PropOp46
 70
     1
102
RTVSPost2010Prop47
 90
       50
102
RTVSPost2010PropOp47
 70
     1
102
RTVSPost2010Prop48
 90
       50
102
RTVSPost2010PropOp48
 70
     1
102
RTVSPost2010Prop49
280
     0
102
RTVSPost2010PropOp49
 70
     1
102
RTVSPost2010Prop50
 90
       50
102
RTVSPost2010PropOp50
 70
     1
102
RTVSPost2010Prop51ColorIndex
 90
      256
102
RTVSPost2010Prop51ColorRGB
 90
-16777216
102
RTVSPost2010PropOp51
 70
     0
102
RTVSPost2010Prop52
140
1.0
102
RTVSPost2010PropOp52
 70
     0
102
RTVSPost2010Prop53
 90
        2
102
RTVSPost2010PropOp53
 70
     1
102
RTVSPost2010Prop54
  1
strokes_ogs.tif
102
RTVSPost2010PropOp54
 70
     1
102
RTVSPost2010Prop55
280
     0
102
RTVSPost2010PropOp55
 70
     1
102
RTVSPost2010Prop56
140
1.0
102
RTVSPost2010PropOp56
 70
     1
102
RTVSPost2010Prop57
140
1.0
102
RTVSPost2010PropOp57
 70
     1
102
RTVSPropertyOp0
 70
     1
102
RTVSPropertyOp1
 70
     1
102
RTVSPropertyOp2
 70
     1
102
RTVSPropertyOp3
 70
     1
102
RTVSPropertyOp4
 70
     1
102
RTVSPropertyOp5
 70
     1
102
RTVSPropertyOp6
 70
     1
102
RTVSPropertyOp7
 70
     1
102
RTVSPropertyOp8
 70
     1
102
RTVSPropertyOp9
 70
     1
102
RTVSPropertyOp10
 70
     1
102
RTVSPropertyOp11
 70
     1
102
RTVSPropertyOp12
 70
     1
102
RTVSPropertyOp13
 70
     1
102
RTVSPropertyOp14
 70
     1
102
RTVSPropertyOp15
 70
     1
102
RTVSPropertyOp16
 70
     1
102
RTVSPropertyOp17
 70
     1
102
RTVSPropertyOp18
 70
     1
102
RTVSPropertyOp19
 70
     1
102
RTVSPropertyOp20
 70
     1
102
RTVSPropertyOp21
 70
     1
102
RTVSPropertyOp22
 70
     1
102
RTVSPropertyOp23
 70
     1
102
RTVSPropertyOp24
 70
     1
102
RTVSPropertyOp25
 70
     1
102
RTVSPropertyOp26
 70
     1
102
RTVSPropertyOp27
 70
     1
102
RTVSPropertyOp28
 70
     1
102
RTVSPropertyOp29
 70
     1
102
RTVSPropertyOp30
 70
     1
102
RTVSPropertyOp31
 70
     1
102
RTVSPropertyOp32
 70
     1
102
RTVSPropertyOp33
 70
     1
102
RTVSPropertyOp34
 70
     1
102
RTVSPropertyOp35
 70
     1
102
RTVSPropertyOp36
 70
     1
102
RTVSPropertyOp37
 70
     1
102
RTVSPropertyOp38
 70
     1
102
RTVSPropertyOp39
 70
     1
102
RTVSPropertyOp40
 70
     1
102
RTVSPropertyOp41
 70
     1
102
RTVSPropertyOp42
 70
     1
102
RTVSPropertyOp43
 70
     1
102
RTVSPropertyOp44
 70
     1
102
RTVSPropertyOp45
 70
     1
102
RTVSPropertyOp46
 70
     1
102
RTVSPropertyOp47
 70
     1
102
RTVSPropertyOp48
 70
     1
102
RTVSPropertyOp49
 70
     1
102
RTVSPropertyOp50
 70
     1
102
RTVSPropertyOp51
 70
     0
102
RTVSPropertyOp52
 70
     0
102
RTVSPropertyOp53
 70
     1
102
RTVSPropertyOp54
 70
     1
102
RTVSPropertyOp55
 70
     1
102
RTVSPropertyOp56
 70
     1
102
RTVSPropertyOp57
 70
     1
102
RTVSPropertyOp58
 70
     1
102
RTVSPropertyOp59
 70
     1
102
RTVSPropertyOp60
 70
     1
102
RTVSPropertyOp61
 70
     1
102
RTVSPropertyOp62
 70
     1
  0
XRECORD
  5
5F9
102
{ACAD_REACTORS
330
5F8
102
}
330
5F8
100
AcDbXrecord
280
     1
102
RTVSPost2010Prop28
280
     0
102
RTVSPost2010PropOp28
 70
     1
102
RTVSPost2010Prop29
280
     1
102
RTVSPost2010PropOp29
 70
     1
102
RTVSPost2010Prop30
280
     1
102
RTVSPost2010PropOp30
 70
     1
102
RTVSPost2010Prop31
280
     0
102
RTVSPost2010PropOp31
 70
     1
102
RTVSPost2010Prop32
280
     0
102
RTVSPost2010PropOp32
 70
     1
102
RTVSPost2010Prop33
280
     0
102
RTVSPost2010PropOp33
 70
     1
102
RTVSPost2010Prop34
280
     0
102
RTVSPost2010PropOp34
 70
     1
102
RTVSPost2010Prop35
280
     0
102
RTVSPost2010PropOp35
 70
     1
102
RTVSPost2010Prop36
280
     0
102
RTVSPost2010PropOp36
 70
     1
102
RTVSPost2010Prop37
 90
       50
102
RTVSPost2010PropOp37
 70
     1
102
RTVSPost2010Prop38
140
0.0
102
RTVSPost2010PropOp38
 70
     1
102
RTVSPost2010Prop39
140
1.0
102
RTVSPost2010PropOp39
 70
     1
102
RTVSPost2010Prop40
 90
        0
102
RTVSPost2010PropOp40
 70
     1
102
RTVSPost2010Prop41ColorIndex
 90
       18
102
RTVSPost2010Prop41ColorRGB
 90
        0
102
RTVSPost2010PropOp41
 70
     1
102
RTVSPost2010Prop42
 90
       50
102
RTVSPost2010PropOp42
 70
     1
102
RTVSPost2010Prop43
 90
        3
102
RTVSPost2010PropOp43
 70
     1
102
RTVSPost2010Prop44ColorIndex
 90
        5
102
RTVSPost2010Prop44ColorRGB
 90
      255
102
RTVSPost2010PropOp44
 70
     1
102
RTVSPost2010Prop45
280
     0
102
RTVSPost2010PropOp45
 70
     1
102
RTVSPost2010Prop46
 90
       50
102
RTVSPost2010PropOp46
 70
     1
102
RTVSPost2010Prop47
 90
       50
102
RTVSPost2010PropOp47
 70
     1
102
RTVSPost2010Prop48
 90
       50
102
RTVSPost2010PropOp48
 70
     1
102
RTVSPost2010Prop49
280
     0
102
RTVSPost2010PropOp49
 70
     1
102
RTVSPost2010Prop50
 90
       50
102
RTVSPost2010PropOp50
 70
     1
102
RTVSPost2010Prop51ColorIndex
 90
      256
102
RTVSPost2010Prop51ColorRGB
 90
-16777216
102
RTVSPost2010PropOp51
 70
     0
102
RTVSPost2010Prop52
140
1.0
102
RTVSPost2010PropOp52
 70
     0
102
RTVSPost2010Prop53
 90
        2
102
RTVSPost2010PropOp53
 70
     1
102
RTVSPost2010Prop54
  1
strokes_ogs.tif
102
RTVSPost2010PropOp54
 70
     1
102
RTVSPost2010Prop55
280
     0
102
RTVSPost2010PropOp55
 70
     1
102
RTVSPost2010Prop56
140
1.0
102
RTVSPost2010PropOp56
 70
     1
102
RTVSPost2010Prop57
140
1.0
102
RTVSPost2010PropOp57
 70
     1
102
RTVSPropertyOp0
 70
     1
102
RTVSPropertyOp1
 70
     1
102
RTVSPropertyOp2
 70
     1
102
RTVSPropertyOp3
 70
     1
102
RTVSPropertyOp4
 70
     1
102
RTVSPropertyOp5
 70
     1
102
RTVSPropertyOp6
 70
     1
102
RTVSPropertyOp7
 70
     1
102
RTVSPropertyOp8
 70
     1
102
RTVSPropertyOp9
 70
     1
102
RTVSPropertyOp10
 70
     1
102
RTVSPropertyOp11
 70
     1
102
RTVSPropertyOp12
 70
     1
102
RTVSPropertyOp13
 70
     1
102
RTVSPropertyOp14
 70
     1
102
RTVSPropertyOp15
 70
     1
102
RTVSPropertyOp16
 70
     1
102
RTVSPropertyOp17
 70
     1
102
RTVSPropertyOp18
 70
     1
102
RTVSPropertyOp19
 70
     1
102
RTVSPropertyOp20
 70
     1
102
RTVSPropertyOp21
 70
     1
102
RTVSPropertyOp22
 70
     1
102
RTVSPropertyOp23
 70
     1
102
RTVSPropertyOp24
 70
     1
102
RTVSPropertyOp25
 70
     1
102
RTVSPropertyOp26
 70
     1
102
RTVSPropertyOp27
 70
     1
102
RTVSPropertyOp28
 70
     1
102
RTVSPropertyOp29
 70
     1
102
RTVSPropertyOp30
 70
     1
102
RTVSPropertyOp31
 70
     1
102
RTVSPropertyOp32
 70
     1
102
RTVSPropertyOp33
 70
     1
102
RTVSPropertyOp34
 70
     1
102
RTVSPropertyOp35
 70
     1
102
RTVSPropertyOp36
 70
     1
102
RTVSPropertyOp37
 70
     1
102
RTVSPropertyOp38
 70
     1
102
RTVSPropertyOp39
 70
     1
102
RTVSPropertyOp40
 70
     1
102
RTVSPropertyOp41
 70
     1
102
RTVSPropertyOp42
 70
     1
102
RTVSPropertyOp43
 70
     1
102
RTVSPropertyOp44
 70
     1
102
RTVSPropertyOp45
 70
     1
102
RTVSPropertyOp46
 70
     1
102
RTVSPropertyOp47
 70
     1
102
RTVSPropertyOp48
 70
     1
102
RTVSPropertyOp49
 70
     1
102
RTVSPropertyOp50
 70
     1
102
RTVSPropertyOp51
 70
     0
102
RTVSPropertyOp52
 70
     0
102
RTVSPropertyOp53
 70
     1
102
RTVSPropertyOp54
 70
     1
102
RTVSPropertyOp55
 70
     1
102
RTVSPropertyOp56
 70
     1
102
RTVSPropertyOp57
 70
     1
102
RTVSPropertyOp58
 70
     1
102
RTVSPropertyOp59
 70
     1
102
RTVSPropertyOp60
 70
     1
102
RTVSPropertyOp61
 70
     1
102
RTVSPropertyOp62
 70
     1
  0
ENDSEC
  0
EOF
