ISO-10303-21;
HEADER;
/****************************************************************
 * Generated by software with PDE/Lib inside                    *
 * PDElib Version 4.4.1-0003, patched  Thursday August 19 11:58 *
 * International Technegroup Inc. (www.iti-oh.com)              *
 ****************************************************************/
FILE_DESCRIPTION((''),'2;1');
FILE_NAME('','2005-12-15T09:59:54',(''),(''),'','CADfix','');
FILE_SCHEMA(('AUTOMOTIVE_DESIGN'));
ENDSEC;
DATA;
#5=APPLICATION_CONTEXT('automotive design');
#6=APPLICATION_PROTOCOL_DEFINITION('Draft International Standard','automotive_design',1998,#5);
#7=PRODUCT_CONTEXT('None',#5,'mechanical');
#8=PRODUCT('rubber foam','','None',(#7));
#9=PRODUCT_RELATED_PRODUCT_CATEGORY('part','description',(#8));
#10=PRODUCT_DEFINITION_FORMATION('None','None',#8);
#11=PRODUCT_DEFINITION_CONTEXT('part definition',#5,'design');
#12=PRODUCT_DEFINITION('None','None',#10,#11);
#18=(NAMED_UNIT(*)PLANE_ANGLE_UNIT()SI_UNIT($,.RADIAN.));
#19=DIMENSIONAL_EXPONENTS(0.0,0.0,0.0,0.0,0.0,0.0,0.0);
#20=PLANE_ANGLE_MEASURE_WITH_UNIT(PLANE_ANGLE_MEASURE(0.017453292500000),#18);
#24=(CONVERSION_BASED_UNIT('DEGREE',#20)NAMED_UNIT(#19)PLANE_ANGLE_UNIT());
#28=(NAMED_UNIT(*)SI_UNIT($,.STERADIAN.)SOLID_ANGLE_UNIT());
#32=(LENGTH_UNIT()NAMED_UNIT(*)SI_UNIT(.MILLI.,.METRE.));
#34=UNCERTAINTY_MEASURE_WITH_UNIT(LENGTH_MEASURE(0.001000000000000),#32,'DISTANCE_ACCURACY_VALUE','');
#36=(GEOMETRIC_REPRESENTATION_CONTEXT(3)GLOBAL_UNCERTAINTY_ASSIGNED_CONTEXT((#34))GLOBAL_UNIT_ASSIGNED_CONTEXT((#24,#28,#32))REPRESENTATION_CONTEXT('None','None'));
#37=AXIS2_PLACEMENT_3D('',#38,#39,#40);
#38=CARTESIAN_POINT('',(0.0,0.0,0.0));
#39=DIRECTION('',(0.0,0.0,1.0));
#40=DIRECTION('',(1.0,0.0,0.0));
#41=ADVANCED_BREP_SHAPE_REPRESENTATION('',(#37,#255),#36);
#42=PRODUCT_DEFINITION_SHAPE('','',#12);
#43=SHAPE_DEFINITION_REPRESENTATION(#42,#41);
#44=CARTESIAN_POINT('',(-2.979028579091000,205.000000000000030,0.354102703970275));
#45=CARTESIAN_POINT('',(-2.989162846345817,205.0,0.268844185913933));
#46=CARTESIAN_POINT('',(-2.994404395265600,205.0,0.183145618604571));
#47=CARTESIAN_POINT('',(-3.177550013870171,205.000000000000090,-2.811258776661029));
#48=CARTESIAN_POINT('',(-0.183145618604571,205.0,-2.994404395265600));
#49=CARTESIAN_POINT('',(2.811258776661029,205.000000000000090,-3.177550013870171));
#50=CARTESIAN_POINT('',(2.994404395265600,205.0,-0.183145618604571));
#51=CARTESIAN_POINT('',(-2.979028579091000,-5.125000000000001,0.354102703970275));
#52=CARTESIAN_POINT('',(-2.989162846345817,-5.125000000000000,0.268844185913933));
#53=CARTESIAN_POINT('',(-2.994404395265600,-5.125000000000000,0.183145618604571));
#54=CARTESIAN_POINT('',(-3.177550013870171,-5.125000000000001,-2.811258776661029));
#55=CARTESIAN_POINT('',(-0.183145618604571,-5.125000000000000,-2.994404395265600));
#56=CARTESIAN_POINT('',(2.811258776661029,-5.125000000000001,-3.177550013870171));
#57=CARTESIAN_POINT('',(2.994404395265600,-5.125000000000000,-0.183145618604571));
#65=(BOUNDED_SURFACE()B_SPLINE_SURFACE(2,1,((#44,#51),(#45,#52),(#46,#53),(#47,#54),(#48,#55),(#49,#56),(#50,#57)),.UNSPECIFIED.,.F.,.F.,.U.)B_SPLINE_SURFACE_WITH_KNOTS((3,2,2,3),(2,2),(0.0,0.198822509939086,5.169385258416225,10.139948006893370),(0.0,210.125000000000110),.UNSPECIFIED.)GEOMETRIC_REPRESENTATION_ITEM()RATIONAL_B_SPLINE_SURFACE(((0.977505800795127,0.977505800795127),(0.988284271247462,0.988284271247462),(1.0,1.0),(0.707106781186548,0.707106781186548),(1.0,1.0),(0.707106781186548,0.707106781186548),(1.0,1.0)))REPRESENTATION_ITEM('')SURFACE());
#66=CARTESIAN_POINT('',(-2.979028654018667,3.770761E-014,0.354102073610596));
#67=VERTEX_POINT('',#66);
#68=CARTESIAN_POINT('',(0.0,0.0,-3.0));
#69=VERTEX_POINT('',#68);
#70=CARTESIAN_POINT('',(-2.979028654018667,3.770761E-014,0.354102073610596));
#71=CARTESIAN_POINT('',(-3.0,0.0,0.177671721931993));
#72=CARTESIAN_POINT('',(-3.0,0.0,0.0));
#73=CARTESIAN_POINT('',(-3.0,0.0,-3.0));
#74=CARTESIAN_POINT('',(0.0,0.0,-3.0));
#82=(BOUNDED_CURVE()B_SPLINE_CURVE(2,(#70,#71,#72,#73,#74),.UNSPECIFIED.,.F.,.U.)B_SPLINE_CURVE_WITH_KNOTS((3,2,3),(0.229562545037509,0.250000000000000,0.500000000000000),.UNSPECIFIED.)CURVE()GEOMETRIC_REPRESENTATION_ITEM()RATIONAL_B_SPLINE_CURVE((0.956026894373716,0.976056032126724,1.0,0.707106781186548,1.0))REPRESENTATION_ITEM(''));
#83=EDGE_CURVE('',#67,#69,#82,.T.);
#84=ORIENTED_EDGE('',*,*,#83,.F.);
#85=CARTESIAN_POINT('',(-2.979028653098946,200.0,0.354102081348138));
#86=VERTEX_POINT('',#85);
#87=CARTESIAN_POINT('',(-2.979028653098946,200.0,0.354102081348138));
#88=CARTESIAN_POINT('',(-2.979028654018667,3.770761E-014,0.354102073610596));
#89=QUASI_UNIFORM_CURVE('',1,(#87,#88),.UNSPECIFIED.,.F.,.U.);
#90=EDGE_CURVE('',#86,#67,#89,.T.);
#91=ORIENTED_EDGE('',*,*,#90,.F.);
#92=CARTESIAN_POINT('',(0.0,200.0,-3.0));
#93=VERTEX_POINT('',#92);
#94=CARTESIAN_POINT('',(-2.979028653098946,199.999999999999970,0.354102081348138));
#95=CARTESIAN_POINT('',(-3.000000000000000,199.999999999999970,0.177671729751334));
#96=CARTESIAN_POINT('',(-3.0,200.0,0.0));
#97=CARTESIAN_POINT('',(-3.0,200.0,-3.0));
#98=CARTESIAN_POINT('',(0.0,200.0,-3.0));
#106=(BOUNDED_CURVE()B_SPLINE_CURVE(2,(#94,#95,#96,#97,#98),.UNSPECIFIED.,.F.,.U.)B_SPLINE_CURVE_WITH_KNOTS((3,2,3),(0.229562544159592,0.250000000000000,0.500000000000000),.UNSPECIFIED.)CURVE()GEOMETRIC_REPRESENTATION_ITEM()RATIONAL_B_SPLINE_CURVE((0.956026892652962,0.976056031098181,1.0,0.707106781186548,1.0))REPRESENTATION_ITEM(''));
#107=EDGE_CURVE('',#86,#93,#106,.T.);
#108=ORIENTED_EDGE('',*,*,#107,.T.);
#109=CARTESIAN_POINT('',(2.994404395256164,200.0,-0.183145618758862));
#110=VERTEX_POINT('',#109);
#111=CARTESIAN_POINT('',(0.0,200.0,-3.0));
#112=CARTESIAN_POINT('',(2.822118200425696,200.000000000000060,-3.0));
#113=CARTESIAN_POINT('',(2.994404395256164,200.000000000000060,-0.183145618758862));
#121=(BOUNDED_CURVE()B_SPLINE_CURVE(2,(#111,#112,#113),.UNSPECIFIED.,.F.,.U.)B_SPLINE_CURVE_WITH_KNOTS((3,3),(0.500000000000000,0.739332962224186),.UNSPECIFIED.)CURVE()GEOMETRIC_REPRESENTATION_ITEM()RATIONAL_B_SPLINE_CURVE((1.0,0.719603993303999,0.976072041635090))REPRESENTATION_ITEM(''));
#122=EDGE_CURVE('',#93,#110,#121,.T.);
#123=ORIENTED_EDGE('',*,*,#122,.T.);
#124=CARTESIAN_POINT('',(2.994404395256164,-9.325873E-015,-0.183145618758861));
#125=VERTEX_POINT('',#124);
#126=CARTESIAN_POINT('',(2.994404395256164,200.0,-0.183145618758862));
#127=CARTESIAN_POINT('',(2.994404395256164,-9.325873E-015,-0.183145618758861));
#128=QUASI_UNIFORM_CURVE('',1,(#126,#127),.UNSPECIFIED.,.F.,.U.);
#129=EDGE_CURVE('',#110,#125,#128,.T.);
#130=ORIENTED_EDGE('',*,*,#129,.T.);
#131=CARTESIAN_POINT('',(0.0,0.0,-3.0));
#132=CARTESIAN_POINT('',(2.822118200425733,0.0,-3.000000000000000));
#133=CARTESIAN_POINT('',(2.994404395256164,-9.325873E-015,-0.183145618758861));
#141=(BOUNDED_CURVE()B_SPLINE_CURVE(2,(#131,#132,#133),.UNSPECIFIED.,.F.,.U.)B_SPLINE_CURVE_WITH_KNOTS((3,3),(0.500000000000000,0.739332962224188),.UNSPECIFIED.)CURVE()GEOMETRIC_REPRESENTATION_ITEM()RATIONAL_B_SPLINE_CURVE((1.0,0.719603993303997,0.976072041635095))REPRESENTATION_ITEM(''));
#142=EDGE_CURVE('',#69,#125,#141,.T.);
#143=ORIENTED_EDGE('',*,*,#142,.F.);
#144=EDGE_LOOP('',(#84,#91,#108,#123,#130,#143));
#145=FACE_OUTER_BOUND('',#144,.T.);
#146=ADVANCED_FACE('',(#145),#65,.T.);
#147=CARTESIAN_POINT('',(2.994404395265600,205.0,-0.183145618604571));
#148=CARTESIAN_POINT('',(3.177550013870171,205.000000000000090,2.811258776661029));
#149=CARTESIAN_POINT('',(0.183145618604571,205.0,2.994404395265600));
#150=CARTESIAN_POINT('',(-2.644630472518504,205.000000000000060,3.167358590197582));
#151=CARTESIAN_POINT('',(-2.979028579091000,205.000000000000030,0.354102703970275));
#152=CARTESIAN_POINT('',(2.994404395265600,-5.125000000000000,-0.183145618604571));
#153=CARTESIAN_POINT('',(3.177550013870171,-5.125000000000001,2.811258776661029));
#154=CARTESIAN_POINT('',(0.183145618604571,-5.125000000000000,2.994404395265600));
#155=CARTESIAN_POINT('',(-2.644630472518504,-5.124999999999999,3.167358590197582));
#156=CARTESIAN_POINT('',(-2.979028579091000,-5.125000000000001,0.354102703970275));
#164=(BOUNDED_SURFACE()B_SPLINE_SURFACE(2,1,((#147,#152),(#148,#153),(#149,#154),(#150,#155),(#151,#156)),.UNSPECIFIED.,.F.,.F.,.U.)B_SPLINE_SURFACE_WITH_KNOTS((3,2,3),(2,2),(0.0,4.970562748477139,9.742302987015194),(0.0,210.125000000000110),.UNSPECIFIED.)GEOMETRIC_REPRESENTATION_ITEM()RATIONAL_B_SPLINE_SURFACE(((1.0,1.0),(0.707106781186548,0.707106781186548),(1.0,1.0),(0.718822509939086,0.718822509939086),(0.977505800795127,0.977505800795127)))REPRESENTATION_ITEM('')SURFACE());
#165=CARTESIAN_POINT('',(0.0,0.0,3.0));
#166=VERTEX_POINT('',#165);
#167=CARTESIAN_POINT('',(0.0,0.0,3.0));
#168=CARTESIAN_POINT('',(-2.664524713413811,0.0,3.000000000000000));
#169=CARTESIAN_POINT('',(-2.979028654018667,3.770761E-014,0.354102073610596));
#177=(BOUNDED_CURVE()B_SPLINE_CURVE(2,(#167,#168,#169),.UNSPECIFIED.,.F.,.U.)B_SPLINE_CURVE_WITH_KNOTS((3,3),(0.0,0.229562545037509),.UNSPECIFIED.)CURVE()GEOMETRIC_REPRESENTATION_ITEM()RATIONAL_B_SPLINE_CURVE((1.0,0.731050749059823,0.956026894373716))REPRESENTATION_ITEM(''));
#178=EDGE_CURVE('',#166,#67,#177,.T.);
#179=ORIENTED_EDGE('',*,*,#178,.F.);
#180=CARTESIAN_POINT('',(2.994404395256163,-9.325873E-015,-0.183145618758861));
#181=CARTESIAN_POINT('',(3.000000000000000,0.0,-0.091658290050489));
#182=CARTESIAN_POINT('',(3.0,0.0,0.0));
#183=CARTESIAN_POINT('',(3.0,0.0,3.0));
#184=CARTESIAN_POINT('',(0.0,0.0,3.0));
#192=(BOUNDED_CURVE()B_SPLINE_CURVE(2,(#180,#181,#182,#183,#184),.UNSPECIFIED.,.F.,.U.)B_SPLINE_CURVE_WITH_KNOTS((3,2,3),(0.739332962224187,0.750000000000000,1.0),.UNSPECIFIED.)CURVE()GEOMETRIC_REPRESENTATION_ITEM()RATIONAL_B_SPLINE_CURVE((0.976072041635093,0.987502787882550,1.0,0.707106781186548,1.0))REPRESENTATION_ITEM(''));
#193=EDGE_CURVE('',#125,#166,#192,.T.);
#194=ORIENTED_EDGE('',*,*,#193,.F.);
#195=ORIENTED_EDGE('',*,*,#129,.F.);
#196=CARTESIAN_POINT('',(0.0,200.0,3.0));
#197=VERTEX_POINT('',#196);
#198=CARTESIAN_POINT('',(2.994404395256164,200.000000000000030,-0.183145618758862));
#199=CARTESIAN_POINT('',(3.0,199.999999999999970,-0.091658290050490));
#200=CARTESIAN_POINT('',(3.0,200.0,0.0));
#201=CARTESIAN_POINT('',(3.0,200.0,3.0));
#202=CARTESIAN_POINT('',(0.0,200.0,3.0));
#210=(BOUNDED_CURVE()B_SPLINE_CURVE(2,(#198,#199,#200,#201,#202),.UNSPECIFIED.,.F.,.U.)B_SPLINE_CURVE_WITH_KNOTS((3,2,3),(0.739332962224187,0.750000000000000,1.0),.UNSPECIFIED.)CURVE()GEOMETRIC_REPRESENTATION_ITEM()RATIONAL_B_SPLINE_CURVE((0.976072041635093,0.987502787882550,1.0,0.707106781186548,1.0))REPRESENTATION_ITEM(''));
#211=EDGE_CURVE('',#110,#197,#210,.T.);
#212=ORIENTED_EDGE('',*,*,#211,.T.);
#213=CARTESIAN_POINT('',(0.0,200.0,3.0));
#214=CARTESIAN_POINT('',(-2.664524699475038,200.000000000000030,3.000000000000000));
#215=CARTESIAN_POINT('',(-2.979028653098946,199.999999999999970,0.354102081348138));
#223=(BOUNDED_CURVE()B_SPLINE_CURVE(2,(#213,#214,#215),.UNSPECIFIED.,.F.,.U.)B_SPLINE_CURVE_WITH_KNOTS((3,3),(0.0,0.229562544159592),.UNSPECIFIED.)CURVE()GEOMETRIC_REPRESENTATION_ITEM()RATIONAL_B_SPLINE_CURVE((1.0,0.731050750088367,0.956026892652962))REPRESENTATION_ITEM(''));
#224=EDGE_CURVE('',#197,#86,#223,.T.);
#225=ORIENTED_EDGE('',*,*,#224,.T.);
#226=ORIENTED_EDGE('',*,*,#90,.T.);
#227=EDGE_LOOP('',(#179,#194,#195,#212,#225,#226));
#228=FACE_OUTER_BOUND('',#227,.T.);
#229=ADVANCED_FACE('',(#228),#164,.T.);
#230=CARTESIAN_POINT('',(-3.299645593603832,0.0,3.299699988370836));
#231=CARTESIAN_POINT('',(3.299626979073268,0.0,3.299699988370836));
#232=CARTESIAN_POINT('',(-3.299645593603832,0.0,-3.299700149303376));
#233=CARTESIAN_POINT('',(3.299626979073268,0.0,-3.299700149303376));
#234=B_SPLINE_SURFACE_WITH_KNOTS('',1,1,((#230,#232),(#231,#233)),.UNSPECIFIED.,.F.,.F.,.U.,(2,2),(2,2),(0.0,6.599272572677100),(0.0,6.599400137674213),.UNSPECIFIED.);
#235=ORIENTED_EDGE('',*,*,#178,.T.);
#236=ORIENTED_EDGE('',*,*,#83,.T.);
#237=ORIENTED_EDGE('',*,*,#142,.T.);
#238=ORIENTED_EDGE('',*,*,#193,.T.);
#239=EDGE_LOOP('',(#235,#236,#237,#238));
#240=FACE_OUTER_BOUND('',#239,.T.);
#241=ADVANCED_FACE('',(#240),#234,.F.);
#242=CARTESIAN_POINT('',(-3.299645593603832,200.0,3.299699988370836));
#243=CARTESIAN_POINT('',(3.299626979073268,200.0,3.299699988370836));
#244=CARTESIAN_POINT('',(-3.299645593603832,200.0,-3.299700149303376));
#245=CARTESIAN_POINT('',(3.299626979073268,200.0,-3.299700149303376));
#246=B_SPLINE_SURFACE_WITH_KNOTS('',1,1,((#242,#244),(#243,#245)),.UNSPECIFIED.,.F.,.F.,.U.,(2,2),(2,2),(0.0,6.599272572677100),(0.0,6.599400137674213),.UNSPECIFIED.);
#247=ORIENTED_EDGE('',*,*,#211,.F.);
#248=ORIENTED_EDGE('',*,*,#122,.F.);
#249=ORIENTED_EDGE('',*,*,#107,.F.);
#250=ORIENTED_EDGE('',*,*,#224,.F.);
#251=EDGE_LOOP('',(#247,#248,#249,#250));
#252=FACE_OUTER_BOUND('',#251,.T.);
#253=ADVANCED_FACE('',(#252),#246,.T.);
#254=CLOSED_SHELL('',(#146,#229,#241,#253));
#255=MANIFOLD_SOLID_BREP('rubber foam',#254);
#261=(NAMED_UNIT(*)PLANE_ANGLE_UNIT()SI_UNIT($,.RADIAN.));
#262=DIMENSIONAL_EXPONENTS(0.0,0.0,0.0,0.0,0.0,0.0,0.0);
#263=PLANE_ANGLE_MEASURE_WITH_UNIT(PLANE_ANGLE_MEASURE(0.017453292500000),#261);
#267=(CONVERSION_BASED_UNIT('DEGREE',#263)NAMED_UNIT(#262)PLANE_ANGLE_UNIT());
#271=(NAMED_UNIT(*)SI_UNIT($,.STERADIAN.)SOLID_ANGLE_UNIT());
#275=(LENGTH_UNIT()NAMED_UNIT(*)SI_UNIT(.MILLI.,.METRE.));
#277=UNCERTAINTY_MEASURE_WITH_UNIT(LENGTH_MEASURE(0.001000000000000),#275,'DISTANCE_ACCURACY_VALUE','');
#279=(GEOMETRIC_REPRESENTATION_CONTEXT(3)GLOBAL_UNCERTAINTY_ASSIGNED_CONTEXT((#277))GLOBAL_UNIT_ASSIGNED_CONTEXT((#267,#271,#275))REPRESENTATION_CONTEXT('','3D'));
ENDSEC;
END-ISO-10303-21;
